  0
SECTION
  2
HEADER
  9
$ACADVER
  1
AC1015
  9
$ACADMAINTVER
 70
     6
  9
$DWGCODEPAGE
  3
ANSI_1252
  9
$INSBASE
 10
115.7816970751082
 20
542.9770862832447
 30
0.0
  9
$EXTMIN
 10
100.817182832172
 20
534.4342064315608
 30
0.0
  9
$EXTMAX
 10
129.6963279446987
 20
551.2748908436889
 30
0.0
  9
$LIMMIN
 10
0.0
 20
0.0
  9
$LIMMAX
 10
12.0
 20
9.0
  9
$ORTHOMODE
 70
     0
  9
$REGENMODE
 70
     1
  9
$FILLMODE
 70
     1
  9
$QTEXTMODE
 70
     0
  9
$MIRRTEXT
 70
     1
  9
$LTSCALE
 40
1.0
  9
$ATTMODE
 70
     1
  9
$TEXTSIZE
 40
0.2
  9
$TRACEWID
 40
0.05
  9
$TEXTSTYLE
  7
Standard
  9
$CLAYER
  8
0
  9
$CELTYPE
  6
ByLayer
  9
$CECOLOR
 62
   256
  9
$CELTSCALE
 40
1.0
  9
$DISPSILH
 70
     0
  9
$DIMSCALE
 40
1.0
  9
$DIMASZ
 40
0.18
  9
$DIMEXO
 40
0.0625
  9
$DIMDLI
 40
0.38
  9
$DIMRND
 40
0.0
  9
$DIMDLE
 40
0.0
  9
$DIMEXE
 40
0.18
  9
$DIMTP
 40
0.0
  9
$DIMTM
 40
0.0
  9
$DIMTXT
 40
0.18
  9
$DIMCEN
 40
0.09
  9
$DIMTSZ
 40
0.0
  9
$DIMTOL
 70
     0
  9
$DIMLIM
 70
     0
  9
$DIMTIH
 70
     1
  9
$DIMTOH
 70
     1
  9
$DIMSE1
 70
     0
  9
$DIMSE2
 70
     0
  9
$DIMTAD
 70
     0
  9
$DIMZIN
 70
     0
  9
$DIMBLK
  1

  9
$DIMASO
 70
     1
  9
$DIMSHO
 70
     1
  9
$DIMPOST
  1

  9
$DIMAPOST
  1

  9
$DIMALT
 70
     0
  9
$DIMALTD
 70
     2
  9
$DIMALTF
 40
25.4
  9
$DIMLFAC
 40
1.0
  9
$DIMTOFL
 70
     0
  9
$DIMTVP
 40
0.0
  9
$DIMTIX
 70
     0
  9
$DIMSOXD
 70
     0
  9
$DIMSAH
 70
     0
  9
$DIMBLK1
  1

  9
$DIMBLK2
  1

  9
$DIMSTYLE
  2
Standard
  9
$DIMCLRD
 70
     0
  9
$DIMCLRE
 70
     0
  9
$DIMCLRT
 70
     0
  9
$DIMTFAC
 40
1.0
  9
$DIMGAP
 40
0.09
  9
$DIMJUST
 70
     0
  9
$DIMSD1
 70
     0
  9
$DIMSD2
 70
     0
  9
$DIMTOLJ
 70
     1
  9
$DIMTZIN
 70
     0
  9
$DIMALTZ
 70
     0
  9
$DIMALTTZ
 70
     0
  9
$DIMUPT
 70
     0
  9
$DIMDEC
 70
     4
  9
$DIMTDEC
 70
     4
  9
$DIMALTU
 70
     2
  9
$DIMALTTD
 70
     2
  9
$DIMTXSTY
  7
Standard
  9
$DIMAUNIT
 70
     0
  9
$DIMADEC
 70
     0
  9
$DIMALTRND
 40
0.0
  9
$DIMAZIN
 70
     0
  9
$DIMDSEP
 70
    46
  9
$DIMATFIT
 70
     3
  9
$DIMFRAC
 70
     0
  9
$DIMLDRBLK
  1

  9
$DIMLUNIT
 70
     2
  9
$DIMLWD
 70
    -2
  9
$DIMLWE
 70
    -2
  9
$DIMTMOVE
 70
     0
  9
$LUNITS
 70
     2
  9
$LUPREC
 70
     4
  9
$SKETCHINC
 40
0.1
  9
$FILLETRAD
 40
0.5
  9
$AUNITS
 70
     0
  9
$AUPREC
 70
     0
  9
$MENU
  1
.
  9
$ELEVATION
 40
0.0
  9
$PELEVATION
 40
0.0
  9
$THICKNESS
 40
0.0
  9
$LIMCHECK
 70
     0
  9
$CHAMFERA
 40
0.5
  9
$CHAMFERB
 40
0.5
  9
$CHAMFERC
 40
1.0
  9
$CHAMFERD
 40
0.0
  9
$SKPOLY
 70
     0
  9
$TDCREATE
 40
2458676.485268229
  9
$TDUCREATE
 40
2458676.651934896
  9
$TDUPDATE
 40
2458708.506848623
  9
$TDUUPDATE
 40
2458708.67351529
  9
$TDINDWG
 40
0.0332955324
  9
$TDUSRTIMER
 40
0.0332955324
  9
$USRTIMER
 70
     1
  9
$ANGBASE
 50
0.0
  9
$ANGDIR
 70
     0
  9
$PDMODE
 70
     0
  9
$PDSIZE
 40
0.0
  9
$PLINEWID
 40
0.0
  9
$SPLFRAME
 70
     0
  9
$SPLINETYPE
 70
     6
  9
$SPLINESEGS
 70
     8
  9
$HANDSEED
  5
DF
  9
$SURFTAB1
 70
     6
  9
$SURFTAB2
 70
     6
  9
$SURFTYPE
 70
     6
  9
$SURFU
 70
     6
  9
$SURFV
 70
     6
  9
$UCSBASE
  2

  9
$UCSNAME
  2

  9
$UCSORG
 10
0.0
 20
0.0
 30
0.0
  9
$UCSXDIR
 10
1.0
 20
0.0
 30
0.0
  9
$UCSYDIR
 10
0.0
 20
1.0
 30
0.0
  9
$UCSORTHOREF
  2

  9
$UCSORTHOVIEW
 70
     0
  9
$UCSORGTOP
 10
0.0
 20
0.0
 30
0.0
  9
$UCSORGBOTTOM
 10
0.0
 20
0.0
 30
0.0
  9
$UCSORGLEFT
 10
0.0
 20
0.0
 30
0.0
  9
$UCSORGRIGHT
 10
0.0
 20
0.0
 30
0.0
  9
$UCSORGFRONT
 10
0.0
 20
0.0
 30
0.0
  9
$UCSORGBACK
 10
0.0
 20
0.0
 30
0.0
  9
$PUCSBASE
  2

  9
$PUCSNAME
  2

  9
$PUCSORG
 10
0.0
 20
0.0
 30
0.0
  9
$PUCSXDIR
 10
1.0
 20
0.0
 30
0.0
  9
$PUCSYDIR
 10
0.0
 20
1.0
 30
0.0
  9
$PUCSORTHOREF
  2

  9
$PUCSORTHOVIEW
 70
     0
  9
$PUCSORGTOP
 10
0.0
 20
0.0
 30
0.0
  9
$PUCSORGBOTTOM
 10
0.0
 20
0.0
 30
0.0
  9
$PUCSORGLEFT
 10
0.0
 20
0.0
 30
0.0
  9
$PUCSORGRIGHT
 10
0.0
 20
0.0
 30
0.0
  9
$PUCSORGFRONT
 10
0.0
 20
0.0
 30
0.0
  9
$PUCSORGBACK
 10
0.0
 20
0.0
 30
0.0
  9
$USERI1
 70
     0
  9
$USERI2
 70
     0
  9
$USERI3
 70
     0
  9
$USERI4
 70
     0
  9
$USERI5
 70
     0
  9
$USERR1
 40
0.0
  9
$USERR2
 40
0.0
  9
$USERR3
 40
0.0
  9
$USERR4
 40
0.0
  9
$USERR5
 40
0.0
  9
$WORLDVIEW
 70
     1
  9
$SHADEDGE
 70
     3
  9
$SHADEDIF
 70
    70
  9
$TILEMODE
 70
     1
  9
$MAXACTVP
 70
    64
  9
$PINSBASE
 10
0.0
 20
0.0
 30
0.0
  9
$PLIMCHECK
 70
     0
  9
$PEXTMIN
 10
1.000000000000000E+20
 20
1.000000000000000E+20
 30
1.000000000000000E+20
  9
$PEXTMAX
 10
-1.000000000000000E+20
 20
-1.000000000000000E+20
 30
-1.000000000000000E+20
  9
$PLIMMIN
 10
-0.25
 20
-0.25
  9
$PLIMMAX
 10
10.75
 20
8.25
  9
$UNITMODE
 70
     0
  9
$VISRETAIN
 70
     1
  9
$PLINEGEN
 70
     0
  9
$PSLTSCALE
 70
     1
  9
$TREEDEPTH
 70
  3020
  9
$CMLSTYLE
  2
Standard
  9
$CMLJUST
 70
     0
  9
$CMLSCALE
 40
1.0
  9
$PROXYGRAPHICS
 70
     1
  9
$MEASUREMENT
 70
     0
  9
$CELWEIGHT
370
    -1
  9
$ENDCAPS
280
     0
  9
$JOINSTYLE
280
     0
  9
$LWDISPLAY
290
     1
  9
$INSUNITS
 70
     1
  9
$HYPERLINKBASE
  1

  9
$STYLESHEET
  1

  9
$XEDIT
290
     1
  9
$CEPSNTYPE
380
     0
  9
$PSTYLEMODE
290
     1
  9
$FINGERPRINTGUID
  2
{3FF96223-F9C2-48F7-A4C5-C732E40B2087}
  9
$VERSIONGUID
  2
{FAEB1C32-E019-11D5-929B-00C0DF256EC4}
  9
$EXTNAMES
290
     1
  9
$PSVPSCALE
 40
0.0
  9
$OLESTARTUP
290
     0
  0
ENDSEC
  0
SECTION
  2
CLASSES
  0
CLASS
  1
ACDBDICTIONARYWDFLT
  2
AcDbDictionaryWithDefault
  3
ObjectDBX Classes
 90
        0
280
     0
281
     0
  0
CLASS
  1
MATERIAL
  2
AcDbMaterial
  3
ObjectDBX Classes
 90
     1153
280
     0
281
     0
  0
CLASS
  1
VISUALSTYLE
  2
AcDbVisualStyle
  3
ObjectDBX Classes
 90
     4095
280
     0
281
     0
  0
CLASS
  1
SUN
  2
AcDbSun
  3
SCENEOE
 90
     1153
280
     0
281
     0
  0
CLASS
  1
SCALE
  2
AcDbScale
  3
ObjectDBX Classes
 90
     1153
280
     0
281
     0
  0
CLASS
  1
DICTIONARYVAR
  2
AcDbDictionaryVar
  3
ObjectDBX Classes
 90
        0
280
     0
281
     0
  0
CLASS
  1
MLEADERSTYLE
  2
AcDbMLeaderStyle
  3
ACDB_MLEADERSTYLE_CLASS
 90
     4095
280
     0
281
     0
  0
CLASS
  1
TABLESTYLE
  2
AcDbTableStyle
  3
ObjectDBX Classes
 90
     4095
280
     0
281
     0
  0
CLASS
  1
ACDBPLACEHOLDER
  2
AcDbPlaceHolder
  3
ObjectDBX Classes
 90
        0
280
     0
281
     0
  0
CLASS
  1
LAYOUT
  2
AcDbLayout
  3
ObjectDBX Classes
 90
        0
280
     0
281
     0
  0
ENDSEC
  0
SECTION
  2
TABLES
  0
TABLE
  2
VPORT
  5
1F
102
{ACAD_XDICTIONARY
360
A3
102
}
330
0
100
AcDbSymbolTable
 70
     1
  0
VPORT
  5
25
330
1F
100
AcDbSymbolTableRecord
100
AcDbViewportTableRecord
  2
*Active
 70
     0
 10
0.0
 20
0.0
 11
1.0
 21
1.0
 12
115.2567553884354
 22
542.8545486376249
 13
0.0
 23
0.0
 14
0.5
 24
0.5
 15
0.5
 25
0.5
 16
0.0
 26
0.0
 36
1.0
 17
0.0
 27
0.0
 37
0.0
 40
17.17749810037066
 41
1.714843910484358
 42
50.0
 43
0.0
 44
0.0
 50
0.0
 51
0.0
 71
    16
 72
   100
 73
     1
 74
     3
 75
     0
 76
     0
 77
     0
 78
     0
281
     0
 65
     1
110
0.0
120
0.0
130
0.0
111
1.0
121
0.0
131
0.0
112
0.0
122
1.0
132
0.0
 79
     0
146
0.0
  0
ENDTAB
  0
TABLE
  2
LTYPE
  5
9
330
0
100
AcDbSymbolTable
 70
     1
  0
LTYPE
  5
A
330
9
100
AcDbSymbolTableRecord
100
AcDbLinetypeTableRecord
  2
ByBlock
 70
     0
  3

 72
    65
 73
     0
 40
0.0
  0
LTYPE
  5
B
330
9
100
AcDbSymbolTableRecord
100
AcDbLinetypeTableRecord
  2
ByLayer
 70
     0
  3

 72
    65
 73
     0
 40
0.0
  0
LTYPE
  5
8
330
9
100
AcDbSymbolTableRecord
100
AcDbLinetypeTableRecord
  2
Continuous
 70
     0
  3
Solid line
 72
    65
 73
     0
 40
0.0
  0
ENDTAB
  0
TABLE
  2
LAYER
  5
2
330
0
100
AcDbSymbolTable
 70
     2
  0
LAYER
  5
1
330
2
100
AcDbSymbolTableRecord
100
AcDbLayerTableRecord
  2
0
 70
     0
 62
     7
  6
Continuous
370
    -3
390
3
  0
LAYER
  5
4E
330
2
100
AcDbSymbolTableRecord
100
AcDbLayerTableRecord
  2
Layer 1
 70
     0
 62
     7
  6
Continuous
370
    -3
390
3
  0
ENDTAB
  0
TABLE
  2
STYLE
  5
D
330
0
100
AcDbSymbolTable
 70
     1
  0
STYLE
  5
C
330
D
100
AcDbSymbolTableRecord
100
AcDbTextStyleTableRecord
  2
Standard
 70
     0
 40
0.0
 41
1.0
 50
0.0
 71
     0
 42
0.2
  3
txt
  4

  0
ENDTAB
  0
TABLE
  2
VIEW
  5
1D
330
0
100
AcDbSymbolTable
 70
     0
  0
ENDTAB
  0
TABLE
  2
UCS
  5
1E
330
0
100
AcDbSymbolTable
 70
     0
  0
ENDTAB
  0
TABLE
  2
APPID
  5
20
330
0
100
AcDbSymbolTable
 70
     2
  0
APPID
  5
24
330
20
100
AcDbSymbolTableRecord
100
AcDbRegAppTableRecord
  2
ACAD
 70
     0
  0
APPID
  5
DC
330
20
100
AcDbSymbolTableRecord
100
AcDbRegAppTableRecord
  2
ACAD_MLEADERVER
 70
     0
  0
ENDTAB
  0
TABLE
  2
DIMSTYLE
  5
10
330
0
100
AcDbSymbolTable
 70
     1
100
AcDbDimStyleTable
  0
DIMSTYLE
105
F
330
10
100
AcDbSymbolTableRecord
100
AcDbDimStyleTableRecord
  2
Standard
 70
     0
178
     0
340
C
  0
ENDTAB
  0
TABLE
  2
BLOCK_RECORD
  5
13
330
0
100
AcDbSymbolTable
 70
     0
  0
BLOCK_RECORD
  5
14
330
13
100
AcDbSymbolTableRecord
100
AcDbBlockTableRecord
  2
*Model_Space
340
17
  0
BLOCK_RECORD
  5
19
330
13
100
AcDbSymbolTableRecord
100
AcDbBlockTableRecord
  2
*Paper_Space
340
1C
  0
ENDTAB
  0
ENDSEC
  0
SECTION
  2
BLOCKS
  0
BLOCK
  5
15
330
14
100
AcDbEntity
  8
0
100
AcDbBlockBegin
  2
*Model_Space
 70
     0
 10
0.0
 20
0.0
 30
0.0
  3
*Model_Space
  1

  0
ENDBLK
  5
16
330
14
100
AcDbEntity
  8
0
100
AcDbBlockEnd
  0
BLOCK
  5
1A
330
19
100
AcDbEntity
 67
     1
  8
0
100
AcDbBlockBegin
  2
*Paper_Space
 70
     0
 10
0.0
 20
0.0
 30
0.0
  3
*Paper_Space
  1

  0
ENDBLK
  5
1B
330
19
100
AcDbEntity
 67
     1
  8
0
100
AcDbBlockEnd
  0
ENDSEC
  0
SECTION
  2
ENTITIES
  0
SPLINE
  5
4D
330
14
100
AcDbEntity
  8
Layer 1
370
     0
100
AcDbSpline
210
0.0
220
0.0
230
1.0
 70
    11
 71
     3
 72
    29
 73
    25
 74
     0
 42
0.000000001
 43
0.0000000001
 40
0.0
 40
0.0
 40
0.0
 40
0.0
 40
1.0
 40
1.0
 40
1.0
 40
2.0
 40
2.0
 40
2.0
 40
3.0
 40
3.0
 40
3.0
 40
4.0
 40
4.0
 40
4.0
 40
5.0
 40
5.0
 40
5.0
 40
6.0
 40
6.0
 40
6.0
 40
7.0
 40
7.0
 40
7.0
 40
8.0
 40
8.0
 40
8.0
 40
8.0
 10
123.6820968755273
 20
549.5790861164642
 30
0.0
 10
123.6820968755273
 20
549.5790861164642
 30
0.0
 10
124.0795968654857
 20
547.8676861596978
 30
0.0
 10
124.0795968654857
 20
547.8676861596978
 30
0.0
 10
124.2260968617848
 20
547.2382861755978
 30
0.0
 10
124.0033968674106
 20
546.8588861851822
 30
0.0
 10
123.57669687819
 20
546.607886191523
 30
0.0
 10
123.57669687819
 20
546.607886191523
 30
0.0
 10
124.0258968668422
 20
544.6845862401096
 30
0.0
 10
124.0258968668422
 20
544.6845862401096
 30
0.0
 10
124.070796865708
 20
544.6890000000003
 30
0.0
 10
124.1156968645737
 20
544.6928862399
 30
0.0
 10
124.1610968634268
 20
544.6962862398141
 30
0.0
 10
123.996096867595
 20
545.7680862127381
 30
0.0
 10
124.3471968587255
 20
546.6679999999997
 30
0.0
 10
124.6400968513262
 20
547.4179999999997
 30
0.0
 10
124.7787968478224
 20
547.77338616208
 30
0.0
 10
124.904296844652
 20
548.093786153986
 30
0.0
 10
124.9467968435783
 20
548.3690861470313
 30
0.0
 10
125.0272968415447
 20
548.8900861338698
 30
0.0
 10
124.7885968475748
 20
549.2880861238154
 30
0.0
 10
123.6820968755273
 20
549.5790861164642
 30
0.0
 10
123.6820968755273
 20
549.5790861164642
 30
0.0
 10
123.6820968755273
 20
549.5790861164642
 30
0.0
 10
123.6820968755273
 20
549.5790861164642
 30
0.0
  0
SPLINE
  5
4F
330
14
100
AcDbEntity
  8
Layer 1
370
     0
100
AcDbSpline
210
0.0
220
0.0
230
1.0
 70
    11
 71
     3
 72
    17
 73
    13
 74
     0
 42
0.000000001
 43
0.0000000001
 40
0.0
 40
0.0
 40
0.0
 40
0.0
 40
1.0
 40
1.0
 40
1.0
 40
2.0
 40
2.0
 40
2.0
 40
3.0
 40
3.0
 40
3.0
 40
4.0
 40
4.0
 40
4.0
 40
4.0
 10
124.9892968425047
 20
540.5526863444902
 30
0.0
 10
124.9892968425047
 20
540.5526863444902
 30
0.0
 10
125.0766968402968
 20
540.7040863406655
 30
0.0
 10
125.0766968402968
 20
540.7040863406655
 30
0.0
 10
125.0326968414083
 20
540.7235863401729
 30
0.0
 10
124.98829684253
 20
540.7401863397536
 30
0.0
 10
124.9423968436895
 20
540.7548863393822
 30
0.0
 10
124.9423968436895
 20
540.7548863393822
 30
0.0
 10
124.9892968425047
 20
540.5526863444902
 30
0.0
 10
124.9892968425047
 20
540.5526863444902
 30
0.0
 10
124.9892968425047
 20
540.5526863444902
 30
0.0
 10
124.9892968425047
 20
540.5526863444902
 30
0.0
 10
124.9892968425047
 20
540.5526863444902
 30
0.0
  0
SPLINE
  5
50
330
14
100
AcDbEntity
  8
Layer 1
370
     0
100
AcDbSpline
210
0.0
220
0.0
230
1.0
 70
    11
 71
     3
 72
    23
 73
    19
 74
     0
 42
0.000000001
 43
0.0000000001
 40
0.0
 40
0.0
 40
0.0
 40
0.0
 40
1.0
 40
1.0
 40
1.0
 40
2.0
 40
2.0
 40
2.0
 40
3.0
 40
3.0
 40
3.0
 40
4.0
 40
4.0
 40
4.0
 40
5.0
 40
5.0
 40
5.0
 40
6.0
 40
6.0
 40
6.0
 40
6.0
 10
124.7587968483276
 20
543.4511862712679
 30
0.0
 10
124.7587968483276
 20
543.4511862712679
 30
0.0
 10
124.7587968483276
 20
541.541486319511
 30
0.0
 10
124.7587968483276
 20
541.541486319511
 30
0.0
 10
124.7587968483276
 20
541.541486319511
 30
0.0
 10
124.8402968462688
 20
541.1894863284033
 30
0.0
 10
124.8402968462688
 20
541.1894863284033
 30
0.0
 10
124.9945968423708
 20
541.1645863290323
 30
0.0
 10
125.1415968386573
 20
541.1171863302297
 30
0.0
 10
125.2777968352166
 20
541.0521863318718
 30
0.0
 10
125.2777968352166
 20
541.0521863318718
 30
0.0
 10
126.4013968068321
 20
542.9989999999998
 30
0.0
 10
126.4013968068321
 20
542.9989999999998
 30
0.0
 10
125.907696819304
 20
543.2626862760299
 30
0.0
 10
125.3505968333775
 20
543.4232862719728
 30
0.0
 10
124.7587968483276
 20
543.4511862712679
 30
0.0
 10
124.7587968483276
 20
543.4511862712679
 30
0.0
 10
124.7587968483276
 20
543.4511862712679
 30
0.0
 10
124.7587968483276
 20
543.4511862712679
 30
0.0
  0
SPLINE
  5
51
330
14
100
AcDbEntity
  8
Layer 1
370
     0
100
AcDbSpline
210
0.0
220
0.0
230
1.0
 70
    11
 71
     3
 72
    17
 73
    13
 74
     0
 42
0.000000001
 43
0.0000000001
 40
0.0
 40
0.0
 40
0.0
 40
0.0
 40
1.0
 40
1.0
 40
1.0
 40
2.0
 40
2.0
 40
2.0
 40
3.0
 40
3.0
 40
3.0
 40
4.0
 40
4.0
 40
4.0
 40
4.0
 10
124.4447968562599
 20
542.8895862854552
 30
0.0
 10
124.4447968562599
 20
542.8895862854552
 30
0.0
 10
124.4447968562599
 20
543.4525862712326
 30
0.0
 10
124.4447968562599
 20
543.4525862712326
 30
0.0
 10
124.4008968573689
 20
543.4520862712452
 30
0.0
 10
124.3573968584678
 20
543.4501862712932
 30
0.0
 10
124.3140000000003
 20
543.4462862713917
 30
0.0
 10
124.3140000000003
 20
543.4462862713917
 30
0.0
 10
124.4447968562599
 20
542.8895862854552
 30
0.0
 10
124.4447968562599
 20
542.8895862854552
 30
0.0
 10
124.4447968562599
 20
542.8895862854552
 30
0.0
 10
124.4447968562599
 20
542.8895862854552
 30
0.0
 10
124.4447968562599
 20
542.8895862854552
 30
0.0
  0
SPLINE
  5
52
330
14
100
AcDbEntity
  8
Layer 1
370
     0
100
AcDbSpline
210
0.0
220
0.0
230
1.0
 70
    11
 71
     3
 72
    17
 73
    13
 74
     0
 42
0.000000001
 43
0.0000000001
 40
0.0
 40
0.0
 40
0.0
 40
0.0
 40
1.0
 40
1.0
 40
1.0
 40
2.0
 40
2.0
 40
2.0
 40
3.0
 40
3.0
 40
3.0
 40
4.0
 40
4.0
 40
4.0
 40
4.0
 10
122.7880968981117
 20
543.0219999999999
 30
0.0
 10
122.7880968981117
 20
543.0219999999999
 30
0.0
 10
123.3515968838765
 20
542.0463863067562
 30
0.0
 10
123.3515968838765
 20
542.0463863067562
 30
0.0
 10
123.3515968838765
 20
542.0463863067562
 30
0.0
 10
123.0907968904648
 20
543.163086278546
 30
0.0
 10
123.0907968904648
 20
543.163086278546
 30
0.0
 10
122.9882968930542
 20
543.1195862796449
 30
0.0
 10
122.8871968956082
 20
543.0727862808271
 30
0.0
 10
122.7880968981117
 20
543.0219999999999
 30
0.0
 10
122.7880968981117
 20
543.0219999999999
 30
0.0
 10
122.7880968981117
 20
543.0219999999999
 30
0.0
 10
122.7880968981117
 20
543.0219999999999
 30
0.0
  0
SPLINE
  5
53
330
14
100
AcDbEntity
  8
Layer 1
370
     0
100
AcDbSpline
210
0.0
220
0.0
230
1.0
 70
    11
 71
     3
 72
    20
 73
    16
 74
     0
 42
0.000000001
 43
0.0000000001
 40
0.0
 40
0.0
 40
0.0
 40
0.0
 40
1.0
 40
1.0
 40
1.0
 40
2.0
 40
2.0
 40
2.0
 40
3.0
 40
3.0
 40
3.0
 40
4.0
 40
4.0
 40
4.0
 40
5.0
 40
5.0
 40
5.0
 40
5.0
 10
123.5932968777706
 20
540.3295863501262
 30
0.0
 10
123.5932968777706
 20
540.3295863501262
 30
0.0
 10
123.7763968731451
 20
540.223586352804
 30
0.0
 10
123.7763968731451
 20
540.223586352804
 30
0.0
 10
123.7763968731451
 20
540.223586352804
 30
0.0
 10
123.7191968745901
 20
540.4687863466097
 30
0.0
 10
123.7191968745901
 20
540.4687863466097
 30
0.0
 10
123.7191968745901
 20
540.4687863466097
 30
0.0
 10
123.6981968751206
 20
540.4481863471301
 30
0.0
 10
123.6981968751206
 20
540.4481863471301
 30
0.0
 10
123.6605968760705
 20
540.4110863480673
 30
0.0
 10
123.6260000000002
 20
540.3710863490778
 30
0.0
 10
123.5932968777706
 20
540.3295863501262
 30
0.0
 10
123.5932968777706
 20
540.3295863501262
 30
0.0
 10
123.5932968777706
 20
540.3295863501262
 30
0.0
 10
123.5932968777706
 20
540.3295863501262
 30
0.0
  0
SPLINE
  5
54
330
14
100
AcDbEntity
  8
Layer 1
370
     0
100
AcDbSpline
210
0.0
220
0.0
230
1.0
 70
    11
 71
     3
 72
    29
 73
    25
 74
     0
 42
0.000000001
 43
0.0000000001
 40
0.0
 40
0.0
 40
0.0
 40
0.0
 40
1.0
 40
1.0
 40
1.0
 40
2.0
 40
2.0
 40
2.0
 40
3.0
 40
3.0
 40
3.0
 40
4.0
 40
4.0
 40
4.0
 40
5.0
 40
5.0
 40
5.0
 40
6.0
 40
6.0
 40
6.0
 40
7.0
 40
7.0
 40
7.0
 40
8.0
 40
8.0
 40
8.0
 40
8.0
 10
121.2963969357952
 20
541.6562863166109
 30
0.0
 10
121.2963969357952
 20
541.6562863166109
 30
0.0
 10
123.2440968865922
 20
540.5316863450207
 30
0.0
 10
123.2440968865922
 20
540.5316863450207
 30
0.0
 10
123.2948968853088
 20
540.6030000000001
 30
0.0
 10
123.3520968838639
 20
540.6698863415295
 30
0.0
 10
123.4140968822976
 20
540.7318863399632
 30
0.0
 10
123.477496880696
 20
540.7948863383717
 30
0.0
 10
123.5448968789933
 20
540.8520863369267
 30
0.0
 10
123.6171968771669
 20
540.9037863356207
 30
0.0
 10
123.6171968771669
 20
540.9037863356207
 30
0.0
 10
123.5980968776494
 20
540.9911863334128
 30
0.0
 10
123.5980968776494
 20
540.9911863334128
 30
0.0
 10
123.5980968776494
 20
540.9911863334128
 30
0.0
 10
122.5145969050209
 20
542.8651862860715
 30
0.0
 10
122.5145969050209
 20
542.8651862860715
 30
0.0
 10
122.2655969113111
 20
542.71
 30
0.0
 10
122.0346969171442
 20
542.5253862946556
 30
0.0
 10
121.827596922376
 20
542.3178862998975
 30
0.0
 10
121.6270000000004
 20
542.117686304955
 30
0.0
 10
121.4491969319351
 20
541.896486310543
 30
0.0
 10
121.2963969357952
 20
541.6562863166109
 30
0.0
 10
121.2963969357952
 20
541.6562863166109
 30
0.0
 10
121.2963969357952
 20
541.6562863166109
 30
0.0
 10
121.2963969357952
 20
541.6562863166109
 30
0.0
  0
SPLINE
  5
55
330
14
100
AcDbEntity
  8
Layer 1
370
     0
100
AcDbSpline
210
0.0
220
0.0
230
1.0
 70
    11
 71
     3
 72
    20
 73
    16
 74
     0
 42
0.000000001
 43
0.0000000001
 40
0.0
 40
0.0
 40
0.0
 40
0.0
 40
1.0
 40
1.0
 40
1.0
 40
2.0
 40
2.0
 40
2.0
 40
3.0
 40
3.0
 40
3.0
 40
4.0
 40
4.0
 40
4.0
 40
5.0
 40
5.0
 40
5.0
 40
5.0
 10
123.3441968840634
 20
539.723586365435
 30
0.0
 10
123.3441968840634
 20
539.723586365435
 30
0.0
 10
123.8935968701844
 20
539.723586365435
 30
0.0
 10
123.8935968701844
 20
539.723586365435
 30
0.0
 10
123.8935968701844
 20
539.723586365435
 30
0.0
 10
123.8739999999998
 20
539.8051863633737
 30
0.0
 10
123.8739999999998
 20
539.8051863633737
 30
0.0
 10
123.8739999999998
 20
539.8051863633737
 30
0.0
 10
123.4340968817924
 20
540.0590863569596
 30
0.0
 10
123.4340968817924
 20
540.0590863569596
 30
0.0
 10
123.3891968829266
 20
539.9535863596248
 30
0.0
 10
123.3578968837173
 20
539.8412863624617
 30
0.0
 10
123.3441968840634
 20
539.723586365435
 30
0.0
 10
123.3441968840634
 20
539.723586365435
 30
0.0
 10
123.3441968840634
 20
539.723586365435
 30
0.0
 10
123.3441968840634
 20
539.723586365435
 30
0.0
  0
SPLINE
  5
56
330
14
100
AcDbEntity
  8
Layer 1
370
     0
100
AcDbSpline
210
0.0
220
0.0
230
1.0
 70
    11
 71
     3
 72
    20
 73
    16
 74
     0
 42
0.000000001
 43
0.0000000001
 40
0.0
 40
0.0
 40
0.0
 40
0.0
 40
1.0
 40
1.0
 40
1.0
 40
2.0
 40
2.0
 40
2.0
 40
3.0
 40
3.0
 40
3.0
 40
4.0
 40
4.0
 40
4.0
 40
5.0
 40
5.0
 40
5.0
 40
5.0
 10
120.6933969510283
 20
539.723586365435
 30
0.0
 10
120.6933969510283
 20
539.723586365435
 30
0.0
 10
122.9408968942516
 20
539.723586365435
 30
0.0
 10
122.9408968942516
 20
539.723586365435
 30
0.0
 10
122.958496893807
 20
539.9135863606352
 30
0.0
 10
123.0087968925363
 20
540.0941863560729
 30
0.0
 10
123.084496890624
 20
540.2602863518769
 30
0.0
 10
123.084496890624
 20
540.2602863518769
 30
0.0
 10
121.1381969397917
 20
541.3847863234696
 30
0.0
 10
121.1381969397917
 20
541.3847863234696
 30
0.0
 10
120.8739999999998
 20
540.8856863360779
 30
0.0
 10
120.715296950475
 20
540.3222863503106
 30
0.0
 10
120.6933969510283
 20
539.723586365435
 30
0.0
 10
120.6933969510283
 20
539.723586365435
 30
0.0
 10
120.6933969510283
 20
539.723586365435
 30
0.0
 10
120.6933969510283
 20
539.723586365435
 30
0.0
  0
SPLINE
  5
57
330
14
100
AcDbEntity
  8
Layer 1
370
     0
100
AcDbSpline
210
0.0
220
0.0
230
1.0
 70
    11
 71
     3
 72
    17
 73
    13
 74
     0
 42
0.000000001
 43
0.0000000001
 40
0.0
 40
0.0
 40
0.0
 40
0.0
 40
1.0
 40
1.0
 40
1.0
 40
2.0
 40
2.0
 40
2.0
 40
3.0
 40
3.0
 40
3.0
 40
4.0
 40
4.0
 40
4.0
 40
4.0
 10
123.4374968817065
 20
539.0761863817897
 30
0.0
 10
123.4374968817065
 20
539.0761863817897
 30
0.0
 10
124.0145968671277
 20
539.4096863733648
 30
0.0
 10
124.0145968671277
 20
539.4096863733648
 30
0.0
 10
124.0145968671277
 20
539.4096863733648
 30
0.0
 10
123.3461968840129
 20
539.4096863733648
 30
0.0
 10
123.3461968840129
 20
539.4096863733648
 30
0.0
 10
123.3607968836441
 20
539.2920000000004
 30
0.0
 10
123.3920968828534
 20
539.1811863791372
 30
0.0
 10
123.4374968817065
 20
539.0761863817897
 30
0.0
 10
123.4374968817065
 20
539.0761863817897
 30
0.0
 10
123.4374968817065
 20
539.0761863817897
 30
0.0
 10
123.4374968817065
 20
539.0761863817897
 30
0.0
  0
SPLINE
  5
58
330
14
100
AcDbEntity
  8
Layer 1
370
     0
100
AcDbSpline
210
0.0
220
0.0
230
1.0
 70
    11
 71
     3
 72
    20
 73
    16
 74
     0
 42
0.000000001
 43
0.0000000001
 40
0.0
 40
0.0
 40
0.0
 40
0.0
 40
1.0
 40
1.0
 40
1.0
 40
2.0
 40
2.0
 40
2.0
 40
3.0
 40
3.0
 40
3.0
 40
4.0
 40
4.0
 40
4.0
 40
5.0
 40
5.0
 40
5.0
 40
5.0
 10
121.1425969396805
 20
537.7510000000002
 30
0.0
 10
121.1425969396805
 20
537.7510000000002
 30
0.0
 10
123.0893968905002
 20
538.875
 30
0.0
 10
123.0893968905002
 20
538.875
 30
0.0
 10
123.0111968924757
 20
539.04
 30
0.0
 10
122.960396893759
 20
539.2196863781646
 30
0.0
 10
122.9418968942264
 20
539.4096863733648
 30
0.0
 10
122.9418968942264
 20
539.4096863733648
 30
0.0
 10
120.6933969510283
 20
539.4096863733648
 30
0.0
 10
120.6933969510283
 20
539.4096863733648
 30
0.0
 10
120.7182969503992
 20
538.8119999999999
 30
0.0
 10
120.87739694638
 20
538.2484864026992
 30
0.0
 10
121.1425969396805
 20
537.7510000000002
 30
0.0
 10
121.1425969396805
 20
537.7510000000002
 30
0.0
 10
121.1425969396805
 20
537.7510000000002
 30
0.0
 10
121.1425969396805
 20
537.7510000000002
 30
0.0
  0
SPLINE
  5
59
330
14
100
AcDbEntity
  8
Layer 1
370
     0
100
AcDbSpline
210
0.0
220
0.0
230
1.0
 70
    11
 71
     3
 72
    20
 73
    16
 74
     0
 42
0.000000001
 43
0.0000000001
 40
0.0
 40
0.0
 40
0.0
 40
0.0
 40
1.0
 40
1.0
 40
1.0
 40
2.0
 40
2.0
 40
2.0
 40
3.0
 40
3.0
 40
3.0
 40
4.0
 40
4.0
 40
4.0
 40
5.0
 40
5.0
 40
5.0
 40
5.0
 10
123.8451968714071
 20
538.5702863945698
 30
0.0
 10
123.8451968714071
 20
538.5702863945698
 30
0.0
 10
124.1723968631413
 20
539.1371863802487
 30
0.0
 10
124.1723968631413
 20
539.1371863802487
 30
0.0
 10
124.1723968631413
 20
539.1371863802487
 30
0.0
 10
123.5995968776115
 20
538.8061863886105
 30
0.0
 10
123.5995968776115
 20
538.8061863886105
 30
0.0
 10
123.6303968768334
 20
538.7675863895856
 30
0.0
 10
123.66259687602
 20
538.7313863905001
 30
0.0
 10
123.6981968751206
 20
538.6962863913868
 30
0.0
 10
123.7431968739838
 20
538.6508863925337
 30
0.0
 10
123.7924968727384
 20
538.6083863936074
 30
0.0
 10
123.8451968714071
 20
538.5702863945698
 30
0.0
 10
123.8451968714071
 20
538.5702863945698
 30
0.0
 10
123.8451968714071
 20
538.5702863945698
 30
0.0
 10
123.8451968714071
 20
538.5702863945698
 30
0.0
  0
SPLINE
  5
5A
330
14
100
AcDbEntity
  8
Layer 1
370
     0
100
AcDbSpline
210
0.0
220
0.0
230
1.0
 70
    11
 71
     3
 72
    26
 73
    22
 74
     0
 42
0.000000001
 43
0.0000000001
 40
0.0
 40
0.0
 40
0.0
 40
0.0
 40
1.0
 40
1.0
 40
1.0
 40
2.0
 40
2.0
 40
2.0
 40
3.0
 40
3.0
 40
3.0
 40
4.0
 40
4.0
 40
4.0
 40
5.0
 40
5.0
 40
5.0
 40
6.0
 40
6.0
 40
6.0
 40
7.0
 40
7.0
 40
7.0
 40
7.0
 10
122.5194969048971
 20
536.2753864525439
 30
0.0
 10
122.5194969048971
 20
536.2753864525439
 30
0.0
 10
123.6435968764999
 20
538.2216864033762
 30
0.0
 10
123.6435968764999
 20
538.2216864033762
 30
0.0
 10
123.561496878574
 20
538.2782864019464
 30
0.0
 10
123.4843968805217
 20
538.3422864003296
 30
0.0
 10
123.4140968822976
 20
538.4125863985537
 30
0.0
 10
123.3540000000003
 20
538.4721863970481
 30
0.0
 10
123.2992968851977
 20
538.5370863954086
 30
0.0
 10
123.2494968864557
 20
538.6044863937059
 30
0.0
 10
123.2494968864557
 20
538.6044863937059
 30
0.0
 10
121.3012969356714
 20
537.4794864221258
 30
0.0
 10
121.3012969356714
 20
537.4794864221258
 30
0.0
 10
121.4525969318493
 20
537.2436864280826
 30
0.0
 10
121.6288969273955
 20
537.0238864336352
 30
0.0
 10
121.827596922376
 20
536.8266864386169
 30
0.0
 10
122.0355969171214
 20
536.6171864439093
 30
0.0
 10
122.268096911248
 20
536.4325864485727
 30
0.0
 10
122.5194969048971
 20
536.2753864525439
 30
0.0
 10
122.5194969048971
 20
536.2753864525439
 30
0.0
 10
122.5194969048971
 20
536.2753864525439
 30
0.0
 10
122.5194969048971
 20
536.2753864525439
 30
0.0
  0
SPLINE
  5
5B
330
14
100
AcDbEntity
  8
Layer 1
370
     0
100
AcDbSpline
210
0.0
220
0.0
230
1.0
 70
    11
 71
     3
 72
    17
 73
    13
 74
     0
 42
0.000000001
 43
0.0000000001
 40
0.0
 40
0.0
 40
0.0
 40
0.0
 40
1.0
 40
1.0
 40
1.0
 40
2.0
 40
2.0
 40
2.0
 40
3.0
 40
3.0
 40
3.0
 40
4.0
 40
4.0
 40
4.0
 40
4.0
 10
124.4447968562599
 20
538.3402864003801
 30
0.0
 10
124.4447968562599
 20
538.3402864003801
 30
0.0
 10
124.4447968562599
 20
538.9799999999996
 30
0.0
 10
124.4447968562599
 20
538.9799999999996
 30
0.0
 10
124.4447968562599
 20
538.9799999999996
 30
0.0
 10
124.1205968644499
 20
538.4193863983819
 30
0.0
 10
124.1205968644499
 20
538.4193863983819
 30
0.0
 10
124.2221968618833
 20
538.3783863994176
 30
0.0
 10
124.3305968591449
 20
538.3515864000947
 30
0.0
 10
124.4447968562599
 20
538.3402864003801
 30
0.0
 10
124.4447968562599
 20
538.3402864003801
 30
0.0
 10
124.4447968562599
 20
538.3402864003801
 30
0.0
 10
124.4447968562599
 20
538.3402864003801
 30
0.0
  0
SPLINE
  5
5C
330
14
100
AcDbEntity
  8
Layer 1
370
     0
100
AcDbSpline
210
0.0
220
0.0
230
1.0
 70
    11
 71
     3
 72
    20
 73
    16
 74
     0
 42
0.000000001
 43
0.0000000001
 40
0.0
 40
0.0
 40
0.0
 40
0.0
 40
1.0
 40
1.0
 40
1.0
 40
2.0
 40
2.0
 40
2.0
 40
3.0
 40
3.0
 40
3.0
 40
4.0
 40
4.0
 40
4.0
 40
5.0
 40
5.0
 40
5.0
 40
5.0
 10
124.4447968562599
 20
535.6903864673222
 30
0.0
 10
124.4447968562599
 20
535.6903864673222
 30
0.0
 10
124.4447968562599
 20
537.9374864105557
 30
0.0
 10
124.4447968562599
 20
537.9374864105557
 30
0.0
 10
124.2582968609713
 20
537.9520864101869
 30
0.0
 10
124.0814968654377
 20
537.9975864090375
 30
0.0
 10
123.9184968695554
 20
538.0687864072388
 30
0.0
 10
123.9184968695554
 20
538.0687864072388
 30
0.0
 10
122.7924968980005
 20
536.1195864564797
 30
0.0
 10
122.7924968980005
 20
536.1195864564797
 30
0.0
 10
123.29
 20
535.862786462967
 30
0.0
 10
123.8510968712581
 20
535.710386466817
 30
0.0
 10
124.4447968562599
 20
535.6903864673222
 30
0.0
 10
124.4447968562599
 20
535.6903864673222
 30
0.0
 10
124.4447968562599
 20
535.6903864673222
 30
0.0
 10
124.4447968562599
 20
535.6903864673222
 30
0.0
  0
SPLINE
  5
5D
330
14
100
AcDbEntity
  8
Layer 1
370
     0
100
AcDbSpline
210
0.0
220
0.0
230
1.0
 70
    11
 71
     3
 72
    17
 73
    13
 74
     0
 42
0.000000001
 43
0.0000000001
 40
0.0
 40
0.0
 40
0.0
 40
0.0
 40
1.0
 40
1.0
 40
1.0
 40
2.0
 40
2.0
 40
2.0
 40
3.0
 40
3.0
 40
3.0
 40
4.0
 40
4.0
 40
4.0
 40
4.0
 10
125.0717968404206
 20
538.4380000000001
 30
0.0
 10
125.0717968404206
 20
538.4380000000001
 30
0.0
 10
124.7587968483276
 20
538.9799999999996
 30
0.0
 10
124.7587968483276
 20
538.9799999999996
 30
0.0
 10
124.7587968483276
 20
538.9799999999996
 30
0.0
 10
124.7587968483276
 20
538.3476864001932
 30
0.0
 10
124.7587968483276
 20
538.3476864001932
 30
0.0
 10
124.8681968455639
 20
538.3632863997991
 30
0.0
 10
124.9735968429013
 20
538.3950000000004
 30
0.0
 10
125.0717968404206
 20
538.4380000000001
 30
0.0
 10
125.0717968404206
 20
538.4380000000001
 30
0.0
 10
125.0717968404206
 20
538.4380000000001
 30
0.0
 10
125.0717968404206
 20
538.4380000000001
 30
0.0
  0
SPLINE
  5
5E
330
14
100
AcDbEntity
  8
Layer 1
370
     0
100
AcDbSpline
210
0.0
220
0.0
230
1.0
 70
    11
 71
     3
 72
    20
 73
    16
 74
     0
 42
0.000000001
 43
0.0000000001
 40
0.0
 40
0.0
 40
0.0
 40
0.0
 40
1.0
 40
1.0
 40
1.0
 40
2.0
 40
2.0
 40
2.0
 40
3.0
 40
3.0
 40
3.0
 40
4.0
 40
4.0
 40
4.0
 40
5.0
 40
5.0
 40
5.0
 40
5.0
 10
126.3969999999999
 20
536.1430864558861
 30
0.0
 10
126.3969999999999
 20
536.1430864558861
 30
0.0
 10
125.2728968353404
 20
538.0893864067184
 30
0.0
 10
125.2728968353404
 20
538.0893864067184
 30
0.0
 10
125.1137968393596
 20
538.0131864086434
 30
0.0
 10
124.9413968437148
 20
537.9633864099014
 30
0.0
 10
124.7587968483276
 20
537.9428864104193
 30
0.0
 10
124.7587968483276
 20
537.9428864104193
 30
0.0
 10
124.7587968483276
 20
535.6933864672465
 30
0.0
 10
124.7587968483276
 20
535.6933864672465
 30
0.0
 10
125.3490968334154
 20
535.7211864665442
 30
0.0
 10
125.9037968194025
 20
535.8803864625224
 30
0.0
 10
126.3969999999999
 20
536.1430864558861
 30
0.0
 10
126.3969999999999
 20
536.1430864558861
 30
0.0
 10
126.3969999999999
 20
536.1430864558861
 30
0.0
 10
126.3969999999999
 20
536.1430864558861
 30
0.0
  0
SPLINE
  5
5F
330
14
100
AcDbEntity
  8
Layer 1
370
     0
100
AcDbSpline
210
0.0
220
0.0
230
1.0
 70
    11
 71
     3
 72
    20
 73
    16
 74
     0
 42
0.000000001
 43
0.0000000001
 40
0.0
 40
0.0
 40
0.0
 40
0.0
 40
1.0
 40
1.0
 40
1.0
 40
2.0
 40
2.0
 40
2.0
 40
3.0
 40
3.0
 40
3.0
 40
4.0
 40
4.0
 40
4.0
 40
5.0
 40
5.0
 40
5.0
 40
5.0
 10
125.5640000000003
 20
538.8295863880194
 30
0.0
 10
125.5640000000003
 20
538.8295863880194
 30
0.0
 10
125.0312968414437
 20
539.1371863802487
 30
0.0
 10
125.0312968414437
 20
539.1371863802487
 30
0.0
 10
125.0312968414437
 20
539.1371863802487
 30
0.0
 10
125.3402968336377
 20
538.600086393817
 30
0.0
 10
125.3402968336377
 20
538.600086393817
 30
0.0
 10
125.3788968326626
 20
538.6303863930516
 30
0.0
 10
125.4145968317607
 20
538.6620863922508
 30
0.0
 10
125.4486968308993
 20
538.6962863913868
 30
0.0
 10
125.4906968298383
 20
538.7377863903384
 30
0.0
 10
125.5287968288758
 20
538.7826863892042
 30
0.0
 10
125.5640000000003
 20
538.8295863880194
 30
0.0
 10
125.5640000000003
 20
538.8295863880194
 30
0.0
 10
125.5640000000003
 20
538.8295863880194
 30
0.0
 10
125.5640000000003
 20
538.8295863880194
 30
0.0
  0
SPLINE
  5
60
330
14
100
AcDbEntity
  8
Layer 1
370
     0
100
AcDbSpline
210
0.0
220
0.0
230
1.0
 70
    11
 71
     3
 72
    26
 73
    22
 74
     0
 42
0.000000001
 43
0.0000000001
 40
0.0
 40
0.0
 40
0.0
 40
0.0
 40
1.0
 40
1.0
 40
1.0
 40
2.0
 40
2.0
 40
2.0
 40
3.0
 40
3.0
 40
3.0
 40
4.0
 40
4.0
 40
4.0
 40
5.0
 40
5.0
 40
5.0
 40
6.0
 40
6.0
 40
6.0
 40
7.0
 40
7.0
 40
7.0
 40
7.0
 10
127.8607967699645
 20
537.5038864215094
 30
0.0
 10
127.8607967699645
 20
537.5038864215094
 30
0.0
 10
125.9130968191675
 20
538.6273863931274
 30
0.0
 10
125.9130968191675
 20
538.6273863931274
 30
0.0
 10
125.8593968205241
 20
538.5507863950625
 30
0.0
 10
125.7982968220676
 20
538.4794863968636
 30
0.0
 10
125.7323968237324
 20
538.4125863985537
 30
0.0
 10
125.6732968252254
 20
538.3544864000214
 30
0.0
 10
125.609896826827
 20
538.2997864014033
 30
0.0
 10
125.5424968285297
 20
538.2494864026739
 30
0.0
 10
125.5424968285297
 20
538.2494864026739
 30
0.0
 10
126.6684968000845
 20
536.3012864518896
 30
0.0
 10
126.6684968000845
 20
536.3012864518896
 30
0.0
 10
126.903296794153
 20
536.4535864480422
 30
0.0
 10
127.1220967886256
 20
536.6293864436011
 30
0.0
 10
127.3197967836313
 20
536.8266864386169
 30
0.0
 10
127.5233967784879
 20
537.0302864334735
 30
0.0
 10
127.7050967738978
 20
537.257286427739
 30
0.0
 10
127.8607967699645
 20
537.5038864215094
 30
0.0
 10
127.8607967699645
 20
537.5038864215094
 30
0.0
 10
127.8607967699645
 20
537.5038864215094
 30
0.0
 10
127.8607967699645
 20
537.5038864215094
 30
0.0
  0
SPLINE
  5
61
330
14
100
AcDbEntity
  8
Layer 1
370
     0
100
AcDbSpline
210
0.0
220
0.0
230
1.0
 70
    11
 71
     3
 72
    17
 73
    13
 74
     0
 42
0.000000001
 43
0.0000000001
 40
0.0
 40
0.0
 40
0.0
 40
0.0
 40
1.0
 40
1.0
 40
1.0
 40
2.0
 40
2.0
 40
2.0
 40
3.0
 40
3.0
 40
3.0
 40
4.0
 40
4.0
 40
4.0
 40
4.0
 10
125.8012968219919
 20
539.4096863733648
 30
0.0
 10
125.8012968219919
 20
539.4096863733648
 30
0.0
 10
125.1884968374725
 20
539.4096863733648
 30
0.0
 10
125.1884968374725
 20
539.4096863733648
 30
0.0
 10
125.1884968374725
 20
539.4096863733648
 30
0.0
 10
125.7191968240659
 20
539.1024863811253
 30
0.0
 10
125.7191968240659
 20
539.1024863811253
 30
0.0
 10
125.7592968230529
 20
539.1991863786825
 30
0.0
 10
125.7870968223506
 20
539.3021863760805
 30
0.0
 10
125.8012968219919
 20
539.4096863733648
 30
0.0
 10
125.8012968219919
 20
539.4096863733648
 30
0.0
 10
125.8012968219919
 20
539.4096863733648
 30
0.0
 10
125.8012968219919
 20
539.4096863733648
 30
0.0
  0
SPLINE
  5
62
330
14
100
AcDbEntity
  8
Layer 1
370
     0
100
AcDbSpline
210
0.0
220
0.0
230
1.0
 70
    11
 71
     3
 72
    20
 73
    16
 74
     0
 42
0.000000001
 43
0.0000000001
 40
0.0
 40
0.0
 40
0.0
 40
0.0
 40
1.0
 40
1.0
 40
1.0
 40
2.0
 40
2.0
 40
2.0
 40
3.0
 40
3.0
 40
3.0
 40
4.0
 40
4.0
 40
4.0
 40
5.0
 40
5.0
 40
5.0
 40
5.0
 10
128.4525967550144
 20
539.4096863733648
 30
0.0
 10
128.4525967550144
 20
539.4096863733648
 30
0.0
 10
126.205096811791
 20
539.4096863733648
 30
0.0
 10
126.205096811791
 20
539.4096863733648
 30
0.0
 10
126.1874968122356
 20
539.2299999999996
 30
0.0
 10
126.140096813433
 20
539.0585863822344
 30
0.0
 10
126.0687968152342
 20
538.9008863862182
 30
0.0
 10
126.0687968152342
 20
538.9008863862182
 30
0.0
 10
128.017096766016
 20
537.7758864146381
 30
0.0
 10
128.017096766016
 20
537.7758864146381
 30
0.0
 10
128.2738967595287
 20
538.2680864022041
 30
0.0
 10
128.4286967556181
 20
538.8222863882038
 30
0.0
 10
128.4525967550144
 20
539.4096863733648
 30
0.0
 10
128.4525967550144
 20
539.4096863733648
 30
0.0
 10
128.4525967550144
 20
539.4096863733648
 30
0.0
 10
128.4525967550144
 20
539.4096863733648
 30
0.0
  0
SPLINE
  5
63
330
14
100
AcDbEntity
  8
Layer 1
370
     0
100
AcDbSpline
210
0.0
220
0.0
230
1.0
 70
    11
 71
     3
 72
    17
 73
    13
 74
     0
 42
0.000000001
 43
0.0000000001
 40
0.0
 40
0.0
 40
0.0
 40
0.0
 40
1.0
 40
1.0
 40
1.0
 40
2.0
 40
2.0
 40
2.0
 40
3.0
 40
3.0
 40
3.0
 40
4.0
 40
4.0
 40
4.0
 40
4.0
 10
125.7235968239547
 20
540.0321863576391
 30
0.0
 10
125.7235968239547
 20
540.0321863576391
 30
0.0
 10
125.1874968374977
 20
539.723586365435
 30
0.0
 10
125.1874968374977
 20
539.723586365435
 30
0.0
 10
125.1874968374977
 20
539.723586365435
 30
0.0
 10
125.8026968219565
 20
539.723586365435
 30
0.0
 10
125.8026968219565
 20
539.723586365435
 30
0.0
 10
125.7890968223001
 20
539.8310863627194
 30
0.0
 10
125.7621968229796
 20
539.9350863600921
 30
0.0
 10
125.7235968239547
 20
540.0321863576391
 30
0.0
 10
125.7235968239547
 20
540.0321863576391
 30
0.0
 10
125.7235968239547
 20
540.0321863576391
 30
0.0
 10
125.7235968239547
 20
540.0321863576391
 30
0.0
  0
SPLINE
  5
64
330
14
100
AcDbEntity
  8
Layer 1
370
     0
100
AcDbSpline
210
0.0
220
0.0
230
1.0
 70
    11
 71
     3
 72
    20
 73
    16
 74
     0
 42
0.000000001
 43
0.0000000001
 40
0.0
 40
0.0
 40
0.0
 40
0.0
 40
1.0
 40
1.0
 40
1.0
 40
2.0
 40
2.0
 40
2.0
 40
3.0
 40
3.0
 40
3.0
 40
4.0
 40
4.0
 40
4.0
 40
5.0
 40
5.0
 40
5.0
 40
5.0
 10
128.0219999999999
 20
541.3598863240986
 30
0.0
 10
128.0219999999999
 20
541.3598863240986
 30
0.0
 10
126.0736968151105
 20
540.2353863525059
 30
0.0
 10
126.0736968151105
 20
540.2353863525059
 30
0.0
 10
126.1430968133573
 20
540.0756863565402
 30
0.0
 10
126.1894968121851
 20
539.9042863608702
 30
0.0
 10
126.2060968117657
 20
539.723586365435
 30
0.0
 10
126.2060968117657
 20
539.723586365435
 30
0.0
 10
128.4535967549891
 20
539.723586365435
 30
0.0
 10
128.4535967549891
 20
539.723586365435
 30
0.0
 10
128.431196755555
 20
540.3119999999999
 30
0.0
 10
128.2772967594428
 20
540.8671863365453
 30
0.0
 10
128.0219999999999
 20
541.3598863240986
 30
0.0
 10
128.0219999999999
 20
541.3598863240986
 30
0.0
 10
128.0219999999999
 20
541.3598863240986
 30
0.0
 10
128.0219999999999
 20
541.3598863240986
 30
0.0
  0
SPLINE
  5
65
330
14
100
AcDbEntity
  8
Layer 1
370
     0
100
AcDbSpline
210
0.0
220
0.0
230
1.0
 70
    11
 71
     3
 72
    23
 73
    19
 74
     0
 42
0.000000001
 43
0.0000000001
 40
0.0
 40
0.0
 40
0.0
 40
0.0
 40
1.0
 40
1.0
 40
1.0
 40
2.0
 40
2.0
 40
2.0
 40
3.0
 40
3.0
 40
3.0
 40
4.0
 40
4.0
 40
4.0
 40
5.0
 40
5.0
 40
5.0
 40
6.0
 40
6.0
 40
6.0
 40
6.0
 10
125.3451968335139
 20
540.5404863447984
 30
0.0
 10
125.3451968335139
 20
540.5404863447984
 30
0.0
 10
125.0941968398547
 20
540.1044863558127
 30
0.0
 10
125.0941968398547
 20
540.1044863558127
 30
0.0
 10
125.0941968398547
 20
540.1044863558127
 30
0.0
 10
125.1088968394834
 20
540.0404863574295
 30
0.0
 10
125.1088968394834
 20
540.0404863574295
 30
0.0
 10
125.1088968394834
 20
540.0404863574295
 30
0.0
 10
125.5692968278527
 20
540.307586350682
 30
0.0
 10
125.5692968278527
 20
540.307586350682
 30
0.0
 10
125.5331968287646
 20
540.3573863494239
 30
0.0
 10
125.4926968297877
 20
540.4037863482517
 30
0.0
 10
125.4486968308993
 20
540.4481863471301
 30
0.0
 10
125.4164968317127
 20
540.4809999999998
 30
0.0
 10
125.3812968326019
 20
540.5111863455386
 30
0.0
 10
125.3451968335139
 20
540.5404863447984
 30
0.0
 10
125.3451968335139
 20
540.5404863447984
 30
0.0
 10
125.3451968335139
 20
540.5404863447984
 30
0.0
 10
125.3451968335139
 20
540.5404863447984
 30
0.0
  0
SPLINE
  5
66
330
14
100
AcDbEntity
  8
Layer 1
370
     0
100
AcDbSpline
210
0.0
220
0.0
230
1.0
 70
    11
 71
     3
 72
    26
 73
    22
 74
     0
 42
0.000000001
 43
0.0000000001
 40
0.0
 40
0.0
 40
0.0
 40
0.0
 40
1.0
 40
1.0
 40
1.0
 40
2.0
 40
2.0
 40
2.0
 40
3.0
 40
3.0
 40
3.0
 40
4.0
 40
4.0
 40
4.0
 40
5.0
 40
5.0
 40
5.0
 40
6.0
 40
6.0
 40
6.0
 40
7.0
 40
7.0
 40
7.0
 40
7.0
 10
126.6728967999734
 20
542.8397862867132
 30
0.0
 10
126.6728967999734
 20
542.8397862867132
 30
0.0
 10
125.5473968284059
 20
540.8910863359415
 30
0.0
 10
125.5473968284059
 20
540.8910863359415
 30
0.0
 10
125.6132968267411
 20
540.8422863371743
 30
0.0
 10
125.6747968251875
 20
540.7890863385182
 30
0.0
 10
125.7323968237324
 20
540.7318863399632
 30
0.0
 10
125.8012968219919
 20
540.6630863417013
 30
0.0
 10
125.8632968204256
 20
540.587886343601
 30
0.0
 10
125.918896819021
 20
540.5082863456119
 30
0.0
 10
125.918896819021
 20
540.5082863456119
 30
0.0
 10
127.8651967698534
 20
541.6322863172172
 30
0.0
 10
127.8651967698534
 20
541.6322863172172
 30
0.0
 10
127.7094967737867
 20
541.881286310927
 30
0.0
 10
127.5263967784122
 20
542.1112863051167
 30
0.0
 10
127.3197967836313
 20
542.3178862998975
 30
0.0
 10
127.1229999999996
 20
542.5141862949386
 30
0.0
 10
126.9062967940772
 20
542.6894862905101
 30
0.0
 10
126.6728967999734
 20
542.8397862867132
 30
0.0
 10
126.6728967999734
 20
542.8397862867132
 30
0.0
 10
126.6728967999734
 20
542.8397862867132
 30
0.0
 10
126.6728967999734
 20
542.8397862867132
 30
0.0
  0
SPLINE
  5
67
330
14
100
AcDbEntity
  8
Layer 1
370
     0
100
AcDbSpline
210
0.0
220
0.0
230
1.0
 70
    11
 71
     3
 72
    20
 73
    16
 74
     0
 42
0.000000001
 43
0.0000000001
 40
0.0
 40
0.0
 40
0.0
 40
0.0
 40
1.0
 40
1.0
 40
1.0
 40
2.0
 40
2.0
 40
2.0
 40
3.0
 40
3.0
 40
3.0
 40
4.0
 40
4.0
 40
4.0
 40
5.0
 40
5.0
 40
5.0
 40
5.0
 10
112.3368971621312
 20
540.2006863533825
 30
0.0
 10
112.4594971590341
 20
540.6093863430578
 30
0.0
 10
112.7216971524103
 20
540.9570000000003
 30
0.0
 10
113.068397143652
 20
541.1874863284538
 30
0.0
 10
113.068397143652
 20
541.1874863284538
 30
0.0
 10
112.2147971652157
 20
544.2821862502751
 30
0.0
 10
112.2147971652157
 20
544.2821862502751
 30
0.0
 10
112.2147971652157
 20
544.2821862502751
 30
0.0
 10
110.180197216614
 20
542.4828862957293
 30
0.0
 10
110.180197216614
 20
542.4828862957293
 30
0.0
 10
110.6376972050566
 20
541.8183863125159
 30
0.0
 10
110.9423971973592
 20
541.0414863321421
 30
0.0
 10
111.0453971947572
 20
540.2006863533825
 30
0.0
 10
111.0453971947572
 20
540.2006863533825
 30
0.0
 10
112.3368971621312
 20
540.2006863533825
 30
0.0
 10
112.3368971621312
 20
540.2006863533825
 30
0.0
  0
SPLINE
  5
68
330
14
100
AcDbEntity
  8
Layer 1
370
     0
100
AcDbSpline
210
0.0
220
0.0
230
1.0
 70
    11
 71
     3
 72
    17
 73
    13
 74
     0
 42
0.000000001
 43
0.0000000001
 40
0.0
 40
0.0
 40
0.0
 40
0.0
 40
1.0
 40
1.0
 40
1.0
 40
2.0
 40
2.0
 40
2.0
 40
3.0
 40
3.0
 40
3.0
 40
4.0
 40
4.0
 40
4.0
 40
4.0
 10
106.0863973200321
 20
540.8021863381873
 30
0.0
 10
106.0863973200321
 20
540.8021863381873
 30
0.0
 10
106.0863973200321
 20
540.5224863452531
 30
0.0
 10
106.0863973200321
 20
540.5224863452531
 30
0.0
 10
106.0863973200321
 20
540.5224863452531
 30
0.0
 10
106.3441973135195
 20
540.744086339655
 30
0.0
 10
106.3441973135195
 20
540.744086339655
 30
0.0
 10
106.2616973156037
 20
540.7724863389376
 30
0.0
 10
106.1757973177737
 20
540.7920000000004
 30
0.0
 10
106.0863973200321
 20
540.8021863381873
 30
0.0
 10
106.0863973200321
 20
540.8021863381873
 30
0.0
 10
106.0863973200321
 20
540.8021863381873
 30
0.0
 10
106.0863973200321
 20
540.8021863381873
 30
0.0
  0
SPLINE
  5
69
330
14
100
AcDbEntity
  8
Layer 1
370
     0
100
AcDbSpline
210
0.0
220
0.0
230
1.0
 70
    11
 71
     3
 72
    20
 73
    16
 74
     0
 42
0.000000001
 43
0.0000000001
 40
0.0
 40
0.0
 40
0.0
 40
0.0
 40
1.0
 40
1.0
 40
1.0
 40
2.0
 40
2.0
 40
2.0
 40
3.0
 40
3.0
 40
3.0
 40
4.0
 40
4.0
 40
4.0
 40
5.0
 40
5.0
 40
5.0
 40
5.0
 10
106.0863973200321
 20
543.4525862712326
 30
0.0
 10
106.0863973200321
 20
543.4525862712326
 30
0.0
 10
106.0863973200321
 20
541.2050863280092
 30
0.0
 10
106.0863973200321
 20
541.2050863280092
 30
0.0
 10
106.2728973153207
 20
541.1894863284033
 30
0.0
 10
106.4511973108165
 20
541.141086329626
 30
0.0
 10
106.6151973066735
 20
541.0678863314752
 30
0.0
 10
106.6151973066735
 20
541.0678863314752
 30
0.0
 10
107.738797278289
 20
543.0155862822721
 30
0.0
 10
107.738797278289
 20
543.0155862822721
 30
0.0
 10
107.2421972908342
 20
543.2758862756964
 30
0.0
 10
106.6815973049961
 20
543.4306862717858
 30
0.0
 10
106.0863973200321
 20
543.4525862712326
 30
0.0
 10
106.0863973200321
 20
543.4525862712326
 30
0.0
 10
106.0863973200321
 20
543.4525862712326
 30
0.0
 10
106.0863973200321
 20
543.4525862712326
 30
0.0
  0
SPLINE
  5
6A
330
14
100
AcDbEntity
  8
Layer 1
370
     0
100
AcDbSpline
210
0.0
220
0.0
230
1.0
 70
    11
 71
     3
 72
    20
 73
    16
 74
     0
 42
0.000000001
 43
0.0000000001
 40
0.0
 40
0.0
 40
0.0
 40
0.0
 40
1.0
 40
1.0
 40
1.0
 40
2.0
 40
2.0
 40
2.0
 40
3.0
 40
3.0
 40
3.0
 40
4.0
 40
4.0
 40
4.0
 40
5.0
 40
5.0
 40
5.0
 40
5.0
 10
105.4511973360786
 20
540.7094863405291
 30
0.0
 10
105.4511973360786
 20
540.7094863405291
 30
0.0
 10
105.733897328937
 20
540.2182863529379
 30
0.0
 10
105.733897328937
 20
540.2182863529379
 30
0.0
 10
105.733897328937
 20
540.2182863529379
 30
0.0
 10
105.7719999999999
 20
540.2520000000004
 30
0.0
 10
105.7719999999999
 20
540.2520000000004
 30
0.0
 10
105.7719999999999
 20
540.2520000000004
 30
0.0
 10
105.7719999999999
 20
540.7987863382732
 30
0.0
 10
105.7719999999999
 20
540.7987863382732
 30
0.0
 10
105.6596973308115
 20
540.7836863386547
 30
0.0
 10
105.5521973335271
 20
540.7528863394327
 30
0.0
 10
105.4511973360786
 20
540.7094863405291
 30
0.0
 10
105.4511973360786
 20
540.7094863405291
 30
0.0
 10
105.4511973360786
 20
540.7094863405291
 30
0.0
 10
105.4511973360786
 20
540.7094863405291
 30
0.0
  0
SPLINE
  5
6B
330
14
100
AcDbEntity
  8
Layer 1
370
     0
100
AcDbSpline
210
0.0
220
0.0
230
1.0
 70
    11
 71
     3
 72
    20
 73
    16
 74
     0
 42
0.000000001
 43
0.0000000001
 40
0.0
 40
0.0
 40
0.0
 40
0.0
 40
1.0
 40
1.0
 40
1.0
 40
2.0
 40
2.0
 40
2.0
 40
3.0
 40
3.0
 40
3.0
 40
4.0
 40
4.0
 40
4.0
 40
5.0
 40
5.0
 40
5.0
 40
5.0
 10
104.1254973695686
 20
543.0043862825551
 30
0.0
 10
104.1254973695686
 20
543.0043862825551
 30
0.0
 10
105.249497341174
 20
541.0580863317227
 30
0.0
 10
105.249497341174
 20
541.0580863317227
 30
0.0
 10
105.411597337079
 20
541.1337863298104
 30
0.0
 10
105.5873973326379
 20
541.1840863285397
 30
0.0
 10
105.7719999999999
 20
541.202086328085
 30
0.0
 10
105.7719999999999
 20
541.202086328085
 30
0.0
 10
105.7719999999999
 20
543.4520862712452
 30
0.0
 10
105.7719999999999
 20
543.4520862712452
 30
0.0
 10
105.1786973429626
 20
543.426286271897
 30
0.0
 10
104.6210973570487
 20
543.2675862759061
 30
0.0
 10
104.1254973695686
 20
543.0043862825551
 30
0.0
 10
104.1254973695686
 20
543.0043862825551
 30
0.0
 10
104.1254973695686
 20
543.0043862825551
 30
0.0
 10
104.1254973695686
 20
543.0043862825551
 30
0.0
  0
SPLINE
  5
6C
330
14
100
AcDbEntity
  8
Layer 1
370
     0
100
AcDbSpline
210
0.0
220
0.0
230
1.0
 70
    11
 71
     3
 72
    20
 73
    16
 74
     0
 42
0.000000001
 43
0.0000000001
 40
0.0
 40
0.0
 40
0.0
 40
0.0
 40
1.0
 40
1.0
 40
1.0
 40
2.0
 40
2.0
 40
2.0
 40
3.0
 40
3.0
 40
3.0
 40
4.0
 40
4.0
 40
4.0
 40
5.0
 40
5.0
 40
5.0
 40
5.0
 10
104.9496973487476
 20
540.3130000000001
 30
0.0
 10
104.9496973487476
 20
540.3130000000001
 30
0.0
 10
105.5004973348332
 20
539.9960863585511
 30
0.0
 10
105.5004973348332
 20
539.9960863585511
 30
0.0
 10
105.5004973348332
 20
539.9960863585511
 30
0.0
 10
105.180697342912
 20
540.5482863446014
 30
0.0
 10
105.180697342912
 20
540.5482863446014
 30
0.0
 10
105.140597343925
 20
540.5170863453895
 30
0.0
 10
105.1030000000001
 20
540.4833863462409
 30
0.0
 10
105.0668973457869
 20
540.4481863471301
 30
0.0
 10
105.0248973468479
 20
540.4057863482012
 30
0.0
 10
104.986297347823
 20
540.3612863493254
 30
0.0
 10
104.9496973487476
 20
540.3130000000001
 30
0.0
 10
104.9496973487476
 20
540.3130000000001
 30
0.0
 10
104.9496973487476
 20
540.3130000000001
 30
0.0
 10
104.9496973487476
 20
540.3130000000001
 30
0.0
  0
SPLINE
  5
6D
330
14
100
AcDbEntity
  8
Layer 1
370
     0
100
AcDbSpline
210
0.0
220
0.0
230
1.0
 70
    11
 71
     3
 72
    26
 73
    22
 74
     0
 42
0.000000001
 43
0.0000000001
 40
0.0
 40
0.0
 40
0.0
 40
0.0
 40
1.0
 40
1.0
 40
1.0
 40
2.0
 40
2.0
 40
2.0
 40
3.0
 40
3.0
 40
3.0
 40
4.0
 40
4.0
 40
4.0
 40
5.0
 40
5.0
 40
5.0
 40
6.0
 40
6.0
 40
6.0
 40
7.0
 40
7.0
 40
7.0
 40
7.0
 10
102.6542974067343
 20
541.6386863170555
 30
0.0
 10
102.6542974067343
 20
541.6386863170555
 30
0.0
 10
104.6015973575413
 20
540.5150863454401
 30
0.0
 10
104.6015973575413
 20
540.5150863454401
 30
0.0
 10
104.6552973561847
 20
540.5917863435025
 30
0.0
 10
104.7167973546311
 20
540.665
 30
0.0
 10
104.7831973529537
 20
540.7318863399632
 30
0.0
 10
104.8441973514127
 20
540.7920000000004
 30
0.0
 10
104.9096973497581
 20
540.8476863370379
 30
0.0
 10
104.97849734802
 20
540.8983863357571
 30
0.0
 10
104.97849734802
 20
540.8983863357571
 30
0.0
 10
103.8540000000003
 20
542.8461862865515
 30
0.0
 10
103.8540000000003
 20
542.8461862865515
 30
0.0
 10
103.6156973824473
 20
542.6937862904015
 30
0.0
 10
103.39549738801
 20
542.5170862948653
 30
0.0
 10
103.1972973930169
 20
542.3178862998975
 30
0.0
 10
102.9911973982234
 20
542.1132863050661
 30
0.0
 10
102.8100974027984
 20
541.8852863108259
 30
0.0
 10
102.6542974067343
 20
541.6386863170555
 30
0.0
 10
102.6542974067343
 20
541.6386863170555
 30
0.0
 10
102.6542974067343
 20
541.6386863170555
 30
0.0
 10
102.6542974067343
 20
541.6386863170555
 30
0.0
  0
SPLINE
  5
6E
330
14
100
AcDbEntity
  8
Layer 1
370
     0
100
AcDbSpline
210
0.0
220
0.0
230
1.0
 70
    11
 71
     3
 72
    17
 73
    13
 74
     0
 42
0.000000001
 43
0.0000000001
 40
0.0
 40
0.0
 40
0.0
 40
0.0
 40
1.0
 40
1.0
 40
1.0
 40
2.0
 40
2.0
 40
2.0
 40
3.0
 40
3.0
 40
3.0
 40
4.0
 40
4.0
 40
4.0
 40
4.0
 10
104.713397354717
 20
539.723586365435
 30
0.0
 10
104.713397354717
 20
539.723586365435
 30
0.0
 10
105.342797338817
 20
539.723586365435
 30
0.0
 10
105.342797338817
 20
539.723586365435
 30
0.0
 10
105.342797338817
 20
539.723586365435
 30
0.0
 10
104.7953973526455
 20
540.0395863574522
 30
0.0
 10
104.7953973526455
 20
540.0395863574522
 30
0.0
 10
104.755397353656
 20
539.9403863599582
 30
0.0
 10
104.7265973543836
 20
539.8339999999998
 30
0.0
 10
104.713397354717
 20
539.723586365435
 30
0.0
 10
104.713397354717
 20
539.723586365435
 30
0.0
 10
104.713397354717
 20
539.723586365435
 30
0.0
 10
104.713397354717
 20
539.723586365435
 30
0.0
  0
SPLINE
  5
6F
330
14
100
AcDbEntity
  8
Layer 1
370
     0
100
AcDbSpline
210
0.0
220
0.0
230
1.0
 70
    11
 71
     3
 72
    20
 73
    16
 74
     0
 42
0.000000001
 43
0.0000000001
 40
0.0
 40
0.0
 40
0.0
 40
0.0
 40
1.0
 40
1.0
 40
1.0
 40
2.0
 40
2.0
 40
2.0
 40
3.0
 40
3.0
 40
3.0
 40
4.0
 40
4.0
 40
4.0
 40
5.0
 40
5.0
 40
5.0
 40
5.0
 10
102.0619999999999
 20
539.723586365435
 30
0.0
 10
102.0619999999999
 20
539.723586365435
 30
0.0
 10
104.3109999999997
 20
539.723586365435
 30
0.0
 10
104.3109999999997
 20
539.723586365435
 30
0.0
 10
104.3275973644631
 20
539.9071863607969
 30
0.0
 10
104.3734973633036
 20
540.0810863564038
 30
0.0
 10
104.4457973614772
 20
540.2416863523467
 30
0.0
 10
104.4457973614772
 20
540.2416863523467
 30
0.0
 10
102.4975974106928
 20
541.3666863239268
 30
0.0
 10
102.4975974106928
 20
541.3666863239268
 30
0.0
 10
102.2401974171953
 20
540.8715863364341
 30
0.0
 10
102.0853974211059
 20
540.3148863504975
 30
0.0
 10
102.0619999999999
 20
539.723586365435
 30
0.0
 10
102.0619999999999
 20
539.723586365435
 30
0.0
 10
102.0619999999999
 20
539.723586365435
 30
0.0
 10
102.0619999999999
 20
539.723586365435
 30
0.0
  0
SPLINE
  5
70
330
14
100
AcDbEntity
  8
Layer 1
370
     0
100
AcDbSpline
210
0.0
220
0.0
230
1.0
 70
    11
 71
     3
 72
    17
 73
    13
 74
     0
 42
0.000000001
 43
0.0000000001
 40
0.0
 40
0.0
 40
0.0
 40
0.0
 40
1.0
 40
1.0
 40
1.0
 40
2.0
 40
2.0
 40
2.0
 40
3.0
 40
3.0
 40
3.0
 40
4.0
 40
4.0
 40
4.0
 40
4.0
 10
104.799297352547
 20
539.0956863812971
 30
0.0
 10
104.799297352547
 20
539.0956863812971
 30
0.0
 10
105.342797338817
 20
539.4096863733648
 30
0.0
 10
105.342797338817
 20
539.4096863733648
 30
0.0
 10
105.342797338817
 20
539.4096863733648
 30
0.0
 10
104.7147973546817
 20
539.4096863733648
 30
0.0
 10
104.7147973546817
 20
539.4096863733648
 30
0.0
 10
104.7294973543103
 20
539.2992863761538
 30
0.0
 10
104.7582973535827
 20
539.1947863787937
 30
0.0
 10
104.799297352547
 20
539.0956863812971
 30
0.0
 10
104.799297352547
 20
539.0956863812971
 30
0.0
 10
104.799297352547
 20
539.0956863812971
 30
0.0
 10
104.799297352547
 20
539.0956863812971
 30
0.0
  0
SPLINE
  5
71
330
14
100
AcDbEntity
  8
Layer 1
370
     0
100
AcDbSpline
210
0.0
220
0.0
230
1.0
 70
    11
 71
     3
 72
    20
 73
    16
 74
     0
 42
0.000000001
 43
0.0000000001
 40
0.0
 40
0.0
 40
0.0
 40
0.0
 40
1.0
 40
1.0
 40
1.0
 40
2.0
 40
2.0
 40
2.0
 40
3.0
 40
3.0
 40
3.0
 40
4.0
 40
4.0
 40
4.0
 40
5.0
 40
5.0
 40
5.0
 40
5.0
 10
102.5023974105716
 20
537.7694864147998
 30
0.0
 10
102.5023974105716
 20
537.7694864147998
 30
0.0
 10
104.4496973613786
 20
538.8935863864026
 30
0.0
 10
104.4496973613786
 20
538.8935863864026
 30
0.0
 10
104.3773973632051
 20
539.0541863823455
 30
0.0
 10
104.3290973644253
 20
539.2270863779777
 30
0.0
 10
104.3114973648699
 20
539.4096863733648
 30
0.0
 10
104.3114973648699
 20
539.4096863733648
 30
0.0
 10
102.0630000000001
 20
539.4096863733648
 30
0.0
 10
102.0630000000001
 20
539.4096863733648
 30
0.0
 10
102.0873974210554
 20
538.8192863882796
 30
0.0
 10
102.2426974171321
 20
538.2626864023405
 30
0.0
 10
102.5023974105716
 20
537.7694864147998
 30
0.0
 10
102.5023974105716
 20
537.7694864147998
 30
0.0
 10
102.5023974105716
 20
537.7694864147998
 30
0.0
 10
102.5023974105716
 20
537.7694864147998
 30
0.0
  0
SPLINE
  5
72
330
14
100
AcDbEntity
  8
Layer 1
370
     0
100
AcDbSpline
210
0.0
220
0.0
230
1.0
 70
    11
 71
     3
 72
    20
 73
    16
 74
     0
 42
0.000000001
 43
0.0000000001
 40
0.0
 40
0.0
 40
0.0
 40
0.0
 40
1.0
 40
1.0
 40
1.0
 40
2.0
 40
2.0
 40
2.0
 40
3.0
 40
3.0
 40
3.0
 40
4.0
 40
4.0
 40
4.0
 40
5.0
 40
5.0
 40
5.0
 40
5.0
 10
105.1850973428009
 20
538.5922863940141
 30
0.0
 10
105.1850973428009
 20
538.5922863940141
 30
0.0
 10
105.5004973348332
 20
539.1371863802487
 30
0.0
 10
105.5004973348332
 20
539.1371863802487
 30
0.0
 10
105.5004973348332
 20
539.1371863802487
 30
0.0
 10
104.9564973485758
 20
538.8227863881912
 30
0.0
 10
104.9564973485758
 20
538.8227863881912
 30
0.0
 10
104.9896973477371
 20
538.7787863893027
 30
0.0
 10
105.0268973467973
 20
538.7362863903763
 30
0.0
 10
105.0668973457869
 20
538.6962863913868
 30
0.0
 10
105.1034973448623
 20
538.659186392324
 30
0.0
 10
105.1435973438493
 20
538.625
 30
0.0
 10
105.1850973428009
 20
538.5922863940141
 30
0.0
 10
105.1850973428009
 20
538.5922863940141
 30
0.0
 10
105.1850973428009
 20
538.5922863940141
 30
0.0
 10
105.1850973428009
 20
538.5922863940141
 30
0.0
  0
SPLINE
  5
73
330
14
100
AcDbEntity
  8
Layer 1
370
     0
100
AcDbSpline
210
0.0
220
0.0
230
1.0
 70
    11
 71
     3
 72
    26
 73
    22
 74
     0
 42
0.000000001
 43
0.0000000001
 40
0.0
 40
0.0
 40
0.0
 40
0.0
 40
1.0
 40
1.0
 40
1.0
 40
2.0
 40
2.0
 40
2.0
 40
3.0
 40
3.0
 40
3.0
 40
4.0
 40
4.0
 40
4.0
 40
5.0
 40
5.0
 40
5.0
 40
6.0
 40
6.0
 40
6.0
 40
7.0
 40
7.0
 40
7.0
 40
7.0
 10
103.8588973763035
 20
536.2948864520513
 30
0.0
 10
103.8588973763035
 20
536.2948864520513
 30
0.0
 10
104.9833973478962
 20
538.2421864028584
 30
0.0
 10
104.9833973478962
 20
538.2421864028584
 30
0.0
 10
104.9120973496974
 20
538.2943864015397
 30
0.0
 10
104.8451973513875
 20
538.3505864001199
 30
0.0
 10
104.7831973529537
 20
538.4125863985537
 30
0.0
 10
104.7191973545705
 20
538.4774863969142
 30
0.0
 10
104.660197356061
 20
538.5473863951484
 30
0.0
 10
104.6073973573948
 20
538.6210863932865
 30
0.0
 10
104.6073973573948
 20
538.6210863932865
 30
0.0
 10
102.6596974065978
 20
537.4970864216812
 30
0.0
 10
102.6596974065978
 20
537.4970864216812
 30
0.0
 10
102.8134974027125
 20
537.2533864278375
 30
0.0
 10
102.9945973981376
 20
537.028286433524
 30
0.0
 10
103.1972973930169
 20
536.8266864386169
 30
0.0
 10
103.3969999999999
 20
536.6254864436996
 30
0.0
 10
103.6186973823715
 20
536.4477864481887
 30
0.0
 10
103.8588973763035
 20
536.2948864520513
 30
0.0
 10
103.8588973763035
 20
536.2948864520513
 30
0.0
 10
103.8588973763035
 20
536.2948864520513
 30
0.0
 10
103.8588973763035
 20
536.2948864520513
 30
0.0
  0
SPLINE
  5
74
330
14
100
AcDbEntity
  8
Layer 1
370
     0
100
AcDbSpline
210
0.0
220
0.0
230
1.0
 70
    11
 71
     3
 72
    17
 73
    13
 74
     0
 42
0.000000001
 43
0.0000000001
 40
0.0
 40
0.0
 40
0.0
 40
0.0
 40
1.0
 40
1.0
 40
1.0
 40
2.0
 40
2.0
 40
2.0
 40
3.0
 40
3.0
 40
3.0
 40
4.0
 40
4.0
 40
4.0
 40
4.0
 10
105.7719999999999
 20
538.3451864002564
 30
0.0
 10
105.7719999999999
 20
538.3451864002564
 30
0.0
 10
105.7719999999999
 20
538.9799999999996
 30
0.0
 10
105.7719999999999
 20
538.9799999999996
 30
0.0
 10
105.7719999999999
 20
538.9799999999996
 30
0.0
 10
105.4560973359548
 20
538.4330863980358
 30
0.0
 10
105.4560973359548
 20
538.4330863980358
 30
0.0
 10
105.5561973334261
 20
538.3900863991221
 30
0.0
 10
105.6615973307635
 20
538.3607863998623
 30
0.0
 10
105.7719999999999
 20
538.3451864002564
 30
0.0
 10
105.7719999999999
 20
538.3451864002564
 30
0.0
 10
105.7719999999999
 20
538.3451864002564
 30
0.0
 10
105.7719999999999
 20
538.3451864002564
 30
0.0
  0
SPLINE
  5
75
330
14
100
AcDbEntity
  8
Layer 1
370
     0
100
AcDbSpline
210
0.0
220
0.0
230
1.0
 70
    11
 71
     3
 72
    20
 73
    16
 74
     0
 42
0.000000001
 43
0.0000000001
 40
0.0
 40
0.0
 40
0.0
 40
0.0
 40
1.0
 40
1.0
 40
1.0
 40
2.0
 40
2.0
 40
2.0
 40
3.0
 40
3.0
 40
3.0
 40
4.0
 40
4.0
 40
4.0
 40
5.0
 40
5.0
 40
5.0
 40
5.0
 10
105.7719999999999
 20
535.6928864672591
 30
0.0
 10
105.7719999999999
 20
535.6928864672591
 30
0.0
 10
105.7719999999999
 20
537.9408864104698
 30
0.0
 10
105.7719999999999
 20
537.9408864104698
 30
0.0
 10
105.5893973325874
 20
537.9603864099772
 30
0.0
 10
105.415
 20
538.0097864087293
 30
0.0
 10
105.2548973410376
 20
538.0834864068675
 30
0.0
 10
105.2548973410376
 20
538.0834864068675
 30
0.0
 10
104.1308973694322
 20
536.1361864560604
 30
0.0
 10
104.1308973694322
 20
536.1361864560604
 30
0.0
 10
104.6234973569881
 20
535.8754864626462
 30
0.0
 10
105.180697342912
 20
535.7182864666174
 30
0.0
 10
105.7719999999999
 20
535.6928864672591
 30
0.0
 10
105.7719999999999
 20
535.6928864672591
 30
0.0
 10
105.7719999999999
 20
535.6928864672591
 30
0.0
 10
105.7719999999999
 20
535.6928864672591
 30
0.0
  0
SPLINE
  5
76
330
14
100
AcDbEntity
  8
Layer 1
370
     0
100
AcDbSpline
210
0.0
220
0.0
230
1.0
 70
    11
 71
     3
 72
    20
 73
    16
 74
     0
 42
0.000000001
 43
0.0000000001
 40
0.0
 40
0.0
 40
0.0
 40
0.0
 40
1.0
 40
1.0
 40
1.0
 40
2.0
 40
2.0
 40
2.0
 40
3.0
 40
3.0
 40
3.0
 40
4.0
 40
4.0
 40
4.0
 40
5.0
 40
5.0
 40
5.0
 40
5.0
 10
106.4076973119154
 20
538.4237863982707
 30
0.0
 10
106.4076973119154
 20
538.4237863982707
 30
0.0
 10
106.1083973194764
 20
538.9437863851344
 30
0.0
 10
106.1083973194764
 20
538.9437863851344
 30
0.0
 10
106.1083973194764
 20
538.9437863851344
 30
0.0
 10
106.0863973200321
 20
538.9437863851344
 30
0.0
 10
106.0863973200321
 20
538.9437863851344
 30
0.0
 10
106.0863973200321
 20
538.9437863851344
 30
0.0
 10
106.0863973200321
 20
538.3412864003549
 30
0.0
 10
106.0863973200321
 20
538.3412864003549
 30
0.0
 10
106.1986973171952
 20
538.3544864000214
 30
0.0
 10
106.3061973144795
 20
538.3832863992939
 30
0.0
 10
106.4076973119154
 20
538.4237863982707
 30
0.0
 10
106.4076973119154
 20
538.4237863982707
 30
0.0
 10
106.4076973119154
 20
538.4237863982707
 30
0.0
 10
106.4076973119154
 20
538.4237863982707
 30
0.0
  0
SPLINE
  5
77
330
14
100
AcDbEntity
  8
Layer 1
370
     0
100
AcDbSpline
210
0.0
220
0.0
230
1.0
 70
    11
 71
     3
 72
    20
 73
    16
 74
     0
 42
0.000000001
 43
0.0000000001
 40
0.0
 40
0.0
 40
0.0
 40
0.0
 40
1.0
 40
1.0
 40
1.0
 40
2.0
 40
2.0
 40
2.0
 40
3.0
 40
3.0
 40
3.0
 40
4.0
 40
4.0
 40
4.0
 40
5.0
 40
5.0
 40
5.0
 40
5.0
 10
107.7343972784001
 20
536.1260000000002
 30
0.0
 10
107.7343972784001
 20
536.1260000000002
 30
0.0
 10
106.60939730682
 20
538.0731864071277
 30
0.0
 10
106.60939730682
 20
538.0731864071277
 30
0.0
 10
106.447297310915
 20
538.0010000000002
 30
0.0
 10
106.2714973153561
 20
537.9550864101111
 30
0.0
 10
106.0863973200321
 20
537.9390000000003
 30
0.0
 10
106.0863973200321
 20
537.9390000000003
 30
0.0
 10
106.0863973200321
 20
535.691386467297
 30
0.0
 10
106.0863973200321
 20
535.691386467297
 30
0.0
 10
106.6796973050441
 20
535.7128864667538
 30
0.0
 10
107.2382972909327
 20
535.8676864628433
 30
0.0
 10
107.7343972784001
 20
536.1260000000002
 30
0.0
 10
107.7343972784001
 20
536.1260000000002
 30
0.0
 10
107.7343972784001
 20
536.1260000000002
 30
0.0
 10
107.7343972784001
 20
536.1260000000002
 30
0.0
  0
SPLINE
  5
78
330
14
100
AcDbEntity
  8
Layer 1
370
     0
100
AcDbSpline
210
0.0
220
0.0
230
1.0
 70
    11
 71
     3
 72
    23
 73
    19
 74
     0
 42
0.000000001
 43
0.0000000001
 40
0.0
 40
0.0
 40
0.0
 40
0.0
 40
1.0
 40
1.0
 40
1.0
 40
2.0
 40
2.0
 40
2.0
 40
3.0
 40
3.0
 40
3.0
 40
4.0
 40
4.0
 40
4.0
 40
5.0
 40
5.0
 40
5.0
 40
6.0
 40
6.0
 40
6.0
 40
6.0
 10
106.9203972989635
 20
538.8119999999999
 30
0.0
 10
106.9203972989635
 20
538.8119999999999
 30
0.0
 10
106.6942973046753
 20
538.9437863851344
 30
0.0
 10
106.6942973046753
 20
538.9437863851344
 30
0.0
 10
106.6942973046753
 20
538.9437863851344
 30
0.0
 10
106.4701973103365
 20
538.9437863851344
 30
0.0
 10
106.4701973103365
 20
538.9437863851344
 30
0.0
 10
106.4701973103365
 20
538.9437863851344
 30
0.0
 10
106.6815973049961
 20
538.5775863943854
 30
0.0
 10
106.6815973049961
 20
538.5775863943854
 30
0.0
 10
106.7299999999996
 20
538.613786393471
 30
0.0
 10
106.7763973026013
 20
538.6532863924731
 30
0.0
 10
106.8187973015301
 20
538.6962863913868
 30
0.0
 10
106.8549999999996
 20
538.7333863904496
 30
0.0
 10
106.8891972997517
 20
538.7714863894871
 30
0.0
 10
106.9203972989635
 20
538.8119999999999
 30
0.0
 10
106.9203972989635
 20
538.8119999999999
 30
0.0
 10
106.9203972989635
 20
538.8119999999999
 30
0.0
 10
106.9203972989635
 20
538.8119999999999
 30
0.0
  0
SPLINE
  5
79
330
14
100
AcDbEntity
  8
Layer 1
370
     0
100
AcDbSpline
210
0.0
220
0.0
230
1.0
 70
    11
 71
     3
 72
    26
 73
    22
 74
     0
 42
0.000000001
 43
0.0000000001
 40
0.0
 40
0.0
 40
0.0
 40
0.0
 40
1.0
 40
1.0
 40
1.0
 40
2.0
 40
2.0
 40
2.0
 40
3.0
 40
3.0
 40
3.0
 40
4.0
 40
4.0
 40
4.0
 40
5.0
 40
5.0
 40
5.0
 40
6.0
 40
6.0
 40
6.0
 40
7.0
 40
7.0
 40
7.0
 40
7.0
 10
109.2182972409137
 20
537.486286421954
 30
0.0
 10
109.2182972409137
 20
537.486286421954
 30
0.0
 10
107.2709999999997
 20
538.6107863935467
 30
0.0
 10
107.2709999999997
 20
538.6107863935467
 30
0.0
 10
107.2201972913899
 20
538.5404863953227
 30
0.0
 10
107.1635972928198
 20
538.4735863970127
 30
0.0
 10
107.1024972943633
 20
538.4125863985537
 30
0.0
 10
107.034697296076
 20
538.3451864002564
 30
0.0
 10
106.9613972979278
 20
538.2841864017973
 30
0.0
 10
106.8827972999134
 20
538.2294864031792
 30
0.0
 10
106.8827972999134
 20
538.2294864031792
 30
0.0
 10
108.0072972715061
 20
536.2826864523595
 30
0.0
 10
108.0072972715061
 20
536.2826864523595
 30
0.0
 10
108.2553972652386
 20
536.4374864484489
 30
0.0
 10
108.4823972595041
 20
536.6210864438108
 30
0.0
 10
108.6884972542975
 20
536.8266864386169
 30
0.0
 10
108.8886972492401
 20
537.0258864335847
 30
0.0
 10
109.066397244751
 20
537.2470864279967
 30
0.0
 10
109.2182972409137
 20
537.486286421954
 30
0.0
 10
109.2182972409137
 20
537.486286421954
 30
0.0
 10
109.2182972409137
 20
537.486286421954
 30
0.0
 10
109.2182972409137
 20
537.486286421954
 30
0.0
  0
SPLINE
  5
7A
330
14
100
AcDbEntity
  8
Layer 1
370
     0
100
AcDbSpline
210
0.0
220
0.0
230
1.0
 70
    11
 71
     3
 72
    20
 73
    16
 74
     0
 42
0.000000001
 43
0.0000000001
 40
0.0
 40
0.0
 40
0.0
 40
0.0
 40
1.0
 40
1.0
 40
1.0
 40
2.0
 40
2.0
 40
2.0
 40
3.0
 40
3.0
 40
3.0
 40
4.0
 40
4.0
 40
4.0
 40
5.0
 40
5.0
 40
5.0
 40
5.0
 10
107.4301972860849
 20
538.8817863867007
 30
0.0
 10
107.4301972860849
 20
538.8817863867007
 30
0.0
 10
109.3770000000004
 20
537.757286415108
 30
0.0
 10
109.3770000000004
 20
537.757286415108
 30
0.0
 10
109.569797232034
 20
538.1229999999996
 30
0.0
 10
109.7070000000003
 20
538.5209999999997
 30
0.0
 10
109.7748972268528
 20
538.9437863851344
 30
0.0
 10
109.7748972268528
 20
538.9437863851344
 30
0.0
 10
107.4570000000003
 20
538.9437863851344
 30
0.0
 10
107.4570000000003
 20
538.9437863851344
 30
0.0
 10
107.4486972856175
 20
538.922386385675
 30
0.0
 10
107.4394972858499
 20
538.9018863861929
 30
0.0
 10
107.4301972860849
 20
538.8817863867007
 30
0.0
 10
107.4301972860849
 20
538.8817863867007
 30
0.0
 10
107.4301972860849
 20
538.8817863867007
 30
0.0
 10
107.4301972860849
 20
538.8817863867007
 30
0.0
  0
SPLINE
  5
7B
330
14
100
AcDbEntity
  8
Layer 1
370
     0
100
AcDbSpline
210
0.0
220
0.0
230
1.0
 70
    11
 71
     3
 72
    20
 73
    16
 74
     0
 42
0.000000001
 43
0.0000000001
 40
0.0
 40
0.0
 40
0.0
 40
0.0
 40
1.0
 40
1.0
 40
1.0
 40
2.0
 40
2.0
 40
2.0
 40
3.0
 40
3.0
 40
3.0
 40
4.0
 40
4.0
 40
4.0
 40
5.0
 40
5.0
 40
5.0
 40
5.0
 10
109.3812972367959
 20
541.3783863236313
 30
0.0
 10
109.3812972367959
 20
541.3783863236313
 30
0.0
 10
108.0834972695811
 20
540.6288863425652
 30
0.0
 10
108.0834972695811
 20
540.6288863425652
 30
0.0
 10
108.0834972695811
 20
540.6288863425652
 30
0.0
 10
107.6000972817928
 20
540.2006863533825
 30
0.0
 10
107.6000972817928
 20
540.2006863533825
 30
0.0
 10
107.6000972817928
 20
540.2006863533825
 30
0.0
 10
109.7748972268528
 20
540.2006863533825
 30
0.0
 10
109.7748972268528
 20
540.2006863533825
 30
0.0
 10
109.7074972285554
 20
540.6195863428002
 30
0.0
 10
109.5722972319709
 20
541.0160863327837
 30
0.0
 10
109.3812972367959
 20
541.3783863236313
 30
0.0
 10
109.3812972367959
 20
541.3783863236313
 30
0.0
 10
109.3812972367959
 20
541.3783863236313
 30
0.0
 10
109.3812972367959
 20
541.3783863236313
 30
0.0
  0
SPLINE
  5
7C
330
14
100
AcDbEntity
  8
Layer 1
370
     0
100
AcDbSpline
210
0.0
220
0.0
230
1.0
 70
    11
 71
     3
 72
    17
 73
    13
 74
     0
 42
0.000000001
 43
0.0000000001
 40
0.0
 40
0.0
 40
0.0
 40
0.0
 40
1.0
 40
1.0
 40
1.0
 40
2.0
 40
2.0
 40
2.0
 40
3.0
 40
3.0
 40
3.0
 40
4.0
 40
4.0
 40
4.0
 40
4.0
 10
108.0121972713823
 20
542.8588862862307
 30
0.0
 10
108.0121972713823
 20
542.8588862862307
 30
0.0
 10
107.2318972910944
 20
541.5082863203497
 30
0.0
 10
107.2318972910944
 20
541.5082863203497
 30
0.0
 10
107.2318972910944
 20
541.5082863203497
 30
0.0
 10
108.4390000000003
 20
542.5468862941125
 30
0.0
 10
108.4390000000003
 20
542.5468862941125
 30
0.0
 10
108.3041972640058
 20
542.6605862912402
 30
0.0
 10
108.1615972676082
 20
542.7645862886129
 30
0.0
 10
108.0121972713823
 20
542.8588862862307
 30
0.0
 10
108.0121972713823
 20
542.8588862862307
 30
0.0
 10
108.0121972713823
 20
542.8588862862307
 30
0.0
 10
108.0121972713823
 20
542.8588862862307
 30
0.0
  0
HATCH
  5
7D
330
14
100
AcDbEntity
  8
Layer 1
 62
     7
100
AcDbHatch
 10
0.0
 20
0.0
 30
0.0
210
0.0
220
0.0
230
1.0
  2
SOLID
 70
     1
 71
     0
 91
       49
 92
        1
 93
        1
 72
     4
 94
        3
 73
     0
 74
     1
 95
      203
 96
      199
 40
0.0
 40
0.0
 40
0.0
 40
0.0
 40
1.0
 40
1.0
 40
1.0
 40
2.0
 40
2.0
 40
2.0
 40
3.0
 40
3.0
 40
3.0
 40
4.0
 40
4.0
 40
4.0
 40
5.0
 40
5.0
 40
5.0
 40
6.0
 40
6.0
 40
6.0
 40
7.0
 40
7.0
 40
7.0
 40
8.0
 40
8.0
 40
8.0
 40
9.0
 40
9.0
 40
9.0
 40
10.0
 40
10.0
 40
10.0
 40
11.0
 40
11.0
 40
11.0
 40
12.0
 40
12.0
 40
12.0
 40
13.0
 40
13.0
 40
13.0
 40
14.0
 40
14.0
 40
14.0
 40
15.0
 40
15.0
 40
15.0
 40
16.0
 40
16.0
 40
16.0
 40
17.0
 40
17.0
 40
17.0
 40
18.0
 40
18.0
 40
18.0
 40
19.0
 40
19.0
 40
19.0
 40
20.0
 40
20.0
 40
20.0
 40
21.0
 40
21.0
 40
21.0
 40
22.0
 40
22.0
 40
22.0
 40
23.0
 40
23.0
 40
23.0
 40
24.0
 40
24.0
 40
24.0
 40
25.0
 40
25.0
 40
25.0
 40
26.0
 40
26.0
 40
26.0
 40
27.0
 40
27.0
 40
27.0
 40
28.0
 40
28.0
 40
28.0
 40
29.0
 40
29.0
 40
29.0
 40
30.0
 40
30.0
 40
30.0
 40
31.0
 40
31.0
 40
31.0
 40
32.0
 40
32.0
 40
32.0
 40
33.0
 40
33.0
 40
33.0
 40
34.0
 40
34.0
 40
34.0
 40
35.0
 40
35.0
 40
35.0
 40
36.0
 40
36.0
 40
36.0
 40
37.0
 40
37.0
 40
37.0
 40
38.0
 40
38.0
 40
38.0
 40
39.0
 40
39.0
 40
39.0
 40
40.0
 40
40.0
 40
40.0
 40
41.0
 40
41.0
 40
41.0
 40
42.0
 40
42.0
 40
42.0
 40
43.0
 40
43.0
 40
43.0
 40
44.0
 40
44.0
 40
44.0
 40
45.0
 40
45.0
 40
45.0
 40
46.0
 40
46.0
 40
46.0
 40
47.0
 40
47.0
 40
47.0
 40
48.0
 40
48.0
 40
48.0
 40
49.0
 40
49.0
 40
49.0
 40
50.0
 40
50.0
 40
50.0
 40
51.0
 40
51.0
 40
51.0
 40
52.0
 40
52.0
 40
52.0
 40
53.0
 40
53.0
 40
53.0
 40
54.0
 40
54.0
 40
54.0
 40
55.0
 40
55.0
 40
55.0
 40
56.0
 40
56.0
 40
56.0
 40
57.0
 40
57.0
 40
57.0
 40
58.0
 40
58.0
 40
58.0
 40
59.0
 40
59.0
 40
59.0
 40
60.0
 40
60.0
 40
60.0
 40
61.0
 40
61.0
 40
61.0
 40
62.0
 40
62.0
 40
62.0
 40
63.0
 40
63.0
 40
63.0
 40
64.0
 40
64.0
 40
64.0
 40
65.0
 40
65.0
 40
65.0
 40
66.0
 40
66.0
 40
66.0
 40
66.0
 10
105.9433973236446
 20
544.7128862393947
 10
107.2748972900081
 20
544.7128862393947
 10
108.488297259355
 20
544.2060862521976
 10
109.4008972363008
 20
543.375
 10
109.4008972363008
 20
543.375
 10
111.8773971737392
 20
545.5067862193391
 10
111.8773971737392
 20
545.5067862193391
 10
111.8773971737392
 20
545.5067862193391
 10
110.8183972004917
 20
549.3456861223603
 10
110.8183972004917
 20
549.3456861223603
 10
110.6757972040941
 20
549.3144861231485
 10
110.5414972074868
 20
549.29
 10
110.4208972105334
 20
549.2768861240984
 10
109.5370972328601
 20
549.183086126468
 10
108.4140972612295
 20
549.8383861099137
 10
108.4140972612295
 20
549.8383861099137
 10
108.4140972612295
 20
549.8383861099137
 10
108.7255972533603
 20
550.5971860907448
 10
108.7255972533603
 20
550.5971860907448
 10
108.7255972533603
 20
550.5971860907448
 10
113.4247971346485
 20
550.5971860907448
 10
113.4247971346485
 20
550.5971860907448
 10
113.4247971346485
 20
550.5971860907448
 10
113.58149713069
 20
550.1508861020193
 10
113.58149713069
 20
550.1508861020193
 10
113.58149713069
 20
550.1508861020193
 10
112.936497146984
 20
550.0570861043889
 10
112.936497146984
 20
550.0570861043889
 10
112.936497146984
 20
550.0570861043889
 10
112.3729999999996
 20
549.8197861103836
 10
111.7299999999996
 20
549.6059999999998
 10
111.7299999999996
 20
549.6059999999998
 10
112.6918971531632
 20
546.1190862038711
 10
112.6918971531632
 20
546.1190862038711
 10
112.9857971457386
 20
545.8471862107399
 10
113.3432971367074
 20
545.7006862144408
 10
113.7187971272215
 20
545.6581862155144
 10
114.1845971154544
 20
545.6049999999996
 10
114.6811971029092
 20
545.7060862143044
 10
115.1260000000002
 20
545.9228862088275
 10
115.1260000000002
 20
545.9228862088275
 10
115.1260000000002
 20
545.9213862088654
 10
115.1260000000002
 20
545.9213862088654
 10
115.1260000000002
 20
545.9213862088654
 10
121.623496927532
 20
549.4525861196598
 10
121.623496927532
 20
549.4525861196598
 10
121.623496927532
 20
549.4525861196598
 10
121.4203969326627
 20
550.3227860976767
 10
121.4203969326627
 20
550.3227860976767
 10
121.4203969326627
 20
550.3227860976767
 10
120.62009695288
 20
550.1645861016732
 10
120.62009695288
 20
550.1645861016732
 10
120.62009695288
 20
550.1645861016732
 10
120.6850969512379
 20
549.7475861122075
 10
120.6850969512379
 20
549.7475861122075
 10
120.6850969512379
 20
549.7475861122075
 10
120.2426969624139
 20
549.6786861139481
 10
120.2426969624139
 20
549.6786861139481
 10
120.2426969624139
 20
549.6786861139481
 10
120.2001969634875
 20
549.9560861069403
 10
120.2001969634875
 20
549.9560861069403
 10
120.2001969634875
 20
549.9560861069403
 10
118.3197970109904
 20
549.665
 10
118.3197970109904
 20
549.665
 10
118.3197970109904
 20
549.665
 10
118.1776970145802
 20
550.5795860911894
 10
118.1776970145802
 20
550.5795860911894
 10
118.1776970145802
 20
550.5795860911894
 10
120.0585969670647
 20
550.8705860838381
 10
120.0585969670647
 20
550.8705860838381
 10
120.0585969670647
 20
550.8705860838381
 10
120.0141969681863
 20
551.1586860765601
 10
120.0141969681863
 20
551.1586860765601
 10
120.0141969681863
 20
551.1586860765601
 10
120.456096957023
 20
551.2260860748574
 10
120.456096957023
 20
551.2260860748574
 10
120.456096957023
 20
551.2260860748574
 10
120.5238969553102
 20
550.7851860859955
 10
120.5238969553102
 20
550.7851860859955
 10
120.5238969553102
 20
550.7851860859955
 10
123.0131968924252
 20
551.2797860735009
 10
123.0131968924252
 20
551.2797860735009
 10
123.0131968924252
 20
551.2797860735009
 10
123.1337968893786
 20
550.6635860890674
 10
123.1337968893786
 20
550.6635860890674
 10
123.1337968893786
 20
550.6635860890674
 10
122.6527969015297
 20
550.5683860914723
 10
122.6527969015297
 20
550.5683860914723
 10
122.6527969015297
 20
550.5683860914723
 10
122.7724968985058
 20
550.0580861043636
 10
122.7724968985058
 20
550.0580861043636
 10
122.7724968985058
 20
550.0580861043636
 10
122.7910000000002
 20
550.0487861045985
 10
122.7910000000002
 20
550.0487861045985
 10
122.7910000000002
 20
550.0487861045985
 10
122.7953968979273
 20
550.0766861038937
 10
122.7953968979273
 20
550.0766861038937
 10
124.9560968433434
 20
549.7392861124172
 10
125.3871968324529
 20
549.1576861271096
 10
125.2562968357597
 20
548.3207861482515
 10
125.2074968369925
 20
548.0092861561207
 10
125.0766968402968
 20
547.6747861645708
 10
124.9320968439497
 20
547.3031861739582
 10
124.650396851066
 20
546.5829999999996
 10
124.3130000000001
 20
545.7172862140214
 10
124.4760968554692
 20
544.71188623942
 10
124.5082968546558
 20
544.71188623942
 10
124.5410000000002
 20
544.7128862393947
 10
124.5731968530163
 20
544.7128862393947
 10
125.9926968171567
 20
544.7128862393947
 10
127.2777967846923
 20
544.1376862539255
 10
128.2084967611809
 20
543.2074862774243
 10
129.138696737682
 20
542.2772863009232
 10
129.7138967231513
 20
540.9911863334128
 10
129.7138967231513
 20
539.5717863692698
 10
129.7138967231513
 20
538.1522864051294
 10
129.138696737682
 20
536.8671864375938
 10
128.2084967611809
 20
535.9369999999999
 10
127.2777967846923
 20
535.0067864845914
 10
125.9926968171567
 20
534.4315864991222
 10
124.5731968530163
 20
534.4315864991222
 10
123.1537968888733
 20
534.4315864991222
 10
121.8681969213503
 20
535.0067864845914
 10
120.9380000000001
 20
535.9369999999999
 10
120.007796968348
 20
536.8671864375938
 10
119.4320969828914
 20
538.1522864051294
 10
119.4320969828914
 20
539.5717863692698
 10
119.4320969828914
 20
540.9911863334128
 10
120.007796968348
 20
542.2772863009232
 10
120.9380000000001
 20
543.2074862774243
 10
121.4603969316522
 20
543.7299999999996
 10
122.0946969156284
 20
544.1405862538522
 10
122.8026968977429
 20
544.3998862473018
 10
122.8026968977429
 20
544.3998862473018
 10
122.3773969084868
 20
546.2191862013424
 10
122.3773969084868
 20
546.2191862013424
 10
122.2504969116926
 20
546.1942862019714
 10
122.1161969150853
 20
546.1703862025752
 10
121.9799999999996
 20
546.1459999999997
 10
121.3812969336504
 20
546.0385862059047
 10
120.7533969495125
 20
545.9257862087543
 10
120.5853969537566
 20
545.7235862138623
 10
120.4228969578617
 20
545.4477862208296
 10
118.6880000000001
 20
542.5233862947061
 10
117.7191970261629
 20
540.990186333438
 10
117.083497042222
 20
539.9828863588846
 10
116.3485970607871
 20
539.4682863718845
 10
115.8158970742443
 20
539.2074863784728
 10
115.6503970784252
 20
538.5941863939661
 10
115.1693970905762
 20
538.1098864062005
 10
114.5590971059937
 20
537.9390000000003
 10
114.5590971059937
 20
537.9390000000003
 10
114.5590971059937
 20
536.5209999999997
 10
114.5590971059937
 20
536.5209999999997
 10
114.5590971059937
 20
536.5209999999997
 10
114.8388970989254
 20
536.5209999999997
 10
114.8388970989254
 20
536.5209999999997
 10
114.8388970989254
 20
536.5209999999997
 10
114.8388970989254
 20
536.021486458958
 10
114.8388970989254
 20
536.021486458958
 10
114.8388970989254
 20
536.021486458958
 10
112.936497146984
 20
536.021486458958
 10
112.936497146984
 20
536.021486458958
 10
112.936497146984
 20
536.021486458958
 10
112.936497146984
 20
536.5209999999997
 10
112.936497146984
 20
536.5209999999997
 10
112.936497146984
 20
536.5209999999997
 10
113.7890971254456
 20
536.5209999999997
 10
113.7890971254456
 20
536.5209999999997
 10
113.7890971254456
 20
536.5209999999997
 10
113.7890971254456
 20
537.8940000000002
 10
113.7890971254456
 20
537.8940000000002
 10
113.1752971409514
 20
537.9892864092471
 10
112.6630971538907
 20
538.3940000000002
 10
112.4179999999997
 20
538.9437863851344
 10
112.4179999999997
 20
538.9437863851344
 10
111.0453971947572
 20
538.9437863851344
 10
111.0453971947572
 20
538.9437863851344
 10
110.9027971983596
 20
537.7753864146507
 10
110.3681972118648
 20
536.7284864410976
 10
109.577597231837
 20
535.9369999999999
 10
108.6478972553232
 20
535.0067864845914
 10
107.3627972877875
 20
534.4315864991222
 10
105.9433973236446
 20
534.4315864991222
 10
104.5228973595295
 20
534.4315864991222
 10
103.2377973919938
 20
535.0067864845914
 10
102.30809741548
 20
535.9369999999999
 10
101.3773974389915
 20
536.8671864375938
 10
100.8021974535222
 20
538.1522864051294
 10
100.8021974535222
 20
539.5717863692698
 10
100.8021974535222
 20
540.9911863334128
 10
101.3773974389915
 20
542.2772863009232
 10
102.30809741548
 20
543.2074862774243
 10
103.2377973919938
 20
544.1376862539255
 10
104.5228973595295
 20
544.7128862393947
 10
105.9433973236446
 20
544.7128862393947
 10
105.9433973236446
 20
544.7128862393947
 10
105.9433973236446
 20
544.7128862393947
 10
105.9433973236446
 20
544.7128862393947
 97
        0
 92
        1
 93
        1
 72
     4
 94
        3
 73
     0
 74
     1
 95
       26
 96
       22
 40
0.0
 40
0.0
 40
0.0
 40
0.0
 40
1.0
 40
1.0
 40
1.0
 40
2.0
 40
2.0
 40
2.0
 40
3.0
 40
3.0
 40
3.0
 40
4.0
 40
4.0
 40
4.0
 40
5.0
 40
5.0
 40
5.0
 40
6.0
 40
6.0
 40
6.0
 40
7.0
 40
7.0
 40
7.0
 40
7.0
 10
126.6728967999734
 20
542.8397862867132
 10
126.6728967999734
 20
542.8397862867132
 10
125.5473968284059
 20
540.8910863359415
 10
125.5473968284059
 20
540.8910863359415
 10
125.6132968267411
 20
540.8422863371743
 10
125.6747968251875
 20
540.7890863385182
 10
125.7323968237324
 20
540.7318863399632
 10
125.8012968219919
 20
540.6630863417013
 10
125.8632968204256
 20
540.587886343601
 10
125.918896819021
 20
540.5082863456119
 10
125.918896819021
 20
540.5082863456119
 10
127.8651967698534
 20
541.6322863172172
 10
127.8651967698534
 20
541.6322863172172
 10
127.7094967737867
 20
541.881286310927
 10
127.5263967784122
 20
542.1112863051167
 10
127.3197967836313
 20
542.3178862998975
 10
127.1229999999996
 20
542.5141862949386
 10
126.9062967940772
 20
542.6894862905101
 10
126.6728967999734
 20
542.8397862867132
 10
126.6728967999734
 20
542.8397862867132
 10
126.6728967999734
 20
542.8397862867132
 10
126.6728967999734
 20
542.8397862867132
 97
        0
 92
        1
 93
        1
 72
     4
 94
        3
 73
     0
 74
     1
 95
       23
 96
       19
 40
0.0
 40
0.0
 40
0.0
 40
0.0
 40
1.0
 40
1.0
 40
1.0
 40
2.0
 40
2.0
 40
2.0
 40
3.0
 40
3.0
 40
3.0
 40
4.0
 40
4.0
 40
4.0
 40
5.0
 40
5.0
 40
5.0
 40
6.0
 40
6.0
 40
6.0
 40
6.0
 10
125.3451968335139
 20
540.5404863447984
 10
125.3451968335139
 20
540.5404863447984
 10
125.0941968398547
 20
540.1044863558127
 10
125.0941968398547
 20
540.1044863558127
 10
125.0941968398547
 20
540.1044863558127
 10
125.1088968394834
 20
540.0404863574295
 10
125.1088968394834
 20
540.0404863574295
 10
125.1088968394834
 20
540.0404863574295
 10
125.5692968278527
 20
540.307586350682
 10
125.5692968278527
 20
540.307586350682
 10
125.5331968287646
 20
540.3573863494239
 10
125.4926968297877
 20
540.4037863482517
 10
125.4486968308993
 20
540.4481863471301
 10
125.4164968317127
 20
540.4809999999998
 10
125.3812968326019
 20
540.5111863455386
 10
125.3451968335139
 20
540.5404863447984
 10
125.3451968335139
 20
540.5404863447984
 10
125.3451968335139
 20
540.5404863447984
 10
125.3451968335139
 20
540.5404863447984
 97
        0
 92
        1
 93
        1
 72
     4
 94
        3
 73
     0
 74
     1
 95
       20
 96
       16
 40
0.0
 40
0.0
 40
0.0
 40
0.0
 40
1.0
 40
1.0
 40
1.0
 40
2.0
 40
2.0
 40
2.0
 40
3.0
 40
3.0
 40
3.0
 40
4.0
 40
4.0
 40
4.0
 40
5.0
 40
5.0
 40
5.0
 40
5.0
 10
128.0219999999999
 20
541.3598863240986
 10
128.0219999999999
 20
541.3598863240986
 10
126.0736968151105
 20
540.2353863525059
 10
126.0736968151105
 20
540.2353863525059
 10
126.1430968133573
 20
540.0756863565402
 10
126.1894968121851
 20
539.9042863608702
 10
126.2060968117657
 20
539.723586365435
 10
126.2060968117657
 20
539.723586365435
 10
128.4535967549891
 20
539.723586365435
 10
128.4535967549891
 20
539.723586365435
 10
128.431196755555
 20
540.3119999999999
 10
128.2772967594428
 20
540.8671863365453
 10
128.0219999999999
 20
541.3598863240986
 10
128.0219999999999
 20
541.3598863240986
 10
128.0219999999999
 20
541.3598863240986
 10
128.0219999999999
 20
541.3598863240986
 97
        0
 92
        1
 93
        1
 72
     4
 94
        3
 73
     0
 74
     1
 95
       17
 96
       13
 40
0.0
 40
0.0
 40
0.0
 40
0.0
 40
1.0
 40
1.0
 40
1.0
 40
2.0
 40
2.0
 40
2.0
 40
3.0
 40
3.0
 40
3.0
 40
4.0
 40
4.0
 40
4.0
 40
4.0
 10
125.7235968239547
 20
540.0321863576391
 10
125.7235968239547
 20
540.0321863576391
 10
125.1874968374977
 20
539.723586365435
 10
125.1874968374977
 20
539.723586365435
 10
125.1874968374977
 20
539.723586365435
 10
125.8026968219565
 20
539.723586365435
 10
125.8026968219565
 20
539.723586365435
 10
125.7890968223001
 20
539.8310863627194
 10
125.7621968229796
 20
539.9350863600921
 10
125.7235968239547
 20
540.0321863576391
 10
125.7235968239547
 20
540.0321863576391
 10
125.7235968239547
 20
540.0321863576391
 10
125.7235968239547
 20
540.0321863576391
 97
        0
 92
        1
 93
        1
 72
     4
 94
        3
 73
     0
 74
     1
 95
       20
 96
       16
 40
0.0
 40
0.0
 40
0.0
 40
0.0
 40
1.0
 40
1.0
 40
1.0
 40
2.0
 40
2.0
 40
2.0
 40
3.0
 40
3.0
 40
3.0
 40
4.0
 40
4.0
 40
4.0
 40
5.0
 40
5.0
 40
5.0
 40
5.0
 10
128.4525967550144
 20
539.4096863733648
 10
128.4525967550144
 20
539.4096863733648
 10
126.205096811791
 20
539.4096863733648
 10
126.205096811791
 20
539.4096863733648
 10
126.1874968122356
 20
539.2299999999996
 10
126.140096813433
 20
539.0585863822344
 10
126.0687968152342
 20
538.9008863862182
 10
126.0687968152342
 20
538.9008863862182
 10
128.017096766016
 20
537.7758864146381
 10
128.017096766016
 20
537.7758864146381
 10
128.2738967595287
 20
538.2680864022041
 10
128.4286967556181
 20
538.8222863882038
 10
128.4525967550144
 20
539.4096863733648
 10
128.4525967550144
 20
539.4096863733648
 10
128.4525967550144
 20
539.4096863733648
 10
128.4525967550144
 20
539.4096863733648
 97
        0
 92
        1
 93
        1
 72
     4
 94
        3
 73
     0
 74
     1
 95
       17
 96
       13
 40
0.0
 40
0.0
 40
0.0
 40
0.0
 40
1.0
 40
1.0
 40
1.0
 40
2.0
 40
2.0
 40
2.0
 40
3.0
 40
3.0
 40
3.0
 40
4.0
 40
4.0
 40
4.0
 40
4.0
 10
125.8012968219919
 20
539.4096863733648
 10
125.8012968219919
 20
539.4096863733648
 10
125.1884968374725
 20
539.4096863733648
 10
125.1884968374725
 20
539.4096863733648
 10
125.1884968374725
 20
539.4096863733648
 10
125.7191968240659
 20
539.1024863811253
 10
125.7191968240659
 20
539.1024863811253
 10
125.7592968230529
 20
539.1991863786825
 10
125.7870968223506
 20
539.3021863760805
 10
125.8012968219919
 20
539.4096863733648
 10
125.8012968219919
 20
539.4096863733648
 10
125.8012968219919
 20
539.4096863733648
 10
125.8012968219919
 20
539.4096863733648
 97
        0
 92
        1
 93
        1
 72
     4
 94
        3
 73
     0
 74
     1
 95
       26
 96
       22
 40
0.0
 40
0.0
 40
0.0
 40
0.0
 40
1.0
 40
1.0
 40
1.0
 40
2.0
 40
2.0
 40
2.0
 40
3.0
 40
3.0
 40
3.0
 40
4.0
 40
4.0
 40
4.0
 40
5.0
 40
5.0
 40
5.0
 40
6.0
 40
6.0
 40
6.0
 40
7.0
 40
7.0
 40
7.0
 40
7.0
 10
127.8607967699645
 20
537.5038864215094
 10
127.8607967699645
 20
537.5038864215094
 10
125.9130968191675
 20
538.6273863931274
 10
125.9130968191675
 20
538.6273863931274
 10
125.8593968205241
 20
538.5507863950625
 10
125.7982968220676
 20
538.4794863968636
 10
125.7323968237324
 20
538.4125863985537
 10
125.6732968252254
 20
538.3544864000214
 10
125.609896826827
 20
538.2997864014033
 10
125.5424968285297
 20
538.2494864026739
 10
125.5424968285297
 20
538.2494864026739
 10
126.6684968000845
 20
536.3012864518896
 10
126.6684968000845
 20
536.3012864518896
 10
126.903296794153
 20
536.4535864480422
 10
127.1220967886256
 20
536.6293864436011
 10
127.3197967836313
 20
536.8266864386169
 10
127.5233967784879
 20
537.0302864334735
 10
127.7050967738978
 20
537.257286427739
 10
127.8607967699645
 20
537.5038864215094
 10
127.8607967699645
 20
537.5038864215094
 10
127.8607967699645
 20
537.5038864215094
 10
127.8607967699645
 20
537.5038864215094
 97
        0
 92
        1
 93
        1
 72
     4
 94
        3
 73
     0
 74
     1
 95
       20
 96
       16
 40
0.0
 40
0.0
 40
0.0
 40
0.0
 40
1.0
 40
1.0
 40
1.0
 40
2.0
 40
2.0
 40
2.0
 40
3.0
 40
3.0
 40
3.0
 40
4.0
 40
4.0
 40
4.0
 40
5.0
 40
5.0
 40
5.0
 40
5.0
 10
125.5640000000003
 20
538.8295863880194
 10
125.5640000000003
 20
538.8295863880194
 10
125.0312968414437
 20
539.1371863802487
 10
125.0312968414437
 20
539.1371863802487
 10
125.0312968414437
 20
539.1371863802487
 10
125.3402968336377
 20
538.600086393817
 10
125.3402968336377
 20
538.600086393817
 10
125.3788968326626
 20
538.6303863930516
 10
125.4145968317607
 20
538.6620863922508
 10
125.4486968308993
 20
538.6962863913868
 10
125.4906968298383
 20
538.7377863903384
 10
125.5287968288758
 20
538.7826863892042
 10
125.5640000000003
 20
538.8295863880194
 10
125.5640000000003
 20
538.8295863880194
 10
125.5640000000003
 20
538.8295863880194
 10
125.5640000000003
 20
538.8295863880194
 97
        0
 92
        1
 93
        1
 72
     4
 94
        3
 73
     0
 74
     1
 95
       20
 96
       16
 40
0.0
 40
0.0
 40
0.0
 40
0.0
 40
1.0
 40
1.0
 40
1.0
 40
2.0
 40
2.0
 40
2.0
 40
3.0
 40
3.0
 40
3.0
 40
4.0
 40
4.0
 40
4.0
 40
5.0
 40
5.0
 40
5.0
 40
5.0
 10
126.3969999999999
 20
536.1430864558861
 10
126.3969999999999
 20
536.1430864558861
 10
125.2728968353404
 20
538.0893864067184
 10
125.2728968353404
 20
538.0893864067184
 10
125.1137968393596
 20
538.0131864086434
 10
124.9413968437148
 20
537.9633864099014
 10
124.7587968483276
 20
537.9428864104193
 10
124.7587968483276
 20
537.9428864104193
 10
124.7587968483276
 20
535.6933864672465
 10
124.7587968483276
 20
535.6933864672465
 10
125.3490968334154
 20
535.7211864665442
 10
125.9037968194025
 20
535.8803864625224
 10
126.3969999999999
 20
536.1430864558861
 10
126.3969999999999
 20
536.1430864558861
 10
126.3969999999999
 20
536.1430864558861
 10
126.3969999999999
 20
536.1430864558861
 97
        0
 92
        1
 93
        1
 72
     4
 94
        3
 73
     0
 74
     1
 95
       17
 96
       13
 40
0.0
 40
0.0
 40
0.0
 40
0.0
 40
1.0
 40
1.0
 40
1.0
 40
2.0
 40
2.0
 40
2.0
 40
3.0
 40
3.0
 40
3.0
 40
4.0
 40
4.0
 40
4.0
 40
4.0
 10
125.0717968404206
 20
538.4380000000001
 10
125.0717968404206
 20
538.4380000000001
 10
124.7587968483276
 20
538.9799999999996
 10
124.7587968483276
 20
538.9799999999996
 10
124.7587968483276
 20
538.9799999999996
 10
124.7587968483276
 20
538.3476864001932
 10
124.7587968483276
 20
538.3476864001932
 10
124.8681968455639
 20
538.3632863997991
 10
124.9735968429013
 20
538.3950000000004
 10
125.0717968404206
 20
538.4380000000001
 10
125.0717968404206
 20
538.4380000000001
 10
125.0717968404206
 20
538.4380000000001
 10
125.0717968404206
 20
538.4380000000001
 97
        0
 92
        1
 93
        1
 72
     4
 94
        3
 73
     0
 74
     1
 95
       20
 96
       16
 40
0.0
 40
0.0
 40
0.0
 40
0.0
 40
1.0
 40
1.0
 40
1.0
 40
2.0
 40
2.0
 40
2.0
 40
3.0
 40
3.0
 40
3.0
 40
4.0
 40
4.0
 40
4.0
 40
5.0
 40
5.0
 40
5.0
 40
5.0
 10
124.4447968562599
 20
535.6903864673222
 10
124.4447968562599
 20
535.6903864673222
 10
124.4447968562599
 20
537.9374864105557
 10
124.4447968562599
 20
537.9374864105557
 10
124.2582968609713
 20
537.9520864101869
 10
124.0814968654377
 20
537.9975864090375
 10
123.9184968695554
 20
538.0687864072388
 10
123.9184968695554
 20
538.0687864072388
 10
122.7924968980005
 20
536.1195864564797
 10
122.7924968980005
 20
536.1195864564797
 10
123.29
 20
535.862786462967
 10
123.8510968712581
 20
535.710386466817
 10
124.4447968562599
 20
535.6903864673222
 10
124.4447968562599
 20
535.6903864673222
 10
124.4447968562599
 20
535.6903864673222
 10
124.4447968562599
 20
535.6903864673222
 97
        0
 92
        1
 93
        1
 72
     4
 94
        3
 73
     0
 74
     1
 95
       17
 96
       13
 40
0.0
 40
0.0
 40
0.0
 40
0.0
 40
1.0
 40
1.0
 40
1.0
 40
2.0
 40
2.0
 40
2.0
 40
3.0
 40
3.0
 40
3.0
 40
4.0
 40
4.0
 40
4.0
 40
4.0
 10
124.4447968562599
 20
538.3402864003801
 10
124.4447968562599
 20
538.3402864003801
 10
124.4447968562599
 20
538.9799999999996
 10
124.4447968562599
 20
538.9799999999996
 10
124.4447968562599
 20
538.9799999999996
 10
124.1205968644499
 20
538.4193863983819
 10
124.1205968644499
 20
538.4193863983819
 10
124.2221968618833
 20
538.3783863994176
 10
124.3305968591449
 20
538.3515864000947
 10
124.4447968562599
 20
538.3402864003801
 10
124.4447968562599
 20
538.3402864003801
 10
124.4447968562599
 20
538.3402864003801
 10
124.4447968562599
 20
538.3402864003801
 97
        0
 92
        1
 93
        1
 72
     4
 94
        3
 73
     0
 74
     1
 95
       26
 96
       22
 40
0.0
 40
0.0
 40
0.0
 40
0.0
 40
1.0
 40
1.0
 40
1.0
 40
2.0
 40
2.0
 40
2.0
 40
3.0
 40
3.0
 40
3.0
 40
4.0
 40
4.0
 40
4.0
 40
5.0
 40
5.0
 40
5.0
 40
6.0
 40
6.0
 40
6.0
 40
7.0
 40
7.0
 40
7.0
 40
7.0
 10
122.5194969048971
 20
536.2753864525439
 10
122.5194969048971
 20
536.2753864525439
 10
123.6435968764999
 20
538.2216864033762
 10
123.6435968764999
 20
538.2216864033762
 10
123.561496878574
 20
538.2782864019464
 10
123.4843968805217
 20
538.3422864003296
 10
123.4140968822976
 20
538.4125863985537
 10
123.3540000000003
 20
538.4721863970481
 10
123.2992968851977
 20
538.5370863954086
 10
123.2494968864557
 20
538.6044863937059
 10
123.2494968864557
 20
538.6044863937059
 10
121.3012969356714
 20
537.4794864221258
 10
121.3012969356714
 20
537.4794864221258
 10
121.4525969318493
 20
537.2436864280826
 10
121.6288969273955
 20
537.0238864336352
 10
121.827596922376
 20
536.8266864386169
 10
122.0355969171214
 20
536.6171864439093
 10
122.268096911248
 20
536.4325864485727
 10
122.5194969048971
 20
536.2753864525439
 10
122.5194969048971
 20
536.2753864525439
 10
122.5194969048971
 20
536.2753864525439
 10
122.5194969048971
 20
536.2753864525439
 97
        0
 92
        1
 93
        1
 72
     4
 94
        3
 73
     0
 74
     1
 95
       20
 96
       16
 40
0.0
 40
0.0
 40
0.0
 40
0.0
 40
1.0
 40
1.0
 40
1.0
 40
2.0
 40
2.0
 40
2.0
 40
3.0
 40
3.0
 40
3.0
 40
4.0
 40
4.0
 40
4.0
 40
5.0
 40
5.0
 40
5.0
 40
5.0
 10
123.8451968714071
 20
538.5702863945698
 10
123.8451968714071
 20
538.5702863945698
 10
124.1723968631413
 20
539.1371863802487
 10
124.1723968631413
 20
539.1371863802487
 10
124.1723968631413
 20
539.1371863802487
 10
123.5995968776115
 20
538.8061863886105
 10
123.5995968776115
 20
538.8061863886105
 10
123.6303968768334
 20
538.7675863895856
 10
123.66259687602
 20
538.7313863905001
 10
123.6981968751206
 20
538.6962863913868
 10
123.7431968739838
 20
538.6508863925337
 10
123.7924968727384
 20
538.6083863936074
 10
123.8451968714071
 20
538.5702863945698
 10
123.8451968714071
 20
538.5702863945698
 10
123.8451968714071
 20
538.5702863945698
 10
123.8451968714071
 20
538.5702863945698
 97
        0
 92
        1
 93
        1
 72
     4
 94
        3
 73
     0
 74
     1
 95
       20
 96
       16
 40
0.0
 40
0.0
 40
0.0
 40
0.0
 40
1.0
 40
1.0
 40
1.0
 40
2.0
 40
2.0
 40
2.0
 40
3.0
 40
3.0
 40
3.0
 40
4.0
 40
4.0
 40
4.0
 40
5.0
 40
5.0
 40
5.0
 40
5.0
 10
121.1425969396805
 20
537.7510000000002
 10
121.1425969396805
 20
537.7510000000002
 10
123.0893968905002
 20
538.875
 10
123.0893968905002
 20
538.875
 10
123.0111968924757
 20
539.04
 10
122.960396893759
 20
539.2196863781646
 10
122.9418968942264
 20
539.4096863733648
 10
122.9418968942264
 20
539.4096863733648
 10
120.6933969510283
 20
539.4096863733648
 10
120.6933969510283
 20
539.4096863733648
 10
120.7182969503992
 20
538.8119999999999
 10
120.87739694638
 20
538.2484864026992
 10
121.1425969396805
 20
537.7510000000002
 10
121.1425969396805
 20
537.7510000000002
 10
121.1425969396805
 20
537.7510000000002
 10
121.1425969396805
 20
537.7510000000002
 97
        0
 92
        1
 93
        1
 72
     4
 94
        3
 73
     0
 74
     1
 95
       17
 96
       13
 40
0.0
 40
0.0
 40
0.0
 40
0.0
 40
1.0
 40
1.0
 40
1.0
 40
2.0
 40
2.0
 40
2.0
 40
3.0
 40
3.0
 40
3.0
 40
4.0
 40
4.0
 40
4.0
 40
4.0
 10
123.4374968817065
 20
539.0761863817897
 10
123.4374968817065
 20
539.0761863817897
 10
124.0145968671277
 20
539.4096863733648
 10
124.0145968671277
 20
539.4096863733648
 10
124.0145968671277
 20
539.4096863733648
 10
123.3461968840129
 20
539.4096863733648
 10
123.3461968840129
 20
539.4096863733648
 10
123.3607968836441
 20
539.2920000000004
 10
123.3920968828534
 20
539.1811863791372
 10
123.4374968817065
 20
539.0761863817897
 10
123.4374968817065
 20
539.0761863817897
 10
123.4374968817065
 20
539.0761863817897
 10
123.4374968817065
 20
539.0761863817897
 97
        0
 92
        1
 93
        1
 72
     4
 94
        3
 73
     0
 74
     1
 95
       20
 96
       16
 40
0.0
 40
0.0
 40
0.0
 40
0.0
 40
1.0
 40
1.0
 40
1.0
 40
2.0
 40
2.0
 40
2.0
 40
3.0
 40
3.0
 40
3.0
 40
4.0
 40
4.0
 40
4.0
 40
5.0
 40
5.0
 40
5.0
 40
5.0
 10
120.6933969510283
 20
539.723586365435
 10
120.6933969510283
 20
539.723586365435
 10
122.9408968942516
 20
539.723586365435
 10
122.9408968942516
 20
539.723586365435
 10
122.958496893807
 20
539.9135863606352
 10
123.0087968925363
 20
540.0941863560729
 10
123.084496890624
 20
540.2602863518769
 10
123.084496890624
 20
540.2602863518769
 10
121.1381969397917
 20
541.3847863234696
 10
121.1381969397917
 20
541.3847863234696
 10
120.8739999999998
 20
540.8856863360779
 10
120.715296950475
 20
540.3222863503106
 10
120.6933969510283
 20
539.723586365435
 10
120.6933969510283
 20
539.723586365435
 10
120.6933969510283
 20
539.723586365435
 10
120.6933969510283
 20
539.723586365435
 97
        0
 92
        1
 93
        1
 72
     4
 94
        3
 73
     0
 74
     1
 95
       20
 96
       16
 40
0.0
 40
0.0
 40
0.0
 40
0.0
 40
1.0
 40
1.0
 40
1.0
 40
2.0
 40
2.0
 40
2.0
 40
3.0
 40
3.0
 40
3.0
 40
4.0
 40
4.0
 40
4.0
 40
5.0
 40
5.0
 40
5.0
 40
5.0
 10
123.3441968840634
 20
539.723586365435
 10
123.3441968840634
 20
539.723586365435
 10
123.8935968701844
 20
539.723586365435
 10
123.8935968701844
 20
539.723586365435
 10
123.8935968701844
 20
539.723586365435
 10
123.8739999999998
 20
539.8051863633737
 10
123.8739999999998
 20
539.8051863633737
 10
123.8739999999998
 20
539.8051863633737
 10
123.4340968817924
 20
540.0590863569596
 10
123.4340968817924
 20
540.0590863569596
 10
123.3891968829266
 20
539.9535863596248
 10
123.3578968837173
 20
539.8412863624617
 10
123.3441968840634
 20
539.723586365435
 10
123.3441968840634
 20
539.723586365435
 10
123.3441968840634
 20
539.723586365435
 10
123.3441968840634
 20
539.723586365435
 97
        0
 92
        1
 93
        1
 72
     4
 94
        3
 73
     0
 74
     1
 95
       29
 96
       25
 40
0.0
 40
0.0
 40
0.0
 40
0.0
 40
1.0
 40
1.0
 40
1.0
 40
2.0
 40
2.0
 40
2.0
 40
3.0
 40
3.0
 40
3.0
 40
4.0
 40
4.0
 40
4.0
 40
5.0
 40
5.0
 40
5.0
 40
6.0
 40
6.0
 40
6.0
 40
7.0
 40
7.0
 40
7.0
 40
8.0
 40
8.0
 40
8.0
 40
8.0
 10
121.2963969357952
 20
541.6562863166109
 10
121.2963969357952
 20
541.6562863166109
 10
123.2440968865922
 20
540.5316863450207
 10
123.2440968865922
 20
540.5316863450207
 10
123.2948968853088
 20
540.6030000000001
 10
123.3520968838639
 20
540.6698863415295
 10
123.4140968822976
 20
540.7318863399632
 10
123.477496880696
 20
540.7948863383717
 10
123.5448968789933
 20
540.8520863369267
 10
123.6171968771669
 20
540.9037863356207
 10
123.6171968771669
 20
540.9037863356207
 10
123.5980968776494
 20
540.9911863334128
 10
123.5980968776494
 20
540.9911863334128
 10
123.5980968776494
 20
540.9911863334128
 10
122.5145969050209
 20
542.8651862860715
 10
122.5145969050209
 20
542.8651862860715
 10
122.2655969113111
 20
542.71
 10
122.0346969171442
 20
542.5253862946556
 10
121.827596922376
 20
542.3178862998975
 10
121.6270000000004
 20
542.117686304955
 10
121.4491969319351
 20
541.896486310543
 10
121.2963969357952
 20
541.6562863166109
 10
121.2963969357952
 20
541.6562863166109
 10
121.2963969357952
 20
541.6562863166109
 10
121.2963969357952
 20
541.6562863166109
 97
        0
 92
        1
 93
        1
 72
     4
 94
        3
 73
     0
 74
     1
 95
       20
 96
       16
 40
0.0
 40
0.0
 40
0.0
 40
0.0
 40
1.0
 40
1.0
 40
1.0
 40
2.0
 40
2.0
 40
2.0
 40
3.0
 40
3.0
 40
3.0
 40
4.0
 40
4.0
 40
4.0
 40
5.0
 40
5.0
 40
5.0
 40
5.0
 10
123.5932968777706
 20
540.3295863501262
 10
123.5932968777706
 20
540.3295863501262
 10
123.7763968731451
 20
540.223586352804
 10
123.7763968731451
 20
540.223586352804
 10
123.7763968731451
 20
540.223586352804
 10
123.7191968745901
 20
540.4687863466097
 10
123.7191968745901
 20
540.4687863466097
 10
123.7191968745901
 20
540.4687863466097
 10
123.6981968751206
 20
540.4481863471301
 10
123.6981968751206
 20
540.4481863471301
 10
123.6605968760705
 20
540.4110863480673
 10
123.6260000000002
 20
540.3710863490778
 10
123.5932968777706
 20
540.3295863501262
 10
123.5932968777706
 20
540.3295863501262
 10
123.5932968777706
 20
540.3295863501262
 10
123.5932968777706
 20
540.3295863501262
 97
        0
 92
        1
 93
        1
 72
     4
 94
        3
 73
     0
 74
     1
 95
       17
 96
       13
 40
0.0
 40
0.0
 40
0.0
 40
0.0
 40
1.0
 40
1.0
 40
1.0
 40
2.0
 40
2.0
 40
2.0
 40
3.0
 40
3.0
 40
3.0
 40
4.0
 40
4.0
 40
4.0
 40
4.0
 10
122.7880968981117
 20
543.0219999999999
 10
122.7880968981117
 20
543.0219999999999
 10
123.3515968838765
 20
542.0463863067562
 10
123.3515968838765
 20
542.0463863067562
 10
123.3515968838765
 20
542.0463863067562
 10
123.0907968904648
 20
543.163086278546
 10
123.0907968904648
 20
543.163086278546
 10
122.9882968930542
 20
543.1195862796449
 10
122.8871968956082
 20
543.0727862808271
 10
122.7880968981117
 20
543.0219999999999
 10
122.7880968981117
 20
543.0219999999999
 10
122.7880968981117
 20
543.0219999999999
 10
122.7880968981117
 20
543.0219999999999
 97
        0
 92
        1
 93
        1
 72
     4
 94
        3
 73
     0
 74
     1
 95
       17
 96
       13
 40
0.0
 40
0.0
 40
0.0
 40
0.0
 40
1.0
 40
1.0
 40
1.0
 40
2.0
 40
2.0
 40
2.0
 40
3.0
 40
3.0
 40
3.0
 40
4.0
 40
4.0
 40
4.0
 40
4.0
 10
124.4447968562599
 20
542.8895862854552
 10
124.4447968562599
 20
542.8895862854552
 10
124.4447968562599
 20
543.4525862712326
 10
124.4447968562599
 20
543.4525862712326
 10
124.4008968573689
 20
543.4520862712452
 10
124.3573968584678
 20
543.4501862712932
 10
124.3140000000003
 20
543.4462862713917
 10
124.3140000000003
 20
543.4462862713917
 10
124.4447968562599
 20
542.8895862854552
 10
124.4447968562599
 20
542.8895862854552
 10
124.4447968562599
 20
542.8895862854552
 10
124.4447968562599
 20
542.8895862854552
 10
124.4447968562599
 20
542.8895862854552
 97
        0
 92
        1
 93
        1
 72
     4
 94
        3
 73
     0
 74
     1
 95
       23
 96
       19
 40
0.0
 40
0.0
 40
0.0
 40
0.0
 40
1.0
 40
1.0
 40
1.0
 40
2.0
 40
2.0
 40
2.0
 40
3.0
 40
3.0
 40
3.0
 40
4.0
 40
4.0
 40
4.0
 40
5.0
 40
5.0
 40
5.0
 40
6.0
 40
6.0
 40
6.0
 40
6.0
 10
124.7587968483276
 20
543.4511862712679
 10
124.7587968483276
 20
543.4511862712679
 10
124.7587968483276
 20
541.541486319511
 10
124.7587968483276
 20
541.541486319511
 10
124.7587968483276
 20
541.541486319511
 10
124.8402968462688
 20
541.1894863284033
 10
124.8402968462688
 20
541.1894863284033
 10
124.9945968423708
 20
541.1645863290323
 10
125.1415968386573
 20
541.1171863302297
 10
125.2777968352166
 20
541.0521863318718
 10
125.2777968352166
 20
541.0521863318718
 10
126.4013968068321
 20
542.9989999999998
 10
126.4013968068321
 20
542.9989999999998
 10
125.907696819304
 20
543.2626862760299
 10
125.3505968333775
 20
543.4232862719728
 10
124.7587968483276
 20
543.4511862712679
 10
124.7587968483276
 20
543.4511862712679
 10
124.7587968483276
 20
543.4511862712679
 10
124.7587968483276
 20
543.4511862712679
 97
        0
 92
        1
 93
        1
 72
     4
 94
        3
 73
     0
 74
     1
 95
       17
 96
       13
 40
0.0
 40
0.0
 40
0.0
 40
0.0
 40
1.0
 40
1.0
 40
1.0
 40
2.0
 40
2.0
 40
2.0
 40
3.0
 40
3.0
 40
3.0
 40
4.0
 40
4.0
 40
4.0
 40
4.0
 10
124.9892968425047
 20
540.5526863444902
 10
124.9892968425047
 20
540.5526863444902
 10
125.0766968402968
 20
540.7040863406655
 10
125.0766968402968
 20
540.7040863406655
 10
125.0326968414083
 20
540.7235863401729
 10
124.98829684253
 20
540.7401863397536
 10
124.9423968436895
 20
540.7548863393822
 10
124.9423968436895
 20
540.7548863393822
 10
124.9892968425047
 20
540.5526863444902
 10
124.9892968425047
 20
540.5526863444902
 10
124.9892968425047
 20
540.5526863444902
 10
124.9892968425047
 20
540.5526863444902
 10
124.9892968425047
 20
540.5526863444902
 97
        0
 92
        1
 93
        1
 72
     4
 94
        3
 73
     0
 74
     1
 95
       17
 96
       13
 40
0.0
 40
0.0
 40
0.0
 40
0.0
 40
1.0
 40
1.0
 40
1.0
 40
2.0
 40
2.0
 40
2.0
 40
3.0
 40
3.0
 40
3.0
 40
4.0
 40
4.0
 40
4.0
 40
4.0
 10
108.0121972713823
 20
542.8588862862307
 10
108.0121972713823
 20
542.8588862862307
 10
107.2318972910944
 20
541.5082863203497
 10
107.2318972910944
 20
541.5082863203497
 10
107.2318972910944
 20
541.5082863203497
 10
108.4390000000003
 20
542.5468862941125
 10
108.4390000000003
 20
542.5468862941125
 10
108.3041972640058
 20
542.6605862912402
 10
108.1615972676082
 20
542.7645862886129
 10
108.0121972713823
 20
542.8588862862307
 10
108.0121972713823
 20
542.8588862862307
 10
108.0121972713823
 20
542.8588862862307
 10
108.0121972713823
 20
542.8588862862307
 97
        0
 92
        1
 93
        1
 72
     4
 94
        3
 73
     0
 74
     1
 95
       20
 96
       16
 40
0.0
 40
0.0
 40
0.0
 40
0.0
 40
1.0
 40
1.0
 40
1.0
 40
2.0
 40
2.0
 40
2.0
 40
3.0
 40
3.0
 40
3.0
 40
4.0
 40
4.0
 40
4.0
 40
5.0
 40
5.0
 40
5.0
 40
5.0
 10
109.3812972367959
 20
541.3783863236313
 10
109.3812972367959
 20
541.3783863236313
 10
108.0834972695811
 20
540.6288863425652
 10
108.0834972695811
 20
540.6288863425652
 10
108.0834972695811
 20
540.6288863425652
 10
107.6000972817928
 20
540.2006863533825
 10
107.6000972817928
 20
540.2006863533825
 10
107.6000972817928
 20
540.2006863533825
 10
109.7748972268528
 20
540.2006863533825
 10
109.7748972268528
 20
540.2006863533825
 10
109.7074972285554
 20
540.6195863428002
 10
109.5722972319709
 20
541.0160863327837
 10
109.3812972367959
 20
541.3783863236313
 10
109.3812972367959
 20
541.3783863236313
 10
109.3812972367959
 20
541.3783863236313
 10
109.3812972367959
 20
541.3783863236313
 97
        0
 92
        1
 93
        1
 72
     4
 94
        3
 73
     0
 74
     1
 95
       20
 96
       16
 40
0.0
 40
0.0
 40
0.0
 40
0.0
 40
1.0
 40
1.0
 40
1.0
 40
2.0
 40
2.0
 40
2.0
 40
3.0
 40
3.0
 40
3.0
 40
4.0
 40
4.0
 40
4.0
 40
5.0
 40
5.0
 40
5.0
 40
5.0
 10
107.4301972860849
 20
538.8817863867007
 10
107.4301972860849
 20
538.8817863867007
 10
109.3770000000004
 20
537.757286415108
 10
109.3770000000004
 20
537.757286415108
 10
109.569797232034
 20
538.1229999999996
 10
109.7070000000003
 20
538.5209999999997
 10
109.7748972268528
 20
538.9437863851344
 10
109.7748972268528
 20
538.9437863851344
 10
107.4570000000003
 20
538.9437863851344
 10
107.4570000000003
 20
538.9437863851344
 10
107.4486972856175
 20
538.922386385675
 10
107.4394972858499
 20
538.9018863861929
 10
107.4301972860849
 20
538.8817863867007
 10
107.4301972860849
 20
538.8817863867007
 10
107.4301972860849
 20
538.8817863867007
 10
107.4301972860849
 20
538.8817863867007
 97
        0
 92
        1
 93
        1
 72
     4
 94
        3
 73
     0
 74
     1
 95
       26
 96
       22
 40
0.0
 40
0.0
 40
0.0
 40
0.0
 40
1.0
 40
1.0
 40
1.0
 40
2.0
 40
2.0
 40
2.0
 40
3.0
 40
3.0
 40
3.0
 40
4.0
 40
4.0
 40
4.0
 40
5.0
 40
5.0
 40
5.0
 40
6.0
 40
6.0
 40
6.0
 40
7.0
 40
7.0
 40
7.0
 40
7.0
 10
109.2182972409137
 20
537.486286421954
 10
109.2182972409137
 20
537.486286421954
 10
107.2709999999997
 20
538.6107863935467
 10
107.2709999999997
 20
538.6107863935467
 10
107.2201972913899
 20
538.5404863953227
 10
107.1635972928198
 20
538.4735863970127
 10
107.1024972943633
 20
538.4125863985537
 10
107.034697296076
 20
538.3451864002564
 10
106.9613972979278
 20
538.2841864017973
 10
106.8827972999134
 20
538.2294864031792
 10
106.8827972999134
 20
538.2294864031792
 10
108.0072972715061
 20
536.2826864523595
 10
108.0072972715061
 20
536.2826864523595
 10
108.2553972652386
 20
536.4374864484489
 10
108.4823972595041
 20
536.6210864438108
 10
108.6884972542975
 20
536.8266864386169
 10
108.8886972492401
 20
537.0258864335847
 10
109.066397244751
 20
537.2470864279967
 10
109.2182972409137
 20
537.486286421954
 10
109.2182972409137
 20
537.486286421954
 10
109.2182972409137
 20
537.486286421954
 10
109.2182972409137
 20
537.486286421954
 97
        0
 92
        1
 93
        1
 72
     4
 94
        3
 73
     0
 74
     1
 95
       23
 96
       19
 40
0.0
 40
0.0
 40
0.0
 40
0.0
 40
1.0
 40
1.0
 40
1.0
 40
2.0
 40
2.0
 40
2.0
 40
3.0
 40
3.0
 40
3.0
 40
4.0
 40
4.0
 40
4.0
 40
5.0
 40
5.0
 40
5.0
 40
6.0
 40
6.0
 40
6.0
 40
6.0
 10
106.9203972989635
 20
538.8119999999999
 10
106.9203972989635
 20
538.8119999999999
 10
106.6942973046753
 20
538.9437863851344
 10
106.6942973046753
 20
538.9437863851344
 10
106.6942973046753
 20
538.9437863851344
 10
106.4701973103365
 20
538.9437863851344
 10
106.4701973103365
 20
538.9437863851344
 10
106.4701973103365
 20
538.9437863851344
 10
106.6815973049961
 20
538.5775863943854
 10
106.6815973049961
 20
538.5775863943854
 10
106.7299999999996
 20
538.613786393471
 10
106.7763973026013
 20
538.6532863924731
 10
106.8187973015301
 20
538.6962863913868
 10
106.8549999999996
 20
538.7333863904496
 10
106.8891972997517
 20
538.7714863894871
 10
106.9203972989635
 20
538.8119999999999
 10
106.9203972989635
 20
538.8119999999999
 10
106.9203972989635
 20
538.8119999999999
 10
106.9203972989635
 20
538.8119999999999
 97
        0
 92
        1
 93
        1
 72
     4
 94
        3
 73
     0
 74
     1
 95
       20
 96
       16
 40
0.0
 40
0.0
 40
0.0
 40
0.0
 40
1.0
 40
1.0
 40
1.0
 40
2.0
 40
2.0
 40
2.0
 40
3.0
 40
3.0
 40
3.0
 40
4.0
 40
4.0
 40
4.0
 40
5.0
 40
5.0
 40
5.0
 40
5.0
 10
107.7343972784001
 20
536.1260000000002
 10
107.7343972784001
 20
536.1260000000002
 10
106.60939730682
 20
538.0731864071277
 10
106.60939730682
 20
538.0731864071277
 10
106.447297310915
 20
538.0010000000002
 10
106.2714973153561
 20
537.9550864101111
 10
106.0863973200321
 20
537.9390000000003
 10
106.0863973200321
 20
537.9390000000003
 10
106.0863973200321
 20
535.691386467297
 10
106.0863973200321
 20
535.691386467297
 10
106.6796973050441
 20
535.7128864667538
 10
107.2382972909327
 20
535.8676864628433
 10
107.7343972784001
 20
536.1260000000002
 10
107.7343972784001
 20
536.1260000000002
 10
107.7343972784001
 20
536.1260000000002
 10
107.7343972784001
 20
536.1260000000002
 97
        0
 92
        1
 93
        1
 72
     4
 94
        3
 73
     0
 74
     1
 95
       20
 96
       16
 40
0.0
 40
0.0
 40
0.0
 40
0.0
 40
1.0
 40
1.0
 40
1.0
 40
2.0
 40
2.0
 40
2.0
 40
3.0
 40
3.0
 40
3.0
 40
4.0
 40
4.0
 40
4.0
 40
5.0
 40
5.0
 40
5.0
 40
5.0
 10
106.4076973119154
 20
538.4237863982707
 10
106.4076973119154
 20
538.4237863982707
 10
106.1083973194764
 20
538.9437863851344
 10
106.1083973194764
 20
538.9437863851344
 10
106.1083973194764
 20
538.9437863851344
 10
106.0863973200321
 20
538.9437863851344
 10
106.0863973200321
 20
538.9437863851344
 10
106.0863973200321
 20
538.9437863851344
 10
106.0863973200321
 20
538.3412864003549
 10
106.0863973200321
 20
538.3412864003549
 10
106.1986973171952
 20
538.3544864000214
 10
106.3061973144795
 20
538.3832863992939
 10
106.4076973119154
 20
538.4237863982707
 10
106.4076973119154
 20
538.4237863982707
 10
106.4076973119154
 20
538.4237863982707
 10
106.4076973119154
 20
538.4237863982707
 97
        0
 92
        1
 93
        1
 72
     4
 94
        3
 73
     0
 74
     1
 95
       20
 96
       16
 40
0.0
 40
0.0
 40
0.0
 40
0.0
 40
1.0
 40
1.0
 40
1.0
 40
2.0
 40
2.0
 40
2.0
 40
3.0
 40
3.0
 40
3.0
 40
4.0
 40
4.0
 40
4.0
 40
5.0
 40
5.0
 40
5.0
 40
5.0
 10
105.7719999999999
 20
535.6928864672591
 10
105.7719999999999
 20
535.6928864672591
 10
105.7719999999999
 20
537.9408864104698
 10
105.7719999999999
 20
537.9408864104698
 10
105.5893973325874
 20
537.9603864099772
 10
105.415
 20
538.0097864087293
 10
105.2548973410376
 20
538.0834864068675
 10
105.2548973410376
 20
538.0834864068675
 10
104.1308973694322
 20
536.1361864560604
 10
104.1308973694322
 20
536.1361864560604
 10
104.6234973569881
 20
535.8754864626462
 10
105.180697342912
 20
535.7182864666174
 10
105.7719999999999
 20
535.6928864672591
 10
105.7719999999999
 20
535.6928864672591
 10
105.7719999999999
 20
535.6928864672591
 10
105.7719999999999
 20
535.6928864672591
 97
        0
 92
        1
 93
        1
 72
     4
 94
        3
 73
     0
 74
     1
 95
       17
 96
       13
 40
0.0
 40
0.0
 40
0.0
 40
0.0
 40
1.0
 40
1.0
 40
1.0
 40
2.0
 40
2.0
 40
2.0
 40
3.0
 40
3.0
 40
3.0
 40
4.0
 40
4.0
 40
4.0
 40
4.0
 10
105.7719999999999
 20
538.3451864002564
 10
105.7719999999999
 20
538.3451864002564
 10
105.7719999999999
 20
538.9799999999996
 10
105.7719999999999
 20
538.9799999999996
 10
105.7719999999999
 20
538.9799999999996
 10
105.4560973359548
 20
538.4330863980358
 10
105.4560973359548
 20
538.4330863980358
 10
105.5561973334261
 20
538.3900863991221
 10
105.6615973307635
 20
538.3607863998623
 10
105.7719999999999
 20
538.3451864002564
 10
105.7719999999999
 20
538.3451864002564
 10
105.7719999999999
 20
538.3451864002564
 10
105.7719999999999
 20
538.3451864002564
 97
        0
 92
        1
 93
        1
 72
     4
 94
        3
 73
     0
 74
     1
 95
       26
 96
       22
 40
0.0
 40
0.0
 40
0.0
 40
0.0
 40
1.0
 40
1.0
 40
1.0
 40
2.0
 40
2.0
 40
2.0
 40
3.0
 40
3.0
 40
3.0
 40
4.0
 40
4.0
 40
4.0
 40
5.0
 40
5.0
 40
5.0
 40
6.0
 40
6.0
 40
6.0
 40
7.0
 40
7.0
 40
7.0
 40
7.0
 10
103.8588973763035
 20
536.2948864520513
 10
103.8588973763035
 20
536.2948864520513
 10
104.9833973478962
 20
538.2421864028584
 10
104.9833973478962
 20
538.2421864028584
 10
104.9120973496974
 20
538.2943864015397
 10
104.8451973513875
 20
538.3505864001199
 10
104.7831973529537
 20
538.4125863985537
 10
104.7191973545705
 20
538.4774863969142
 10
104.660197356061
 20
538.5473863951484
 10
104.6073973573948
 20
538.6210863932865
 10
104.6073973573948
 20
538.6210863932865
 10
102.6596974065978
 20
537.4970864216812
 10
102.6596974065978
 20
537.4970864216812
 10
102.8134974027125
 20
537.2533864278375
 10
102.9945973981376
 20
537.028286433524
 10
103.1972973930169
 20
536.8266864386169
 10
103.3969999999999
 20
536.6254864436996
 10
103.6186973823715
 20
536.4477864481887
 10
103.8588973763035
 20
536.2948864520513
 10
103.8588973763035
 20
536.2948864520513
 10
103.8588973763035
 20
536.2948864520513
 10
103.8588973763035
 20
536.2948864520513
 97
        0
 92
        1
 93
        1
 72
     4
 94
        3
 73
     0
 74
     1
 95
       20
 96
       16
 40
0.0
 40
0.0
 40
0.0
 40
0.0
 40
1.0
 40
1.0
 40
1.0
 40
2.0
 40
2.0
 40
2.0
 40
3.0
 40
3.0
 40
3.0
 40
4.0
 40
4.0
 40
4.0
 40
5.0
 40
5.0
 40
5.0
 40
5.0
 10
105.1850973428009
 20
538.5922863940141
 10
105.1850973428009
 20
538.5922863940141
 10
105.5004973348332
 20
539.1371863802487
 10
105.5004973348332
 20
539.1371863802487
 10
105.5004973348332
 20
539.1371863802487
 10
104.9564973485758
 20
538.8227863881912
 10
104.9564973485758
 20
538.8227863881912
 10
104.9896973477371
 20
538.7787863893027
 10
105.0268973467973
 20
538.7362863903763
 10
105.0668973457869
 20
538.6962863913868
 10
105.1034973448623
 20
538.659186392324
 10
105.1435973438493
 20
538.625
 10
105.1850973428009
 20
538.5922863940141
 10
105.1850973428009
 20
538.5922863940141
 10
105.1850973428009
 20
538.5922863940141
 10
105.1850973428009
 20
538.5922863940141
 97
        0
 92
        1
 93
        1
 72
     4
 94
        3
 73
     0
 74
     1
 95
       20
 96
       16
 40
0.0
 40
0.0
 40
0.0
 40
0.0
 40
1.0
 40
1.0
 40
1.0
 40
2.0
 40
2.0
 40
2.0
 40
3.0
 40
3.0
 40
3.0
 40
4.0
 40
4.0
 40
4.0
 40
5.0
 40
5.0
 40
5.0
 40
5.0
 10
102.5023974105716
 20
537.7694864147998
 10
102.5023974105716
 20
537.7694864147998
 10
104.4496973613786
 20
538.8935863864026
 10
104.4496973613786
 20
538.8935863864026
 10
104.3773973632051
 20
539.0541863823455
 10
104.3290973644253
 20
539.2270863779777
 10
104.3114973648699
 20
539.4096863733648
 10
104.3114973648699
 20
539.4096863733648
 10
102.0630000000001
 20
539.4096863733648
 10
102.0630000000001
 20
539.4096863733648
 10
102.0873974210554
 20
538.8192863882796
 10
102.2426974171321
 20
538.2626864023405
 10
102.5023974105716
 20
537.7694864147998
 10
102.5023974105716
 20
537.7694864147998
 10
102.5023974105716
 20
537.7694864147998
 10
102.5023974105716
 20
537.7694864147998
 97
        0
 92
        1
 93
        1
 72
     4
 94
        3
 73
     0
 74
     1
 95
       17
 96
       13
 40
0.0
 40
0.0
 40
0.0
 40
0.0
 40
1.0
 40
1.0
 40
1.0
 40
2.0
 40
2.0
 40
2.0
 40
3.0
 40
3.0
 40
3.0
 40
4.0
 40
4.0
 40
4.0
 40
4.0
 10
104.799297352547
 20
539.0956863812971
 10
104.799297352547
 20
539.0956863812971
 10
105.342797338817
 20
539.4096863733648
 10
105.342797338817
 20
539.4096863733648
 10
105.342797338817
 20
539.4096863733648
 10
104.7147973546817
 20
539.4096863733648
 10
104.7147973546817
 20
539.4096863733648
 10
104.7294973543103
 20
539.2992863761538
 10
104.7582973535827
 20
539.1947863787937
 10
104.799297352547
 20
539.0956863812971
 10
104.799297352547
 20
539.0956863812971
 10
104.799297352547
 20
539.0956863812971
 10
104.799297352547
 20
539.0956863812971
 97
        0
 92
        1
 93
        1
 72
     4
 94
        3
 73
     0
 74
     1
 95
       20
 96
       16
 40
0.0
 40
0.0
 40
0.0
 40
0.0
 40
1.0
 40
1.0
 40
1.0
 40
2.0
 40
2.0
 40
2.0
 40
3.0
 40
3.0
 40
3.0
 40
4.0
 40
4.0
 40
4.0
 40
5.0
 40
5.0
 40
5.0
 40
5.0
 10
102.0619999999999
 20
539.723586365435
 10
102.0619999999999
 20
539.723586365435
 10
104.3109999999997
 20
539.723586365435
 10
104.3109999999997
 20
539.723586365435
 10
104.3275973644631
 20
539.9071863607969
 10
104.3734973633036
 20
540.0810863564038
 10
104.4457973614772
 20
540.2416863523467
 10
104.4457973614772
 20
540.2416863523467
 10
102.4975974106928
 20
541.3666863239268
 10
102.4975974106928
 20
541.3666863239268
 10
102.2401974171953
 20
540.8715863364341
 10
102.0853974211059
 20
540.3148863504975
 10
102.0619999999999
 20
539.723586365435
 10
102.0619999999999
 20
539.723586365435
 10
102.0619999999999
 20
539.723586365435
 10
102.0619999999999
 20
539.723586365435
 97
        0
 92
        1
 93
        1
 72
     4
 94
        3
 73
     0
 74
     1
 95
       17
 96
       13
 40
0.0
 40
0.0
 40
0.0
 40
0.0
 40
1.0
 40
1.0
 40
1.0
 40
2.0
 40
2.0
 40
2.0
 40
3.0
 40
3.0
 40
3.0
 40
4.0
 40
4.0
 40
4.0
 40
4.0
 10
104.713397354717
 20
539.723586365435
 10
104.713397354717
 20
539.723586365435
 10
105.342797338817
 20
539.723586365435
 10
105.342797338817
 20
539.723586365435
 10
105.342797338817
 20
539.723586365435
 10
104.7953973526455
 20
540.0395863574522
 10
104.7953973526455
 20
540.0395863574522
 10
104.755397353656
 20
539.9403863599582
 10
104.7265973543836
 20
539.8339999999998
 10
104.713397354717
 20
539.723586365435
 10
104.713397354717
 20
539.723586365435
 10
104.713397354717
 20
539.723586365435
 10
104.713397354717
 20
539.723586365435
 97
        0
 92
        1
 93
        1
 72
     4
 94
        3
 73
     0
 74
     1
 95
       26
 96
       22
 40
0.0
 40
0.0
 40
0.0
 40
0.0
 40
1.0
 40
1.0
 40
1.0
 40
2.0
 40
2.0
 40
2.0
 40
3.0
 40
3.0
 40
3.0
 40
4.0
 40
4.0
 40
4.0
 40
5.0
 40
5.0
 40
5.0
 40
6.0
 40
6.0
 40
6.0
 40
7.0
 40
7.0
 40
7.0
 40
7.0
 10
102.6542974067343
 20
541.6386863170555
 10
102.6542974067343
 20
541.6386863170555
 10
104.6015973575413
 20
540.5150863454401
 10
104.6015973575413
 20
540.5150863454401
 10
104.6552973561847
 20
540.5917863435025
 10
104.7167973546311
 20
540.665
 10
104.7831973529537
 20
540.7318863399632
 10
104.8441973514127
 20
540.7920000000004
 10
104.9096973497581
 20
540.8476863370379
 10
104.97849734802
 20
540.8983863357571
 10
104.97849734802
 20
540.8983863357571
 10
103.8540000000003
 20
542.8461862865515
 10
103.8540000000003
 20
542.8461862865515
 10
103.6156973824473
 20
542.6937862904015
 10
103.39549738801
 20
542.5170862948653
 10
103.1972973930169
 20
542.3178862998975
 10
102.9911973982234
 20
542.1132863050661
 10
102.8100974027984
 20
541.8852863108259
 10
102.6542974067343
 20
541.6386863170555
 10
102.6542974067343
 20
541.6386863170555
 10
102.6542974067343
 20
541.6386863170555
 10
102.6542974067343
 20
541.6386863170555
 97
        0
 92
        1
 93
        1
 72
     4
 94
        3
 73
     0
 74
     1
 95
       20
 96
       16
 40
0.0
 40
0.0
 40
0.0
 40
0.0
 40
1.0
 40
1.0
 40
1.0
 40
2.0
 40
2.0
 40
2.0
 40
3.0
 40
3.0
 40
3.0
 40
4.0
 40
4.0
 40
4.0
 40
5.0
 40
5.0
 40
5.0
 40
5.0
 10
104.9496973487476
 20
540.3130000000001
 10
104.9496973487476
 20
540.3130000000001
 10
105.5004973348332
 20
539.9960863585511
 10
105.5004973348332
 20
539.9960863585511
 10
105.5004973348332
 20
539.9960863585511
 10
105.180697342912
 20
540.5482863446014
 10
105.180697342912
 20
540.5482863446014
 10
105.140597343925
 20
540.5170863453895
 10
105.1030000000001
 20
540.4833863462409
 10
105.0668973457869
 20
540.4481863471301
 10
105.0248973468479
 20
540.4057863482012
 10
104.986297347823
 20
540.3612863493254
 10
104.9496973487476
 20
540.3130000000001
 10
104.9496973487476
 20
540.3130000000001
 10
104.9496973487476
 20
540.3130000000001
 10
104.9496973487476
 20
540.3130000000001
 97
        0
 92
        1
 93
        1
 72
     4
 94
        3
 73
     0
 74
     1
 95
       20
 96
       16
 40
0.0
 40
0.0
 40
0.0
 40
0.0
 40
1.0
 40
1.0
 40
1.0
 40
2.0
 40
2.0
 40
2.0
 40
3.0
 40
3.0
 40
3.0
 40
4.0
 40
4.0
 40
4.0
 40
5.0
 40
5.0
 40
5.0
 40
5.0
 10
104.1254973695686
 20
543.0043862825551
 10
104.1254973695686
 20
543.0043862825551
 10
105.249497341174
 20
541.0580863317227
 10
105.249497341174
 20
541.0580863317227
 10
105.411597337079
 20
541.1337863298104
 10
105.5873973326379
 20
541.1840863285397
 10
105.7719999999999
 20
541.202086328085
 10
105.7719999999999
 20
541.202086328085
 10
105.7719999999999
 20
543.4520862712452
 10
105.7719999999999
 20
543.4520862712452
 10
105.1786973429626
 20
543.426286271897
 10
104.6210973570487
 20
543.2675862759061
 10
104.1254973695686
 20
543.0043862825551
 10
104.1254973695686
 20
543.0043862825551
 10
104.1254973695686
 20
543.0043862825551
 10
104.1254973695686
 20
543.0043862825551
 97
        0
 92
        1
 93
        1
 72
     4
 94
        3
 73
     0
 74
     1
 95
       20
 96
       16
 40
0.0
 40
0.0
 40
0.0
 40
0.0
 40
1.0
 40
1.0
 40
1.0
 40
2.0
 40
2.0
 40
2.0
 40
3.0
 40
3.0
 40
3.0
 40
4.0
 40
4.0
 40
4.0
 40
5.0
 40
5.0
 40
5.0
 40
5.0
 10
105.4511973360786
 20
540.7094863405291
 10
105.4511973360786
 20
540.7094863405291
 10
105.733897328937
 20
540.2182863529379
 10
105.733897328937
 20
540.2182863529379
 10
105.733897328937
 20
540.2182863529379
 10
105.7719999999999
 20
540.2520000000004
 10
105.7719999999999
 20
540.2520000000004
 10
105.7719999999999
 20
540.2520000000004
 10
105.7719999999999
 20
540.7987863382732
 10
105.7719999999999
 20
540.7987863382732
 10
105.6596973308115
 20
540.7836863386547
 10
105.5521973335271
 20
540.7528863394327
 10
105.4511973360786
 20
540.7094863405291
 10
105.4511973360786
 20
540.7094863405291
 10
105.4511973360786
 20
540.7094863405291
 10
105.4511973360786
 20
540.7094863405291
 97
        0
 92
        1
 93
        1
 72
     4
 94
        3
 73
     0
 74
     1
 95
       20
 96
       16
 40
0.0
 40
0.0
 40
0.0
 40
0.0
 40
1.0
 40
1.0
 40
1.0
 40
2.0
 40
2.0
 40
2.0
 40
3.0
 40
3.0
 40
3.0
 40
4.0
 40
4.0
 40
4.0
 40
5.0
 40
5.0
 40
5.0
 40
5.0
 10
106.0863973200321
 20
543.4525862712326
 10
106.0863973200321
 20
543.4525862712326
 10
106.0863973200321
 20
541.2050863280092
 10
106.0863973200321
 20
541.2050863280092
 10
106.2728973153207
 20
541.1894863284033
 10
106.4511973108165
 20
541.141086329626
 10
106.6151973066735
 20
541.0678863314752
 10
106.6151973066735
 20
541.0678863314752
 10
107.738797278289
 20
543.0155862822721
 10
107.738797278289
 20
543.0155862822721
 10
107.2421972908342
 20
543.2758862756964
 10
106.6815973049961
 20
543.4306862717858
 10
106.0863973200321
 20
543.4525862712326
 10
106.0863973200321
 20
543.4525862712326
 10
106.0863973200321
 20
543.4525862712326
 10
106.0863973200321
 20
543.4525862712326
 97
        0
 92
        1
 93
        1
 72
     4
 94
        3
 73
     0
 74
     1
 95
       17
 96
       13
 40
0.0
 40
0.0
 40
0.0
 40
0.0
 40
1.0
 40
1.0
 40
1.0
 40
2.0
 40
2.0
 40
2.0
 40
3.0
 40
3.0
 40
3.0
 40
4.0
 40
4.0
 40
4.0
 40
4.0
 10
106.0863973200321
 20
540.8021863381873
 10
106.0863973200321
 20
540.8021863381873
 10
106.0863973200321
 20
540.5224863452531
 10
106.0863973200321
 20
540.5224863452531
 10
106.0863973200321
 20
540.5224863452531
 10
106.3441973135195
 20
540.744086339655
 10
106.3441973135195
 20
540.744086339655
 10
106.2616973156037
 20
540.7724863389376
 10
106.1757973177737
 20
540.7920000000004
 10
106.0863973200321
 20
540.8021863381873
 10
106.0863973200321
 20
540.8021863381873
 10
106.0863973200321
 20
540.8021863381873
 10
106.0863973200321
 20
540.8021863381873
 97
        0
 92
        1
 93
        1
 72
     4
 94
        3
 73
     0
 74
     1
 95
       29
 96
       25
 40
0.0
 40
0.0
 40
0.0
 40
0.0
 40
1.0
 40
1.0
 40
1.0
 40
2.0
 40
2.0
 40
2.0
 40
3.0
 40
3.0
 40
3.0
 40
4.0
 40
4.0
 40
4.0
 40
5.0
 40
5.0
 40
5.0
 40
6.0
 40
6.0
 40
6.0
 40
7.0
 40
7.0
 40
7.0
 40
8.0
 40
8.0
 40
8.0
 40
8.0
 10
123.6820968755273
 20
549.5790861164642
 10
123.6820968755273
 20
549.5790861164642
 10
124.0795968654857
 20
547.8676861596978
 10
124.0795968654857
 20
547.8676861596978
 10
124.2260968617848
 20
547.2382861755978
 10
124.0033968674106
 20
546.8588861851822
 10
123.57669687819
 20
546.607886191523
 10
123.57669687819
 20
546.607886191523
 10
124.0258968668422
 20
544.6845862401096
 10
124.0258968668422
 20
544.6845862401096
 10
124.070796865708
 20
544.6890000000003
 10
124.1156968645737
 20
544.6928862399
 10
124.1610968634268
 20
544.6962862398141
 10
123.996096867595
 20
545.7680862127381
 10
124.3471968587255
 20
546.6679999999997
 10
124.6400968513262
 20
547.4179999999997
 10
124.7787968478224
 20
547.77338616208
 10
124.904296844652
 20
548.093786153986
 10
124.9467968435783
 20
548.3690861470313
 10
125.0272968415447
 20
548.8900861338698
 10
124.7885968475748
 20
549.2880861238154
 10
123.6820968755273
 20
549.5790861164642
 10
123.6820968755273
 20
549.5790861164642
 10
123.6820968755273
 20
549.5790861164642
 10
123.6820968755273
 20
549.5790861164642
 97
        0
 92
        1
 93
        1
 72
     4
 94
        3
 73
     0
 74
     1
 95
       71
 96
       67
 40
0.0
 40
0.0
 40
0.0
 40
0.0
 40
1.0
 40
1.0
 40
1.0
 40
2.0
 40
2.0
 40
2.0
 40
3.0
 40
3.0
 40
3.0
 40
4.0
 40
4.0
 40
4.0
 40
5.0
 40
5.0
 40
5.0
 40
6.0
 40
6.0
 40
6.0
 40
7.0
 40
7.0
 40
7.0
 40
8.0
 40
8.0
 40
8.0
 40
9.0
 40
9.0
 40
9.0
 40
10.0
 40
10.0
 40
10.0
 40
11.0
 40
11.0
 40
11.0
 40
12.0
 40
12.0
 40
12.0
 40
13.0
 40
13.0
 40
13.0
 40
14.0
 40
14.0
 40
14.0
 40
15.0
 40
15.0
 40
15.0
 40
16.0
 40
16.0
 40
16.0
 40
17.0
 40
17.0
 40
17.0
 40
18.0
 40
18.0
 40
18.0
 40
19.0
 40
19.0
 40
19.0
 40
20.0
 40
20.0
 40
20.0
 40
21.0
 40
21.0
 40
21.0
 40
22.0
 40
22.0
 40
22.0
 40
22.0
 10
115.7816970751082
 20
542.9770862832447
 10
115.7816970751082
 20
542.9770862832447
 10
114.9291970966442
 20
542.9770862832447
 10
114.9291970966442
 20
542.9770862832447
 10
114.9291970966442
 20
542.9770862832447
 10
114.9291970966442
 20
541.2728863262964
 10
114.9291970966442
 20
541.2728863262964
 10
115.2348970889216
 20
541.1078863304647
 10
115.4872970825454
 20
540.8568863368055
 10
115.6552970783014
 20
540.5526863444902
 10
115.9574970706672
 20
540.7694863390134
 10
116.3144970616486
 20
541.1137863303156
 10
116.658197052966
 20
541.6581863165629
 10
117.6386970281965
 20
543.2094862773738
 10
119.5126969808553
 20
546.3754861973939
 10
119.5185969807062
 20
546.3832861971969
 10
119.5185969807062
 20
546.3832861971969
 10
119.5424969801024
 20
546.4203861962596
 10
119.5424969801024
 20
546.4203861962596
 10
119.9862969688911
 20
547.0604861800894
 10
120.8940000000002
 20
547.2235861759691
 10
121.758796924114
 20
547.3783861720585
 10
121.8705969212897
 20
547.3988861715407
 10
121.981896918478
 20
547.4193861710228
 10
122.0932969156638
 20
547.4408861704796
 10
122.0932969156638
 20
547.4408861704796
 10
121.9188969200695
 20
548.1869999999999
 10
121.9188969200695
 20
548.1869999999999
 10
121.9188969200695
 20
548.1869999999999
 10
115.7001970771671
 20
544.8075862370024
 10
115.7001970771671
 20
544.8075862370024
 10
115.7001970771671
 20
544.8075862370024
 10
115.6762970777709
 20
544.7924862373839
 10
115.6762970777709
 20
544.7924862373839
 10
115.0258970942014
 20
544.4760862453768
 10
114.2875971128524
 20
544.3305862490524
 10
113.5805971307127
 20
544.4110862470188
 10
113.4350971343883
 20
544.4276862465995
 10
113.2792971383242
 20
544.4691862455511
 10
113.1327971420251
 20
544.5194862442804
 10
113.1327971420251
 20
544.5194862442804
 10
113.9696971208832
 20
541.4867863208929
 10
113.9696971208832
 20
541.4867863208929
 10
114.0028971200445
 20
541.4887863208423
 10
114.0365971191932
 20
541.4896863208196
 10
114.0697971183545
 20
541.4896863208196
 10
114.100097117589
 20
541.4896863208196
 10
114.1298971168362
 20
541.4896863208196
 10
114.1605971160607
 20
541.4877863208676
 10
114.1605971160607
 20
541.4877863208676
 10
114.1605971160607
 20
542.9770862832447
 10
114.1605971160607
 20
542.9770862832447
 10
114.1605971160607
 20
542.9770862832447
 10
113.8798971231517
 20
542.9770862832447
 10
113.8798971231517
 20
542.9770862832447
 10
113.8798971231517
 20
542.9770862832447
 10
113.8798971231517
 20
543.4760862706389
 10
113.8798971231517
 20
543.4760862706389
 10
113.8798971231517
 20
543.4760862706389
 10
115.7816970751082
 20
543.4760862706389
 10
115.7816970751082
 20
543.4760862706389
 10
115.7816970751082
 20
543.4760862706389
 10
115.7816970751082
 20
542.9770862832447
 10
115.7816970751082
 20
542.9770862832447
 10
115.7816970751082
 20
542.9770862832447
 10
115.7816970751082
 20
542.9770862832447
 10
115.7816970751082
 20
542.9770862832447
 97
        0
 92
        1
 93
        1
 72
     4
 94
        3
 73
     0
 74
     1
 95
       20
 96
       16
 40
0.0
 40
0.0
 40
0.0
 40
0.0
 40
1.0
 40
1.0
 40
1.0
 40
2.0
 40
2.0
 40
2.0
 40
3.0
 40
3.0
 40
3.0
 40
4.0
 40
4.0
 40
4.0
 40
5.0
 40
5.0
 40
5.0
 40
5.0
 10
112.3368971621312
 20
540.2006863533825
 10
112.4594971590341
 20
540.6093863430578
 10
112.7216971524103
 20
540.9570000000003
 10
113.068397143652
 20
541.1874863284538
 10
113.068397143652
 20
541.1874863284538
 10
112.2147971652157
 20
544.2821862502751
 10
112.2147971652157
 20
544.2821862502751
 10
112.2147971652157
 20
544.2821862502751
 10
110.180197216614
 20
542.4828862957293
 10
110.180197216614
 20
542.4828862957293
 10
110.6376972050566
 20
541.8183863125159
 10
110.9423971973592
 20
541.0414863321421
 10
111.0453971947572
 20
540.2006863533825
 10
111.0453971947572
 20
540.2006863533825
 10
112.3368971621312
 20
540.2006863533825
 10
112.3368971621312
 20
540.2006863533825
 97
        0
 75
     0
 76
     1
 98
        0
  0
SPLINE
  5
7E
330
14
100
AcDbEntity
  8
Layer 1
370
     0
100
AcDbSpline
210
0.0
220
0.0
230
1.0
 70
    11
 71
     3
 72
    71
 73
    67
 74
     0
 42
0.000000001
 43
0.0000000001
 40
0.0
 40
0.0
 40
0.0
 40
0.0
 40
1.0
 40
1.0
 40
1.0
 40
2.0
 40
2.0
 40
2.0
 40
3.0
 40
3.0
 40
3.0
 40
4.0
 40
4.0
 40
4.0
 40
5.0
 40
5.0
 40
5.0
 40
6.0
 40
6.0
 40
6.0
 40
7.0
 40
7.0
 40
7.0
 40
8.0
 40
8.0
 40
8.0
 40
9.0
 40
9.0
 40
9.0
 40
10.0
 40
10.0
 40
10.0
 40
11.0
 40
11.0
 40
11.0
 40
12.0
 40
12.0
 40
12.0
 40
13.0
 40
13.0
 40
13.0
 40
14.0
 40
14.0
 40
14.0
 40
15.0
 40
15.0
 40
15.0
 40
16.0
 40
16.0
 40
16.0
 40
17.0
 40
17.0
 40
17.0
 40
18.0
 40
18.0
 40
18.0
 40
19.0
 40
19.0
 40
19.0
 40
20.0
 40
20.0
 40
20.0
 40
21.0
 40
21.0
 40
21.0
 40
22.0
 40
22.0
 40
22.0
 40
22.0
 10
115.7816970751082
 20
542.9770862832447
 30
0.0
 10
115.7816970751082
 20
542.9770862832447
 30
0.0
 10
114.9291970966442
 20
542.9770862832447
 30
0.0
 10
114.9291970966442
 20
542.9770862832447
 30
0.0
 10
114.9291970966442
 20
542.9770862832447
 30
0.0
 10
114.9291970966442
 20
541.2728863262964
 30
0.0
 10
114.9291970966442
 20
541.2728863262964
 30
0.0
 10
115.2348970889216
 20
541.1078863304647
 30
0.0
 10
115.4872970825454
 20
540.8568863368055
 30
0.0
 10
115.6552970783014
 20
540.5526863444902
 30
0.0
 10
115.9574970706672
 20
540.7694863390134
 30
0.0
 10
116.3144970616486
 20
541.1137863303156
 30
0.0
 10
116.658197052966
 20
541.6581863165629
 30
0.0
 10
117.6386970281965
 20
543.2094862773738
 30
0.0
 10
119.5126969808553
 20
546.3754861973939
 30
0.0
 10
119.5185969807062
 20
546.3832861971969
 30
0.0
 10
119.5185969807062
 20
546.3832861971969
 30
0.0
 10
119.5424969801024
 20
546.4203861962596
 30
0.0
 10
119.5424969801024
 20
546.4203861962596
 30
0.0
 10
119.9862969688911
 20
547.0604861800894
 30
0.0
 10
120.8940000000002
 20
547.2235861759691
 30
0.0
 10
121.758796924114
 20
547.3783861720585
 30
0.0
 10
121.8705969212897
 20
547.3988861715407
 30
0.0
 10
121.981896918478
 20
547.4193861710228
 30
0.0
 10
122.0932969156638
 20
547.4408861704796
 30
0.0
 10
122.0932969156638
 20
547.4408861704796
 30
0.0
 10
121.9188969200695
 20
548.1869999999999
 30
0.0
 10
121.9188969200695
 20
548.1869999999999
 30
0.0
 10
121.9188969200695
 20
548.1869999999999
 30
0.0
 10
115.7001970771671
 20
544.8075862370024
 30
0.0
 10
115.7001970771671
 20
544.8075862370024
 30
0.0
 10
115.7001970771671
 20
544.8075862370024
 30
0.0
 10
115.6762970777709
 20
544.7924862373839
 30
0.0
 10
115.6762970777709
 20
544.7924862373839
 30
0.0
 10
115.0258970942014
 20
544.4760862453768
 30
0.0
 10
114.2875971128524
 20
544.3305862490524
 30
0.0
 10
113.5805971307127
 20
544.4110862470188
 30
0.0
 10
113.4350971343883
 20
544.4276862465995
 30
0.0
 10
113.2792971383242
 20
544.4691862455511
 30
0.0
 10
113.1327971420251
 20
544.5194862442804
 30
0.0
 10
113.1327971420251
 20
544.5194862442804
 30
0.0
 10
113.9696971208832
 20
541.4867863208929
 30
0.0
 10
113.9696971208832
 20
541.4867863208929
 30
0.0
 10
114.0028971200445
 20
541.4887863208423
 30
0.0
 10
114.0365971191932
 20
541.4896863208196
 30
0.0
 10
114.0697971183545
 20
541.4896863208196
 30
0.0
 10
114.100097117589
 20
541.4896863208196
 30
0.0
 10
114.1298971168362
 20
541.4896863208196
 30
0.0
 10
114.1605971160607
 20
541.4877863208676
 30
0.0
 10
114.1605971160607
 20
541.4877863208676
 30
0.0
 10
114.1605971160607
 20
542.9770862832447
 30
0.0
 10
114.1605971160607
 20
542.9770862832447
 30
0.0
 10
114.1605971160607
 20
542.9770862832447
 30
0.0
 10
113.8798971231517
 20
542.9770862832447
 30
0.0
 10
113.8798971231517
 20
542.9770862832447
 30
0.0
 10
113.8798971231517
 20
542.9770862832447
 30
0.0
 10
113.8798971231517
 20
543.4760862706389
 30
0.0
 10
113.8798971231517
 20
543.4760862706389
 30
0.0
 10
113.8798971231517
 20
543.4760862706389
 30
0.0
 10
115.7816970751082
 20
543.4760862706389
 30
0.0
 10
115.7816970751082
 20
543.4760862706389
 30
0.0
 10
115.7816970751082
 20
543.4760862706389
 30
0.0
 10
115.7816970751082
 20
542.9770862832447
 30
0.0
 10
115.7816970751082
 20
542.9770862832447
 30
0.0
 10
115.7816970751082
 20
542.9770862832447
 30
0.0
 10
115.7816970751082
 20
542.9770862832447
 30
0.0
 10
115.7816970751082
 20
542.9770862832447
 30
0.0
  0
SPLINE
  5
7F
330
14
100
AcDbEntity
  8
Layer 1
370
     0
100
AcDbSpline
210
0.0
220
0.0
230
1.0
 70
    11
 71
     3
 72
   203
 73
   199
 74
     0
 42
0.000000001
 43
0.0000000001
 40
0.0
 40
0.0
 40
0.0
 40
0.0
 40
1.0
 40
1.0
 40
1.0
 40
2.0
 40
2.0
 40
2.0
 40
3.0
 40
3.0
 40
3.0
 40
4.0
 40
4.0
 40
4.0
 40
5.0
 40
5.0
 40
5.0
 40
6.0
 40
6.0
 40
6.0
 40
7.0
 40
7.0
 40
7.0
 40
8.0
 40
8.0
 40
8.0
 40
9.0
 40
9.0
 40
9.0
 40
10.0
 40
10.0
 40
10.0
 40
11.0
 40
11.0
 40
11.0
 40
12.0
 40
12.0
 40
12.0
 40
13.0
 40
13.0
 40
13.0
 40
14.0
 40
14.0
 40
14.0
 40
15.0
 40
15.0
 40
15.0
 40
16.0
 40
16.0
 40
16.0
 40
17.0
 40
17.0
 40
17.0
 40
18.0
 40
18.0
 40
18.0
 40
19.0
 40
19.0
 40
19.0
 40
20.0
 40
20.0
 40
20.0
 40
21.0
 40
21.0
 40
21.0
 40
22.0
 40
22.0
 40
22.0
 40
23.0
 40
23.0
 40
23.0
 40
24.0
 40
24.0
 40
24.0
 40
25.0
 40
25.0
 40
25.0
 40
26.0
 40
26.0
 40
26.0
 40
27.0
 40
27.0
 40
27.0
 40
28.0
 40
28.0
 40
28.0
 40
29.0
 40
29.0
 40
29.0
 40
30.0
 40
30.0
 40
30.0
 40
31.0
 40
31.0
 40
31.0
 40
32.0
 40
32.0
 40
32.0
 40
33.0
 40
33.0
 40
33.0
 40
34.0
 40
34.0
 40
34.0
 40
35.0
 40
35.0
 40
35.0
 40
36.0
 40
36.0
 40
36.0
 40
37.0
 40
37.0
 40
37.0
 40
38.0
 40
38.0
 40
38.0
 40
39.0
 40
39.0
 40
39.0
 40
40.0
 40
40.0
 40
40.0
 40
41.0
 40
41.0
 40
41.0
 40
42.0
 40
42.0
 40
42.0
 40
43.0
 40
43.0
 40
43.0
 40
44.0
 40
44.0
 40
44.0
 40
45.0
 40
45.0
 40
45.0
 40
46.0
 40
46.0
 40
46.0
 40
47.0
 40
47.0
 40
47.0
 40
48.0
 40
48.0
 40
48.0
 40
49.0
 40
49.0
 40
49.0
 40
50.0
 40
50.0
 40
50.0
 40
51.0
 40
51.0
 40
51.0
 40
52.0
 40
52.0
 40
52.0
 40
53.0
 40
53.0
 40
53.0
 40
54.0
 40
54.0
 40
54.0
 40
55.0
 40
55.0
 40
55.0
 40
56.0
 40
56.0
 40
56.0
 40
57.0
 40
57.0
 40
57.0
 40
58.0
 40
58.0
 40
58.0
 40
59.0
 40
59.0
 40
59.0
 40
60.0
 40
60.0
 40
60.0
 40
61.0
 40
61.0
 40
61.0
 40
62.0
 40
62.0
 40
62.0
 40
63.0
 40
63.0
 40
63.0
 40
64.0
 40
64.0
 40
64.0
 40
65.0
 40
65.0
 40
65.0
 40
66.0
 40
66.0
 40
66.0
 40
66.0
 10
105.9433973236446
 20
544.7128862393947
 30
0.0
 10
107.2748972900081
 20
544.7128862393947
 30
0.0
 10
108.488297259355
 20
544.2060862521976
 30
0.0
 10
109.4008972363008
 20
543.375
 30
0.0
 10
109.4008972363008
 20
543.375
 30
0.0
 10
111.8773971737392
 20
545.5067862193391
 30
0.0
 10
111.8773971737392
 20
545.5067862193391
 30
0.0
 10
111.8773971737392
 20
545.5067862193391
 30
0.0
 10
110.8183972004917
 20
549.3456861223603
 30
0.0
 10
110.8183972004917
 20
549.3456861223603
 30
0.0
 10
110.6757972040941
 20
549.3144861231485
 30
0.0
 10
110.5414972074868
 20
549.29
 30
0.0
 10
110.4208972105334
 20
549.2768861240984
 30
0.0
 10
109.5370972328601
 20
549.183086126468
 30
0.0
 10
108.4140972612295
 20
549.8383861099137
 30
0.0
 10
108.4140972612295
 20
549.8383861099137
 30
0.0
 10
108.4140972612295
 20
549.8383861099137
 30
0.0
 10
108.7255972533603
 20
550.5971860907448
 30
0.0
 10
108.7255972533603
 20
550.5971860907448
 30
0.0
 10
108.7255972533603
 20
550.5971860907448
 30
0.0
 10
113.4247971346485
 20
550.5971860907448
 30
0.0
 10
113.4247971346485
 20
550.5971860907448
 30
0.0
 10
113.4247971346485
 20
550.5971860907448
 30
0.0
 10
113.58149713069
 20
550.1508861020193
 30
0.0
 10
113.58149713069
 20
550.1508861020193
 30
0.0
 10
113.58149713069
 20
550.1508861020193
 30
0.0
 10
112.936497146984
 20
550.0570861043889
 30
0.0
 10
112.936497146984
 20
550.0570861043889
 30
0.0
 10
112.936497146984
 20
550.0570861043889
 30
0.0
 10
112.3729999999996
 20
549.8197861103836
 30
0.0
 10
111.7299999999996
 20
549.6059999999998
 30
0.0
 10
111.7299999999996
 20
549.6059999999998
 30
0.0
 10
112.6918971531632
 20
546.1190862038711
 30
0.0
 10
112.6918971531632
 20
546.1190862038711
 30
0.0
 10
112.9857971457386
 20
545.8471862107399
 30
0.0
 10
113.3432971367074
 20
545.7006862144408
 30
0.0
 10
113.7187971272215
 20
545.6581862155144
 30
0.0
 10
114.1845971154544
 20
545.6049999999996
 30
0.0
 10
114.6811971029092
 20
545.7060862143044
 30
0.0
 10
115.1260000000002
 20
545.9228862088275
 30
0.0
 10
115.1260000000002
 20
545.9228862088275
 30
0.0
 10
115.1260000000002
 20
545.9213862088654
 30
0.0
 10
115.1260000000002
 20
545.9213862088654
 30
0.0
 10
115.1260000000002
 20
545.9213862088654
 30
0.0
 10
121.623496927532
 20
549.4525861196598
 30
0.0
 10
121.623496927532
 20
549.4525861196598
 30
0.0
 10
121.623496927532
 20
549.4525861196598
 30
0.0
 10
121.4203969326627
 20
550.3227860976767
 30
0.0
 10
121.4203969326627
 20
550.3227860976767
 30
0.0
 10
121.4203969326627
 20
550.3227860976767
 30
0.0
 10
120.62009695288
 20
550.1645861016732
 30
0.0
 10
120.62009695288
 20
550.1645861016732
 30
0.0
 10
120.62009695288
 20
550.1645861016732
 30
0.0
 10
120.6850969512379
 20
549.7475861122075
 30
0.0
 10
120.6850969512379
 20
549.7475861122075
 30
0.0
 10
120.6850969512379
 20
549.7475861122075
 30
0.0
 10
120.2426969624139
 20
549.6786861139481
 30
0.0
 10
120.2426969624139
 20
549.6786861139481
 30
0.0
 10
120.2426969624139
 20
549.6786861139481
 30
0.0
 10
120.2001969634875
 20
549.9560861069403
 30
0.0
 10
120.2001969634875
 20
549.9560861069403
 30
0.0
 10
120.2001969634875
 20
549.9560861069403
 30
0.0
 10
118.3197970109904
 20
549.665
 30
0.0
 10
118.3197970109904
 20
549.665
 30
0.0
 10
118.3197970109904
 20
549.665
 30
0.0
 10
118.1776970145802
 20
550.5795860911894
 30
0.0
 10
118.1776970145802
 20
550.5795860911894
 30
0.0
 10
118.1776970145802
 20
550.5795860911894
 30
0.0
 10
120.0585969670647
 20
550.8705860838381
 30
0.0
 10
120.0585969670647
 20
550.8705860838381
 30
0.0
 10
120.0585969670647
 20
550.8705860838381
 30
0.0
 10
120.0141969681863
 20
551.1586860765601
 30
0.0
 10
120.0141969681863
 20
551.1586860765601
 30
0.0
 10
120.0141969681863
 20
551.1586860765601
 30
0.0
 10
120.456096957023
 20
551.2260860748574
 30
0.0
 10
120.456096957023
 20
551.2260860748574
 30
0.0
 10
120.456096957023
 20
551.2260860748574
 30
0.0
 10
120.5238969553102
 20
550.7851860859955
 30
0.0
 10
120.5238969553102
 20
550.7851860859955
 30
0.0
 10
120.5238969553102
 20
550.7851860859955
 30
0.0
 10
123.0131968924252
 20
551.2797860735009
 30
0.0
 10
123.0131968924252
 20
551.2797860735009
 30
0.0
 10
123.0131968924252
 20
551.2797860735009
 30
0.0
 10
123.1337968893786
 20
550.6635860890674
 30
0.0
 10
123.1337968893786
 20
550.6635860890674
 30
0.0
 10
123.1337968893786
 20
550.6635860890674
 30
0.0
 10
122.6527969015297
 20
550.5683860914723
 30
0.0
 10
122.6527969015297
 20
550.5683860914723
 30
0.0
 10
122.6527969015297
 20
550.5683860914723
 30
0.0
 10
122.7724968985058
 20
550.0580861043636
 30
0.0
 10
122.7724968985058
 20
550.0580861043636
 30
0.0
 10
122.7724968985058
 20
550.0580861043636
 30
0.0
 10
122.7910000000002
 20
550.0487861045985
 30
0.0
 10
122.7910000000002
 20
550.0487861045985
 30
0.0
 10
122.7910000000002
 20
550.0487861045985
 30
0.0
 10
122.7953968979273
 20
550.0766861038937
 30
0.0
 10
122.7953968979273
 20
550.0766861038937
 30
0.0
 10
124.9560968433434
 20
549.7392861124172
 30
0.0
 10
125.3871968324529
 20
549.1576861271096
 30
0.0
 10
125.2562968357597
 20
548.3207861482515
 30
0.0
 10
125.2074968369925
 20
548.0092861561207
 30
0.0
 10
125.0766968402968
 20
547.6747861645708
 30
0.0
 10
124.9320968439497
 20
547.3031861739582
 30
0.0
 10
124.650396851066
 20
546.5829999999996
 30
0.0
 10
124.3130000000001
 20
545.7172862140214
 30
0.0
 10
124.4760968554692
 20
544.71188623942
 30
0.0
 10
124.5082968546558
 20
544.71188623942
 30
0.0
 10
124.5410000000002
 20
544.7128862393947
 30
0.0
 10
124.5731968530163
 20
544.7128862393947
 30
0.0
 10
125.9926968171567
 20
544.7128862393947
 30
0.0
 10
127.2777967846923
 20
544.1376862539255
 30
0.0
 10
128.2084967611809
 20
543.2074862774243
 30
0.0
 10
129.138696737682
 20
542.2772863009232
 30
0.0
 10
129.7138967231513
 20
540.9911863334128
 30
0.0
 10
129.7138967231513
 20
539.5717863692698
 30
0.0
 10
129.7138967231513
 20
538.1522864051294
 30
0.0
 10
129.138696737682
 20
536.8671864375938
 30
0.0
 10
128.2084967611809
 20
535.9369999999999
 30
0.0
 10
127.2777967846923
 20
535.0067864845914
 30
0.0
 10
125.9926968171567
 20
534.4315864991222
 30
0.0
 10
124.5731968530163
 20
534.4315864991222
 30
0.0
 10
123.1537968888733
 20
534.4315864991222
 30
0.0
 10
121.8681969213503
 20
535.0067864845914
 30
0.0
 10
120.9380000000001
 20
535.9369999999999
 30
0.0
 10
120.007796968348
 20
536.8671864375938
 30
0.0
 10
119.4320969828914
 20
538.1522864051294
 30
0.0
 10
119.4320969828914
 20
539.5717863692698
 30
0.0
 10
119.4320969828914
 20
540.9911863334128
 30
0.0
 10
120.007796968348
 20
542.2772863009232
 30
0.0
 10
120.9380000000001
 20
543.2074862774243
 30
0.0
 10
121.4603969316522
 20
543.7299999999996
 30
0.0
 10
122.0946969156284
 20
544.1405862538522
 30
0.0
 10
122.8026968977429
 20
544.3998862473018
 30
0.0
 10
122.8026968977429
 20
544.3998862473018
 30
0.0
 10
122.3773969084868
 20
546.2191862013424
 30
0.0
 10
122.3773969084868
 20
546.2191862013424
 30
0.0
 10
122.2504969116926
 20
546.1942862019714
 30
0.0
 10
122.1161969150853
 20
546.1703862025752
 30
0.0
 10
121.9799999999996
 20
546.1459999999997
 30
0.0
 10
121.3812969336504
 20
546.0385862059047
 30
0.0
 10
120.7533969495125
 20
545.9257862087543
 30
0.0
 10
120.5853969537566
 20
545.7235862138623
 30
0.0
 10
120.4228969578617
 20
545.4477862208296
 30
0.0
 10
118.6880000000001
 20
542.5233862947061
 30
0.0
 10
117.7191970261629
 20
540.990186333438
 30
0.0
 10
117.083497042222
 20
539.9828863588846
 30
0.0
 10
116.3485970607871
 20
539.4682863718845
 30
0.0
 10
115.8158970742443
 20
539.2074863784728
 30
0.0
 10
115.6503970784252
 20
538.5941863939661
 30
0.0
 10
115.1693970905762
 20
538.1098864062005
 30
0.0
 10
114.5590971059937
 20
537.9390000000003
 30
0.0
 10
114.5590971059937
 20
537.9390000000003
 30
0.0
 10
114.5590971059937
 20
536.5209999999997
 30
0.0
 10
114.5590971059937
 20
536.5209999999997
 30
0.0
 10
114.5590971059937
 20
536.5209999999997
 30
0.0
 10
114.8388970989254
 20
536.5209999999997
 30
0.0
 10
114.8388970989254
 20
536.5209999999997
 30
0.0
 10
114.8388970989254
 20
536.5209999999997
 30
0.0
 10
114.8388970989254
 20
536.021486458958
 30
0.0
 10
114.8388970989254
 20
536.021486458958
 30
0.0
 10
114.8388970989254
 20
536.021486458958
 30
0.0
 10
112.936497146984
 20
536.021486458958
 30
0.0
 10
112.936497146984
 20
536.021486458958
 30
0.0
 10
112.936497146984
 20
536.021486458958
 30
0.0
 10
112.936497146984
 20
536.5209999999997
 30
0.0
 10
112.936497146984
 20
536.5209999999997
 30
0.0
 10
112.936497146984
 20
536.5209999999997
 30
0.0
 10
113.7890971254456
 20
536.5209999999997
 30
0.0
 10
113.7890971254456
 20
536.5209999999997
 30
0.0
 10
113.7890971254456
 20
536.5209999999997
 30
0.0
 10
113.7890971254456
 20
537.8940000000002
 30
0.0
 10
113.7890971254456
 20
537.8940000000002
 30
0.0
 10
113.1752971409514
 20
537.9892864092471
 30
0.0
 10
112.6630971538907
 20
538.3940000000002
 30
0.0
 10
112.4179999999997
 20
538.9437863851344
 30
0.0
 10
112.4179999999997
 20
538.9437863851344
 30
0.0
 10
111.0453971947572
 20
538.9437863851344
 30
0.0
 10
111.0453971947572
 20
538.9437863851344
 30
0.0
 10
110.9027971983596
 20
537.7753864146507
 30
0.0
 10
110.3681972118648
 20
536.7284864410976
 30
0.0
 10
109.577597231837
 20
535.9369999999999
 30
0.0
 10
108.6478972553232
 20
535.0067864845914
 30
0.0
 10
107.3627972877875
 20
534.4315864991222
 30
0.0
 10
105.9433973236446
 20
534.4315864991222
 30
0.0
 10
104.5228973595295
 20
534.4315864991222
 30
0.0
 10
103.2377973919938
 20
535.0067864845914
 30
0.0
 10
102.30809741548
 20
535.9369999999999
 30
0.0
 10
101.3773974389915
 20
536.8671864375938
 30
0.0
 10
100.8021974535222
 20
538.1522864051294
 30
0.0
 10
100.8021974535222
 20
539.5717863692698
 30
0.0
 10
100.8021974535222
 20
540.9911863334128
 30
0.0
 10
101.3773974389915
 20
542.2772863009232
 30
0.0
 10
102.30809741548
 20
543.2074862774243
 30
0.0
 10
103.2377973919938
 20
544.1376862539255
 30
0.0
 10
104.5228973595295
 20
544.7128862393947
 30
0.0
 10
105.9433973236446
 20
544.7128862393947
 30
0.0
 10
105.9433973236446
 20
544.7128862393947
 30
0.0
 10
105.9433973236446
 20
544.7128862393947
 30
0.0
 10
105.9433973236446
 20
544.7128862393947
 30
0.0
  0
ENDSEC
  0
SECTION
  2
OBJECTS
  0
DICTIONARY
  5
5
330
0
100
AcDbDictionary
281
     1
  3
ACAD_GROUP
350
21
  3
ACAD_LAYOUT
350
18
  3
ACAD_MATERIAL
350
7
  3
ACAD_MLEADERSTYLE
350
83
  3
ACAD_MLINESTYLE
350
12
  3
ACAD_PLOTSETTINGS
350
22
  3
ACAD_PLOTSTYLENAME
350
4
  3
ACAD_SCALELIST
350
29
  3
ACAD_TABLESTYLE
350
82
  3
ACAD_VISUALSTYLE
350
23
  3
AcDbVariableDictionary
350
80
  0
DICTIONARY
  5
A3
330
1F
100
AcDbDictionary
280
     1
281
     1
  3
ACAD_XREC_ROUNDTRIP
360
A4
  0
DICTIONARY
  5
21
102
{ACAD_REACTORS
330
5
102
}
330
5
100
AcDbDictionary
281
     1
  0
DICTIONARY
  5
18
102
{ACAD_REACTORS
330
5
102
}
330
5
100
AcDbDictionary
281
     1
  3
Layout1
350
1C
  3
Model
350
17
  0
DICTIONARY
  5
7
102
{ACAD_REACTORS
330
5
102
}
330
5
100
AcDbDictionary
281
     1
  3
ByBlock
350
4C
  3
ByLayer
350
E
  3
Global
350
6
  0
DICTIONARY
  5
83
102
{ACAD_REACTORS
330
5
102
}
330
5
100
AcDbDictionary
281
     1
  3
Standard
350
86
  0
DICTIONARY
  5
12
102
{ACAD_REACTORS
330
5
102
}
330
5
100
AcDbDictionary
281
     1
  3
Standard
350
11
  0
DICTIONARY
  5
22
102
{ACAD_REACTORS
330
5
102
}
330
5
100
AcDbDictionary
281
     1
  0
ACDBDICTIONARYWDFLT
  5
4
102
{ACAD_REACTORS
330
5
102
}
330
5
100
AcDbDictionary
281
     1
  3
Normal
350
3
100
AcDbDictionaryWithDefault
340
3
  0
DICTIONARY
  5
29
102
{ACAD_REACTORS
330
5
102
}
330
5
100
AcDbDictionary
281
     1
  3
*A1
350
4B
  0
DICTIONARY
  5
82
102
{ACAD_REACTORS
330
5
102
}
330
5
100
AcDbDictionary
281
     1
  3
Standard
350
9E
  0
DICTIONARY
  5
23
102
{ACAD_REACTORS
330
5
102
}
330
5
100
AcDbDictionary
281
     1
  3
2dWireframe
350
26
  3
Basic
350
8D
  3
Brighten
350
91
  3
ColorChange
350
95
  3
Conceptual
350
8F
  3
Dim
350
90
  3
EdgeColorOff
350
98
  3
Facepattern
350
94
  3
Flat
350
87
  3
FlatWithEdges
350
88
  3
Gouraud
350
89
  3
GouraudWithEdges
350
8A
  3
Hidden
350
8C
  3
JitterOff
350
96
  3
Linepattern
350
93
  3
OverhangOff
350
97
  3
Realistic
350
8E
  3
Shaded
350
9D
  3
Shaded with edges
350
9C
  3
Shades of Gray
350
99
  3
Sketchy
350
9A
  3
Thicken
350
92
  3
Wireframe
350
8B
  3
X-Ray
350
9B
  0
DICTIONARY
  5
80
102
{ACAD_REACTORS
330
5
102
}
330
5
100
AcDbDictionary
281
     1
  3
CANNOSCALE
350
81
  3
CMLEADERSTYLE
350
A0
  3
CTABLESTYLE
350
9F
  3
DIMASSOC
350
A1
  3
HIDETEXT
350
A2
  3
MSLTSCALE
350
A5
  0
XRECORD
  5
A4
102
{ACAD_REACTORS
330
A3
102
}
330
A3
100
AcDbXrecord
280
     1
102
VTR_0.000_0.000_1.000_1.000_VISUALSTYLE
340
26
102
VTR_0.000_0.000_1.000_1.000_GRIDDISPLAY
 70
     3
102
VTR_0.000_0.000_1.000_1.000_GRIDMAJOR
 70
     5
102
VTR_0.000_0.000_1.000_1.000_DEFAULTLIGHTING
280
     1
102
VTR_0.000_0.000_1.000_1.000_DEFAULTLIGHTINGTYPE
 70
     1
102
VTR_0.000_0.000_1.000_1.000_BRIGHTNESS
141
0.0
102
VTR_0.000_0.000_1.000_1.000_CONTRAST
142
0.0
  0
LAYOUT
  5
1C
102
{ACAD_REACTORS
330
18
102
}
330
18
100
AcDbPlotSettings
  1

  2
none_device
  4
Letter_(8.50_x_11.00_Inches)
  6

 40
6.35
 41
6.35
 42
6.35001
 43
6.35001
 44
215.9
 45
279.4
 46
0.0
 47
0.0
 48
0.0
 49
0.0
140
0.0
141
0.0
142
1.0
143
1.0
 70
   688
 72
     0
 73
     1
 74
     5
  7

 75
    16
147
1.0
148
0.0
149
0.0
100
AcDbLayout
  1
Layout1
 70
     1
 71
     1
 10
0.0
 20
0.0
 11
12.0
 21
9.0
 12
0.0
 22
0.0
 32
0.0
 14
1.000000000000000E+20
 24
1.000000000000000E+20
 34
1.000000000000000E+20
 15
-1.000000000000000E+20
 25
-1.000000000000000E+20
 35
-1.000000000000000E+20
146
0.0
 13
0.0
 23
0.0
 33
0.0
 16
1.0
 26
0.0
 36
0.0
 17
0.0
 27
1.0
 37
0.0
 76
     0
330
19
  0
LAYOUT
  5
17
102
{ACAD_REACTORS
330
18
102
}
330
18
100
AcDbPlotSettings
  1

  2
none_device
  4

  6

 40
0.0
 41
0.0
 42
0.0
 43
0.0
 44
0.0
 45
0.0
 46
0.0
 47
0.0
 48
0.0
 49
0.0
140
0.0
141
0.0
142
1.0
143
1.0
 70
  1712
 72
     0
 73
     0
 74
     0
  7

 75
     0
147
1.0
148
0.0
149
0.0
100
AcDbLayout
  1
Model
 70
     1
 71
     0
 10
0.0
 20
0.0
 11
12.0
 21
9.0
 12
0.0
 22
0.0
 32
0.0
 14
100.817182832172
 24
534.4342064315608
 34
0.0
 15
129.6963279446987
 25
551.2748908436889
 35
0.0
146
0.0
 13
0.0
 23
0.0
 33
0.0
 16
1.0
 26
0.0
 36
0.0
 17
0.0
 27
1.0
 37
0.0
 76
     0
330
14
331
25
  0
MATERIAL
  5
4C
102
{ACAD_REACTORS
330
7
102
}
102
{ACAD_XDICTIONARY
360
AA
102
}
330
7
100
AcDbMaterial
  1
ByBlock
  0
MATERIAL
  5
E
102
{ACAD_REACTORS
330
7
102
}
102
{ACAD_XDICTIONARY
360
A6
102
}
330
7
100
AcDbMaterial
  1
ByLayer
  0
MATERIAL
  5
6
102
{ACAD_REACTORS
330
7
102
}
102
{ACAD_XDICTIONARY
360
A8
102
}
330
7
100
AcDbMaterial
  1
Global
  0
MLEADERSTYLE
  5
86
102
{ACAD_REACTORS
330
83
102
}
102
{ACAD_XDICTIONARY
360
DD
102
}
330
83
100
AcDbMLeaderStyle
170
     2
171
     1
172
     0
 90
        2
 40
0.0
 41
0.0
173
     1
 91
-1056964608
340
A
 92
       -2
290
     1
 42
0.09
291
     1
 43
0.36
  3
Standard
341
0
 44
0.18
300

342
C
174
     1
178
     6
175
     1
176
     0
 93
-1056964608
 45
0.18
292
     0
297
     0
 46
0.18
343
0
 94
-1056964608
 47
1.0
 49
1.0
140
1.0
293
     1
141
0.0
294
     1
177
     0
142
1.0
295
     0
296
     0
143
0.125
1001
ACAD_MLEADERVER
1070
     2
  0
MLINESTYLE
  5
11
102
{ACAD_REACTORS
330
12
102
}
330
12
100
AcDbMlineStyle
  2
Standard
 70
     0
  3

 62
   256
 51
90.0
 52
90.0
 71
     2
 49
0.5
 62
   256
  6
BYLAYER
 49
-0.5
 62
   256
  6
BYLAYER
  0
ACDBPLACEHOLDER
  5
3
102
{ACAD_REACTORS
330
4
102
}
330
4
  0
SCALE
  5
4B
102
{ACAD_REACTORS
330
29
102
}
330
29
100
AcDbScale
 70
     0
300
1:1
140
1.0
141
1.0
290
     1
  0
TABLESTYLE
  5
9E
102
{ACAD_REACTORS
330
82
102
}
330
82
100
AcDbTableStyle
  3
Standard
 70
     0
 71
     0
 40
0.06
 41
0.06
280
     0
281
     0
  7
Standard
140
0.18
170
     2
 62
     0
 63
   257
283
     0
274
    -2
284
     1
 64
     0
275
    -2
285
     1
 65
     0
276
    -2
286
     1
 66
     0
277
    -2
287
     1
 67
     0
278
    -2
288
     1
 68
     0
279
    -2
289
     1
 69
     0
  7
Standard
140
0.25
170
     5
 62
     0
 63
   257
283
     0
274
    -2
284
     1
 64
     0
275
    -2
285
     1
 65
     0
276
    -2
286
     1
 66
     0
277
    -2
287
     1
 67
     0
278
    -2
288
     1
 68
     0
279
    -2
289
     1
 69
     0
  7
Standard
140
0.18
170
     5
 62
     0
 63
   257
283
     0
274
    -2
284
     1
 64
     0
275
    -2
285
     1
 65
     0
276
    -2
286
     1
 66
     0
277
    -2
287
     1
 67
     0
278
    -2
288
     1
 68
     0
279
    -2
289
     1
 69
     0
  0
VISUALSTYLE
  5
26
102
{ACAD_REACTORS
330
23
102
}
102
{ACAD_XDICTIONARY
360
AC
102
}
330
23
100
AcDbVisualStyle
  2
2dWireframe
 70
     4
 71
     0
 72
     2
 73
     0
 90
        0
 40
-0.6
 41
-30.0
 62
     5
 63
     7
 74
     1
 91
        4
 64
     7
 65
   257
 75
     1
175
     1
 42
1.0
 92
        0
 66
   257
 43
1.0
 76
     1
 77
     6
 78
     2
 67
     7
 79
     5
170
     0
171
     0
290
     0
174
     0
 93
        1
 44
0.0
173
     0
291
     0
 45
0.0
1001
ACAD
1000
AcDbSavedByObjectVersion
1070
     0
  0
VISUALSTYLE
  5
8D
102
{ACAD_REACTORS
330
23
102
}
102
{ACAD_XDICTIONARY
360
BA
102
}
330
23
100
AcDbVisualStyle
  2
Basic
 70
     7
 71
     1
 72
     0
 73
     1
 90
        0
 40
0.6
 41
30.0
 62
     5
 63
     7
 74
     0
 91
        4
 64
     7
 65
   257
 75
     1
175
     1
 42
1.0
 92
        8
 66
     7
 43
1.0
 76
     1
 77
     6
 78
     2
 67
     7
 79
     5
170
     0
171
     0
290
     0
174
     0
 93
        1
 44
0.0
173
     0
291
     1
 45
0.0
1001
ACAD
1000
AcDbSavedByObjectVersion
1070
     0
  0
VISUALSTYLE
  5
91
102
{ACAD_REACTORS
330
23
102
}
102
{ACAD_XDICTIONARY
360
C2
102
}
330
23
100
AcDbVisualStyle
  2
Brighten
 70
    12
 71
     2
 72
     2
 73
     0
 90
        0
 40
0.6
 41
30.0
 62
     5
 63
     7
 74
     1
 91
        4
 64
     7
 65
   257
 75
     1
175
     1
 42
1.0
 92
        8
 66
     7
 43
1.0
 76
     1
 77
     6
 78
     2
 67
     7
 79
     5
170
     0
171
     0
290
     0
174
     0
 93
        1
 44
50.0
173
     0
291
     1
 45
0.0
1001
ACAD
1000
AcDbSavedByObjectVersion
1070
     0
  0
VISUALSTYLE
  5
95
102
{ACAD_REACTORS
330
23
102
}
102
{ACAD_XDICTIONARY
360
CA
102
}
330
23
100
AcDbVisualStyle
  2
ColorChange
 70
    16
 71
     2
 72
     2
 73
     3
 90
        0
 40
0.6
 41
30.0
 62
     5
 63
     8
 74
     1
 91
        4
 64
     7
 65
   257
 75
     1
175
     1
 42
1.0
 92
        8
 66
     8
 43
1.0
 76
     1
 77
     6
 78
     2
 67
     7
 79
     5
170
     0
171
     0
290
     0
174
     0
 93
        1
 44
0.0
173
     0
291
     1
 45
0.0
1001
ACAD
1000
AcDbSavedByObjectVersion
1070
     0
  0
VISUALSTYLE
  5
8F
102
{ACAD_REACTORS
330
23
102
}
102
{ACAD_XDICTIONARY
360
BE
102
}
330
23
100
AcDbVisualStyle
  2
Conceptual
 70
     9
 71
     3
 72
     2
 73
     0
 90
        0
 40
0.6
 41
30.0
 62
     5
 63
     7
 74
     2
 91
        2
 64
     7
 65
   257
 75
     1
175
     1
 42
179.0
 92
        8
 66
     7
 43
1.0
 76
     1
 77
     6
 78
     2
 67
     7
 79
     3
170
     0
171
     0
290
     0
174
     0
 93
        1
 44
0.0
173
     0
291
     0
 45
0.0
1001
ACAD
1000
AcDbSavedByObjectVersion
1070
     0
  0
VISUALSTYLE
  5
90
102
{ACAD_REACTORS
330
23
102
}
102
{ACAD_XDICTIONARY
360
C0
102
}
330
23
100
AcDbVisualStyle
  2
Dim
 70
    11
 71
     2
 72
     2
 73
     0
 90
        0
 40
0.6
 41
30.0
 62
     5
 63
     7
 74
     1
 91
        4
 64
     7
 65
   257
 75
     1
175
     1
 42
1.0
 92
        8
 66
     7
 43
1.0
 76
     1
 77
     6
 78
     2
 67
     7
 79
     5
170
     0
171
     0
290
     0
174
     0
 93
        1
 44
-50.0
173
     0
291
     1
 45
0.0
1001
ACAD
1000
AcDbSavedByObjectVersion
1070
     0
  0
VISUALSTYLE
  5
98
102
{ACAD_REACTORS
330
23
102
}
102
{ACAD_XDICTIONARY
360
D0
102
}
330
23
100
AcDbVisualStyle
  2
EdgeColorOff
 70
    22
 71
     2
 72
     2
 73
     0
 90
        0
 40
0.6
 41
30.0
 62
     5
 63
     7
 74
     1
 91
        4
 64
     7
 65
   257
 75
     1
175
     1
 42
1.0
 92
        8
 66
     7
 43
1.0
 76
     1
 77
     6
 78
     2
 67
     7
 79
     5
170
     0
171
     0
290
     0
174
     0
 93
        1
 44
0.0
173
     0
291
     1
 45
0.0
1001
ACAD
1000
AcDbSavedByObjectVersion
1070
     0
  0
VISUALSTYLE
  5
94
102
{ACAD_REACTORS
330
23
102
}
102
{ACAD_XDICTIONARY
360
C8
102
}
330
23
100
AcDbVisualStyle
  2
Facepattern
 70
    15
 71
     2
 72
     2
 73
     0
 90
        0
 40
0.6
 41
30.0
 62
     5
 63
     7
 74
     1
 91
        4
 64
     7
 65
   257
 75
     1
175
     1
 42
1.0
 92
        8
 66
     7
 43
1.0
 76
     1
 77
     6
 78
     2
 67
     7
 79
     5
170
     0
171
     0
290
     0
174
     0
 93
        1
 44
0.0
173
     0
291
     1
 45
0.0
1001
ACAD
1000
AcDbSavedByObjectVersion
1070
     0
  0
VISUALSTYLE
  5
87
102
{ACAD_REACTORS
330
23
102
}
102
{ACAD_XDICTIONARY
360
AE
102
}
330
23
100
AcDbVisualStyle
  2
Flat
 70
     0
 71
     2
 72
     1
 73
     1
 90
        2
 40
0.6
 41
30.0
 62
     5
 63
     7
 74
     0
 91
        0
 64
     7
 65
   257
 75
     1
175
     1
 42
1.0
 92
        8
 66
     7
 43
1.0
 76
     1
 77
     6
 78
     2
 67
     7
 79
     5
170
     0
171
     0
290
     0
174
     0
 93
       13
 44
0.0
173
     0
291
     1
 45
0.0
1001
ACAD
1000
AcDbSavedByObjectVersion
1070
     0
  0
VISUALSTYLE
  5
88
102
{ACAD_REACTORS
330
23
102
}
102
{ACAD_XDICTIONARY
360
B0
102
}
330
23
100
AcDbVisualStyle
  2
FlatWithEdges
 70
     1
 71
     2
 72
     1
 73
     1
 90
        2
 40
0.6
 41
30.0
 62
     5
 63
     7
 74
     1
 91
        0
 64
     7
 65
   257
 75
     1
175
     1
 42
1.0
 92
        0
 66
   257
 43
1.0
 76
     1
 77
     6
 78
     2
 67
     7
 79
     5
170
     0
171
     0
290
     0
174
     0
 93
       13
 44
0.0
173
     0
291
     1
 45
0.0
1001
ACAD
1000
AcDbSavedByObjectVersion
1070
     0
  0
VISUALSTYLE
  5
89
102
{ACAD_REACTORS
330
23
102
}
102
{ACAD_XDICTIONARY
360
B2
102
}
330
23
100
AcDbVisualStyle
  2
Gouraud
 70
     2
 71
     2
 72
     2
 73
     1
 90
        2
 40
0.6
 41
30.0
 62
     5
 63
     7
 74
     0
 91
        0
 64
     7
 65
   257
 75
     1
175
     1
 42
1.0
 92
        0
 66
     7
 43
1.0
 76
     1
 77
     6
 78
     2
 67
     7
 79
     5
170
     0
171
     0
290
     0
174
     0
 93
       13
 44
0.0
173
     0
291
     1
 45
0.0
1001
ACAD
1000
AcDbSavedByObjectVersion
1070
     0
  0
VISUALSTYLE
  5
8A
102
{ACAD_REACTORS
330
23
102
}
102
{ACAD_XDICTIONARY
360
B4
102
}
330
23
100
AcDbVisualStyle
  2
GouraudWithEdges
 70
     3
 71
     2
 72
     2
 73
     1
 90
        2
 40
0.6
 41
30.0
 62
     5
 63
     7
 74
     1
 91
        0
 64
     7
 65
   257
 75
     1
175
     1
 42
1.0
 92
        0
 66
   257
 43
1.0
 76
     1
 77
     6
 78
     2
 67
     7
 79
     5
170
     0
171
     0
290
     0
174
     0
 93
       13
 44
0.0
173
     0
291
     1
 45
0.0
1001
ACAD
1000
AcDbSavedByObjectVersion
1070
     0
  0
VISUALSTYLE
  5
8C
102
{ACAD_REACTORS
330
23
102
}
102
{ACAD_XDICTIONARY
360
B8
102
}
330
23
100
AcDbVisualStyle
  2
Hidden
 70
     6
 71
     1
 72
     2
 73
     2
 90
        0
 40
0.6
 41
30.0
 62
     5
 63
     7
 74
     2
 91
        2
 64
     7
 65
   257
 75
     2
175
     1
 42
40.0
 92
        0
 66
   257
 43
1.0
 76
     1
 77
     6
 78
     2
 67
     7
 79
     3
170
     0
171
     0
290
     0
174
     0
 93
        1
 44
0.0
173
     0
291
     0
 45
0.0
1001
ACAD
1000
AcDbSavedByObjectVersion
1070
     0
  0
VISUALSTYLE
  5
96
102
{ACAD_REACTORS
330
23
102
}
102
{ACAD_XDICTIONARY
360
CC
102
}
330
23
100
AcDbVisualStyle
  2
JitterOff
 70
    20
 71
     2
 72
     2
 73
     0
 90
        0
 40
0.6
 41
30.0
 62
     5
 63
     7
 74
     1
 91
        4
 64
     7
 65
   257
 75
     1
175
     1
 42
1.0
 92
       10
 66
     7
 43
1.0
 76
     1
 77
     6
 78
     2
 67
     7
 79
     5
170
     0
171
     0
290
     0
174
     0
 93
        1
 44
0.0
173
     0
291
     1
 45
0.0
1001
ACAD
1000
AcDbSavedByObjectVersion
1070
     0
  0
VISUALSTYLE
  5
93
102
{ACAD_REACTORS
330
23
102
}
102
{ACAD_XDICTIONARY
360
C6
102
}
330
23
100
AcDbVisualStyle
  2
Linepattern
 70
    14
 71
     2
 72
     2
 73
     0
 90
        0
 40
0.6
 41
30.0
 62
     5
 63
     7
 74
     1
 91
        4
 64
     7
 65
   257
 75
     7
175
     7
 42
1.0
 92
        8
 66
     7
 43
1.0
 76
     1
 77
     6
 78
     2
 67
     7
 79
     5
170
     0
171
     0
290
     0
174
     0
 93
        1
 44
0.0
173
     0
291
     1
 45
0.0
1001
ACAD
1000
AcDbSavedByObjectVersion
1070
     0
  0
VISUALSTYLE
  5
97
102
{ACAD_REACTORS
330
23
102
}
102
{ACAD_XDICTIONARY
360
CE
102
}
330
23
100
AcDbVisualStyle
  2
OverhangOff
 70
    21
 71
     2
 72
     2
 73
     0
 90
        0
 40
0.6
 41
30.0
 62
     5
 63
     7
 74
     1
 91
        4
 64
     7
 65
   257
 75
     1
175
     1
 42
1.0
 92
        9
 66
     7
 43
1.0
 76
     1
 77
     6
 78
     2
 67
     7
 79
     5
170
     0
171
     0
290
     0
174
     0
 93
        1
 44
0.0
173
     0
291
     1
 45
0.0
1001
ACAD
1000
AcDbSavedByObjectVersion
1070
     0
  0
VISUALSTYLE
  5
8E
102
{ACAD_REACTORS
330
23
102
}
102
{ACAD_XDICTIONARY
360
BC
102
}
330
23
100
AcDbVisualStyle
  2
Realistic
 70
     8
 71
     2
 72
     3
 73
     0
 90
        2
 40
0.6
 41
30.0
 62
     5
 63
     7
 74
     0
 91
        0
 64
     7
 65
   257
 75
     1
175
     1
 42
1.0
 92
        8
 66
   257
 43
1.0
 76
     1
 77
     6
 78
     2
 67
     7
 79
     3
170
     0
171
     0
290
     0
174
     0
 93
       13
 44
0.0
173
     0
291
     0
 45
0.0
1001
ACAD
1000
AcDbSavedByObjectVersion
1070
     0
  0
VISUALSTYLE
  5
9D
102
{ACAD_REACTORS
330
23
102
}
102
{ACAD_XDICTIONARY
360
DA
102
}
330
23
100
AcDbVisualStyle
  2
Shaded
 70
    27
 71
     2
 72
     2
 73
     1
 90
        2
 40
0.6
 41
30.0
 62
     5
 63
     7
 74
     0
 91
        4
 64
     7
 65
   257
 75
     1
175
     1
 42
1.0
 92
        8
 66
   257
 43
1.0
 76
     1
 77
     6
 78
     2
 67
     8
 79
     3
170
     0
171
     0
290
     0
174
     0
 93
        5
 44
0.0
173
     0
291
     0
 45
0.0
1001
ACAD
1000
AcDbSavedByObjectVersion
1070
     0
  0
VISUALSTYLE
  5
9C
102
{ACAD_REACTORS
330
23
102
}
102
{ACAD_XDICTIONARY
360
D8
102
}
330
23
100
AcDbVisualStyle
  2
Shaded with edges
 70
    26
 71
     2
 72
     2
 73
     1
 90
        2
 40
0.6
 41
30.0
 62
     5
 63
     7
 74
     1
 91
       10
 64
     7
 65
   257
 75
     2
175
     1
 42
1.0
 92
        8
 66
   257
 43
1.0
 76
     1
 77
     6
 78
     2
 67
     7
 79
     3
170
     0
171
     0
290
     0
174
     0
 93
        5
 44
0.0
173
     0
291
     0
 45
0.0
1001
ACAD
1000
AcDbSavedByObjectVersion
1070
     0
  0
VISUALSTYLE
  5
99
102
{ACAD_REACTORS
330
23
102
}
102
{ACAD_XDICTIONARY
360
D2
102
}
330
23
100
AcDbVisualStyle
  2
Shades of Gray
 70
    23
 71
     2
 72
     2
 73
     3
 90
        0
 40
0.6
 41
30.0
 62
     5
 63
     7
 74
     2
 91
        2
 64
     7
 65
     7
 75
     1
175
     1
 42
40.0
 92
        8
 66
     7
 43
1.0
 76
     1
 77
     6
 78
     2
 67
     7
 79
     3
170
     0
171
     0
290
     0
174
     0
 93
        1
 44
0.0
173
     0
291
     0
 45
0.0
1001
ACAD
1000
AcDbSavedByObjectVersion
1070
     0
  0
VISUALSTYLE
  5
9A
102
{ACAD_REACTORS
330
23
102
}
102
{ACAD_XDICTIONARY
360
D4
102
}
330
23
100
AcDbVisualStyle
  2
Sketchy
 70
    24
 71
     1
 72
     2
 73
     2
 90
        0
 40
0.6
 41
30.0
 62
     5
 63
     7
 74
     2
 91
        2
 64
     7
 65
     7
 75
     1
175
     1
 42
40.0
 92
       11
 66
     7
 43
1.0
 76
     1
 77
     6
 78
     2
 67
     7
 79
     6
170
     0
171
     0
290
     0
174
     0
 93
        1
 44
0.0
173
     0
291
     0
 45
0.0
1001
ACAD
1000
AcDbSavedByObjectVersion
1070
     0
  0
VISUALSTYLE
  5
92
102
{ACAD_REACTORS
330
23
102
}
102
{ACAD_XDICTIONARY
360
C4
102
}
330
23
100
AcDbVisualStyle
  2
Thicken
 70
    13
 71
     2
 72
     2
 73
     0
 90
        0
 40
0.6
 41
30.0
 62
     5
 63
     7
 74
     1
 91
        4
 64
     7
 65
   257
 75
     1
175
     1
 42
1.0
 92
       12
 66
     7
 43
1.0
 76
     1
 77
     6
 78
     2
 67
     7
 79
     5
170
     0
171
     0
290
     0
174
     0
 93
        1
 44
0.0
173
     0
291
     1
 45
0.0
1001
ACAD
1000
AcDbSavedByObjectVersion
1070
     0
  0
VISUALSTYLE
  5
8B
102
{ACAD_REACTORS
330
23
102
}
102
{ACAD_XDICTIONARY
360
B6
102
}
330
23
100
AcDbVisualStyle
  2
Wireframe
 70
     5
 71
     0
 72
     2
 73
     0
 90
        0
 40
0.6
 41
30.0
 62
     5
 63
     7
 74
     1
 91
        4
 64
     7
 65
   257
 75
     1
175
     1
 42
1.0
 92
        0
 66
   257
 43
1.0
 76
     1
 77
     6
 78
     2
 67
     7
 79
     3
170
     0
171
     0
290
     0
174
     0
 93
        1
 44
0.0
173
     0
291
     0
 45
0.0
1001
ACAD
1000
AcDbSavedByObjectVersion
1070
     0
  0
VISUALSTYLE
  5
9B
102
{ACAD_REACTORS
330
23
102
}
102
{ACAD_XDICTIONARY
360
D6
102
}
330
23
100
AcDbVisualStyle
  2
X-Ray
 70
    25
 71
     2
 72
     2
 73
     1
 90
        1
 40
0.5
 41
30.0
 62
     5
 63
     7
 74
     1
 91
        0
 64
     7
 65
   257
 75
     1
175
     1
 42
1.0
 92
        8
 66
     7
 43
1.0
 76
     1
 77
     6
 78
     2
 67
     7
 79
     3
170
     0
171
     0
290
     0
174
     0
 93
       13
 44
0.0
173
     0
291
     0
 45
0.0
1001
ACAD
1000
AcDbSavedByObjectVersion
1070
     0
  0
DICTIONARYVAR
  5
81
102
{ACAD_REACTORS
330
80
102
}
330
80
100
DictionaryVariables
280
     0
  1
1:1
  0
DICTIONARYVAR
  5
A0
102
{ACAD_REACTORS
330
80
102
}
330
80
100
DictionaryVariables
280
     0
  1
Standard
  0
DICTIONARYVAR
  5
9F
102
{ACAD_REACTORS
330
80
102
}
330
80
100
DictionaryVariables
280
     0
  1
Standard
  0
DICTIONARYVAR
  5
A1
102
{ACAD_REACTORS
330
80
102
}
330
80
100
DictionaryVariables
280
     0
  1
2
  0
DICTIONARYVAR
  5
A2
102
{ACAD_REACTORS
330
80
102
}
330
80
100
DictionaryVariables
280
     0
  1
1
  0
DICTIONARYVAR
  5
A5
102
{ACAD_REACTORS
330
80
102
}
330
80
100
DictionaryVariables
280
     0
  1
1
  0
DICTIONARY
  5
AA
330
4C
100
AcDbDictionary
280
     1
281
     1
  3
ACAD_XREC_ROUNDTRIP
360
AB
  0
DICTIONARY
  5
A6
330
E
100
AcDbDictionary
280
     1
281
     1
  3
ACAD_XREC_ROUNDTRIP
360
A7
  0
DICTIONARY
  5
A8
330
6
100
AcDbDictionary
280
     1
281
     1
  3
ACAD_XREC_ROUNDTRIP
360
A9
  0
DICTIONARY
  5
DD
330
86
100
AcDbDictionary
280
     1
281
     1
  3
ACAD_XREC_ROUNDTRIP
360
DE
  0
DICTIONARY
  5
AC
330
26
100
AcDbDictionary
280
     1
281
     1
  3
ACAD_XREC_ROUNDTRIP
360
AD
  0
DICTIONARY
  5
BA
330
8D
100
AcDbDictionary
280
     1
281
     1
  3
ACAD_XREC_ROUNDTRIP
360
BB
  0
DICTIONARY
  5
C2
330
91
100
AcDbDictionary
280
     1
281
     1
  3
ACAD_XREC_ROUNDTRIP
360
C3
  0
DICTIONARY
  5
CA
330
95
100
AcDbDictionary
280
     1
281
     1
  3
ACAD_XREC_ROUNDTRIP
360
CB
  0
DICTIONARY
  5
BE
330
8F
100
AcDbDictionary
280
     1
281
     1
  3
ACAD_XREC_ROUNDTRIP
360
BF
  0
DICTIONARY
  5
C0
330
90
100
AcDbDictionary
280
     1
281
     1
  3
ACAD_XREC_ROUNDTRIP
360
C1
  0
DICTIONARY
  5
D0
330
98
100
AcDbDictionary
280
     1
281
     1
  3
ACAD_XREC_ROUNDTRIP
360
D1
  0
DICTIONARY
  5
C8
330
94
100
AcDbDictionary
280
     1
281
     1
  3
ACAD_XREC_ROUNDTRIP
360
C9
  0
DICTIONARY
  5
AE
330
87
100
AcDbDictionary
280
     1
281
     1
  3
ACAD_XREC_ROUNDTRIP
360
AF
  0
DICTIONARY
  5
B0
330
88
100
AcDbDictionary
280
     1
281
     1
  3
ACAD_XREC_ROUNDTRIP
360
B1
  0
DICTIONARY
  5
B2
330
89
100
AcDbDictionary
280
     1
281
     1
  3
ACAD_XREC_ROUNDTRIP
360
B3
  0
DICTIONARY
  5
B4
330
8A
100
AcDbDictionary
280
     1
281
     1
  3
ACAD_XREC_ROUNDTRIP
360
B5
  0
DICTIONARY
  5
B8
330
8C
100
AcDbDictionary
280
     1
281
     1
  3
ACAD_XREC_ROUNDTRIP
360
B9
  0
DICTIONARY
  5
CC
330
96
100
AcDbDictionary
280
     1
281
     1
  3
ACAD_XREC_ROUNDTRIP
360
CD
  0
DICTIONARY
  5
C6
330
93
100
AcDbDictionary
280
     1
281
     1
  3
ACAD_XREC_ROUNDTRIP
360
C7
  0
DICTIONARY
  5
CE
330
97
100
AcDbDictionary
280
     1
281
     1
  3
ACAD_XREC_ROUNDTRIP
360
CF
  0
DICTIONARY
  5
BC
330
8E
100
AcDbDictionary
280
     1
281
     1
  3
ACAD_XREC_ROUNDTRIP
360
BD
  0
DICTIONARY
  5
DA
330
9D
100
AcDbDictionary
280
     1
281
     1
  3
ACAD_XREC_ROUNDTRIP
360
DB
  0
DICTIONARY
  5
D8
330
9C
100
AcDbDictionary
280
     1
281
     1
  3
ACAD_XREC_ROUNDTRIP
360
D9
  0
DICTIONARY
  5
D2
330
99
100
AcDbDictionary
280
     1
281
     1
  3
ACAD_XREC_ROUNDTRIP
360
D3
  0
DICTIONARY
  5
D4
330
9A
100
AcDbDictionary
280
     1
281
     1
  3
ACAD_XREC_ROUNDTRIP
360
D5
  0
DICTIONARY
  5
C4
330
92
100
AcDbDictionary
280
     1
281
     1
  3
ACAD_XREC_ROUNDTRIP
360
C5
  0
DICTIONARY
  5
B6
330
8B
100
AcDbDictionary
280
     1
281
     1
  3
ACAD_XREC_ROUNDTRIP
360
B7
  0
DICTIONARY
  5
D6
330
9B
100
AcDbDictionary
280
     1
281
     1
  3
ACAD_XREC_ROUNDTRIP
360
D7
  0
XRECORD
  5
AB
102
{ACAD_REACTORS
330
AA
102
}
330
AA
100
AcDbXrecord
280
     1
102
MATERIAL
148
0.0
149
0.0
149
0.0
 93
        0
 94
      127
282
     0
 72
     1
 77
     1
171
     1
175
     1
179
     1
273
     0
  0
XRECORD
  5
A7
102
{ACAD_REACTORS
330
A6
102
}
330
A6
100
AcDbXrecord
280
     1
102
MATERIAL
148
0.0
149
0.0
149
0.0
 93
        0
 94
      127
282
     0
 72
     1
 77
     1
171
     1
175
     1
179
     1
273
     0
  0
XRECORD
  5
A9
102
{ACAD_REACTORS
330
A8
102
}
330
A8
100
AcDbXrecord
280
     1
102
MATERIAL
148
0.0
149
0.0
149
0.0
 93
        0
 94
      127
282
     0
 72
     1
 77
     1
171
     1
175
     1
179
     1
273
     0
  0
XRECORD
  5
DE
102
{ACAD_REACTORS
330
DD
102
}
330
DD
100
AcDbXrecord
280
     1
102
ACAD_ROUNDTRIP_2010_MLEADER_STYLE
  0
XRECORD
  5
AD
102
{ACAD_REACTORS
330
AC
102
}
330
AC
100
AcDbXrecord
280
     1
102
RTVSPropertyOp0
 70
     1
102
RTVSPropertyOp1
 70
     1
102
RTVSPropertyOp2
 70
     1
102
RTVSPropertyOp3
 70
     1
102
RTVSPropertyOp4
 70
     1
102
RTVSPropertyOp5
 70
     1
102
RTVSPropertyOp6
 70
     1
102
RTVSPropertyOp7
 70
     1
102
RTVSPropertyOp8
 70
     1
102
RTVSPropertyOp9
 70
     1
102
RTVSPropertyOp10
 70
     1
102
RTVSPropertyOp11
 70
     1
102
RTVSPropertyOp12
 70
     1
102
RTVSPropertyOp13
 70
     1
102
RTVSPropertyOp14
 70
     1
102
RTVSPropertyOp15
 70
     1
102
RTVSPropertyOp16
 70
     1
102
RTVSPropertyOp17
 70
     1
102
RTVSPropertyOp18
 70
     1
102
RTVSPropertyOp19
 70
     1
102
RTVSPropertyOp20
 70
     1
102
RTVSPropertyOp21
 70
     1
102
RTVSPropertyOp22
 70
     1
102
RTVSPropertyOp23
 70
     1
102
RTVSPropertyOp24
 70
     1
102
RTVSPropertyOp25
 70
     1
102
RTVSPropertyOp26
 70
     1
102
RTVSPropertyOp27
 70
     1
102
RTVSPropertyOp28
 70
     1
102
RTVSPropertyOp29
 70
     1
102
RTVSPropertyOp30
 70
     1
102
RTVSPropertyOp31
 70
     1
102
RTVSPropertyOp32
 70
     1
102
RTVSPropertyOp33
 70
     1
102
RTVSPropertyOp34
 70
     1
102
RTVSPropertyOp35
 70
     1
102
RTVSPropertyOp36
 70
     1
102
RTVSPropertyOp37
 70
     1
102
RTVSPropertyOp38
 70
     1
102
RTVSPropertyOp39
 70
     1
102
RTVSPropertyOp40
 70
     1
102
RTVSPropertyOp41
 70
     1
102
RTVSPropertyOp42
 70
     1
102
RTVSPropertyOp43
 70
     1
102
RTVSPropertyOp44
 70
     1
102
RTVSPropertyOp45
 70
     1
102
RTVSPropertyOp46
 70
     1
102
RTVSPropertyOp47
 70
     1
102
RTVSPropertyOp48
 70
     1
102
RTVSPropertyOp49
 70
     1
102
RTVSPropertyOp50
 70
     1
102
RTVSPropertyOp51
 70
     0
102
RTVSPropertyOp52
 70
     0
102
RTVSPropertyOp53
 70
     1
102
RTVSPropertyOp54
 70
     1
102
RTVSPropertyOp55
 70
     1
102
RTVSPropertyOp56
 70
     1
102
RTVSPropertyOp57
 70
     1
102
RTVSPost2010Prop28
280
     1
102
RTVSPost2010PropOp28
 70
     1
102
RTVSPost2010Prop29
280
     1
102
RTVSPost2010PropOp29
 70
     1
102
RTVSPost2010Prop30
280
     0
102
RTVSPost2010PropOp30
 70
     1
102
RTVSPost2010Prop31
280
     0
102
RTVSPost2010PropOp31
 70
     1
102
RTVSPost2010Prop32
280
     0
102
RTVSPost2010PropOp32
 70
     1
102
RTVSPost2010Prop33
280
     0
102
RTVSPost2010PropOp33
 70
     1
102
RTVSPost2010Prop34
280
     0
102
RTVSPost2010PropOp34
 70
     1
102
RTVSPost2010Prop35
280
     0
102
RTVSPost2010PropOp35
 70
     1
102
RTVSPost2010Prop36
280
     0
102
RTVSPost2010PropOp36
 70
     1
102
RTVSPost2010Prop37
 90
       50
102
RTVSPost2010PropOp37
 70
     1
102
RTVSPost2010Prop38
140
0.0
102
RTVSPost2010PropOp38
 70
     1
102
RTVSPost2010Prop39
140
1.0
102
RTVSPost2010PropOp39
 70
     1
102
RTVSPost2010Prop40
 90
        0
102
RTVSPost2010PropOp40
 70
     1
102
RTVSPost2010Prop41ColorIndex
 90
       18
102
RTVSPost2010Prop41ColorRGB
 90
        0
102
RTVSPost2010PropOp41
 70
     1
102
RTVSPost2010Prop42
 90
       50
102
RTVSPost2010PropOp42
 70
     1
102
RTVSPost2010Prop43
 90
        3
102
RTVSPost2010PropOp43
 70
     1
102
RTVSPost2010Prop44ColorIndex
 90
        5
102
RTVSPost2010Prop44ColorRGB
 90
      255
102
RTVSPost2010PropOp44
 70
     1
102
RTVSPost2010Prop45
280
     0
102
RTVSPost2010PropOp45
 70
     1
102
RTVSPost2010Prop46
 90
       50
102
RTVSPost2010PropOp46
 70
     1
102
RTVSPost2010Prop47
 90
       50
102
RTVSPost2010PropOp47
 70
     1
102
RTVSPost2010Prop48
 90
       50
102
RTVSPost2010PropOp48
 70
     1
102
RTVSPost2010Prop49
280
     0
102
RTVSPost2010PropOp49
 70
     1
102
RTVSPost2010Prop50
 90
       50
102
RTVSPost2010PropOp50
 70
     1
102
RTVSPost2010Prop51ColorIndex
 90
      256
102
RTVSPost2010Prop51ColorRGB
 90
-16777216
102
RTVSPost2010PropOp51
 70
     0
102
RTVSPost2010Prop52
140
1.0
102
RTVSPost2010PropOp52
 70
     0
102
RTVSPost2010Prop53
 90
        2
102
RTVSPost2010PropOp53
 70
     1
102
RTVSPost2010Prop54
  1
strokes_ogs.tif
102
RTVSPost2010PropOp54
 70
     1
102
RTVSPost2010Prop55
280
     0
102
RTVSPost2010PropOp55
 70
     1
102
RTVSPost2010Prop56
140
1.0
102
RTVSPost2010PropOp56
 70
     1
102
RTVSPost2010Prop57
140
1.0
102
RTVSPost2010PropOp57
 70
     1
  0
XRECORD
  5
BB
102
{ACAD_REACTORS
330
BA
102
}
330
BA
100
AcDbXrecord
280
     1
102
RTVSPropertyOp0
 70
     1
102
RTVSPropertyOp1
 70
     1
102
RTVSPropertyOp2
 70
     1
102
RTVSPropertyOp3
 70
     1
102
RTVSPropertyOp4
 70
     1
102
RTVSPropertyOp5
 70
     1
102
RTVSPropertyOp6
 70
     1
102
RTVSPropertyOp7
 70
     1
102
RTVSPropertyOp8
 70
     1
102
RTVSPropertyOp9
 70
     1
102
RTVSPropertyOp10
 70
     1
102
RTVSPropertyOp11
 70
     1
102
RTVSPropertyOp12
 70
     1
102
RTVSPropertyOp13
 70
     1
102
RTVSPropertyOp14
 70
     1
102
RTVSPropertyOp15
 70
     1
102
RTVSPropertyOp16
 70
     1
102
RTVSPropertyOp17
 70
     1
102
RTVSPropertyOp18
 70
     1
102
RTVSPropertyOp19
 70
     1
102
RTVSPropertyOp20
 70
     1
102
RTVSPropertyOp21
 70
     1
102
RTVSPropertyOp22
 70
     1
102
RTVSPropertyOp23
 70
     1
102
RTVSPropertyOp24
 70
     1
102
RTVSPropertyOp25
 70
     1
102
RTVSPropertyOp26
 70
     1
102
RTVSPropertyOp27
 70
     1
102
RTVSPropertyOp28
 70
     1
102
RTVSPropertyOp29
 70
     1
102
RTVSPropertyOp30
 70
     1
102
RTVSPropertyOp31
 70
     1
102
RTVSPropertyOp32
 70
     1
102
RTVSPropertyOp33
 70
     1
102
RTVSPropertyOp34
 70
     1
102
RTVSPropertyOp35
 70
     1
102
RTVSPropertyOp36
 70
     1
102
RTVSPropertyOp37
 70
     1
102
RTVSPropertyOp38
 70
     1
102
RTVSPropertyOp39
 70
     1
102
RTVSPropertyOp40
 70
     1
102
RTVSPropertyOp41
 70
     1
102
RTVSPropertyOp42
 70
     1
102
RTVSPropertyOp43
 70
     1
102
RTVSPropertyOp44
 70
     1
102
RTVSPropertyOp45
 70
     1
102
RTVSPropertyOp46
 70
     1
102
RTVSPropertyOp47
 70
     1
102
RTVSPropertyOp48
 70
     1
102
RTVSPropertyOp49
 70
     1
102
RTVSPropertyOp50
 70
     1
102
RTVSPropertyOp51
 70
     0
102
RTVSPropertyOp52
 70
     0
102
RTVSPropertyOp53
 70
     1
102
RTVSPropertyOp54
 70
     1
102
RTVSPropertyOp55
 70
     1
102
RTVSPropertyOp56
 70
     1
102
RTVSPropertyOp57
 70
     1
102
RTVSPost2010Prop28
280
     0
102
RTVSPost2010PropOp28
 70
     1
102
RTVSPost2010Prop29
280
     1
102
RTVSPost2010PropOp29
 70
     1
102
RTVSPost2010Prop30
280
     1
102
RTVSPost2010PropOp30
 70
     1
102
RTVSPost2010Prop31
280
     0
102
RTVSPost2010PropOp31
 70
     1
102
RTVSPost2010Prop32
280
     0
102
RTVSPost2010PropOp32
 70
     1
102
RTVSPost2010Prop33
280
     0
102
RTVSPost2010PropOp33
 70
     1
102
RTVSPost2010Prop34
280
     0
102
RTVSPost2010PropOp34
 70
     1
102
RTVSPost2010Prop35
280
     0
102
RTVSPost2010PropOp35
 70
     1
102
RTVSPost2010Prop36
280
     0
102
RTVSPost2010PropOp36
 70
     1
102
RTVSPost2010Prop37
 90
       50
102
RTVSPost2010PropOp37
 70
     1
102
RTVSPost2010Prop38
140
0.0
102
RTVSPost2010PropOp38
 70
     1
102
RTVSPost2010Prop39
140
1.0
102
RTVSPost2010PropOp39
 70
     1
102
RTVSPost2010Prop40
 90
        0
102
RTVSPost2010PropOp40
 70
     1
102
RTVSPost2010Prop41ColorIndex
 90
       18
102
RTVSPost2010Prop41ColorRGB
 90
        0
102
RTVSPost2010PropOp41
 70
     1
102
RTVSPost2010Prop42
 90
       50
102
RTVSPost2010PropOp42
 70
     1
102
RTVSPost2010Prop43
 90
        3
102
RTVSPost2010PropOp43
 70
     1
102
RTVSPost2010Prop44ColorIndex
 90
        5
102
RTVSPost2010Prop44ColorRGB
 90
      255
102
RTVSPost2010PropOp44
 70
     1
102
RTVSPost2010Prop45
280
     0
102
RTVSPost2010PropOp45
 70
     1
102
RTVSPost2010Prop46
 90
       50
102
RTVSPost2010PropOp46
 70
     1
102
RTVSPost2010Prop47
 90
       50
102
RTVSPost2010PropOp47
 70
     1
102
RTVSPost2010Prop48
 90
       50
102
RTVSPost2010PropOp48
 70
     1
102
RTVSPost2010Prop49
280
     0
102
RTVSPost2010PropOp49
 70
     1
102
RTVSPost2010Prop50
 90
       50
102
RTVSPost2010PropOp50
 70
     1
102
RTVSPost2010Prop51ColorIndex
 90
      256
102
RTVSPost2010Prop51ColorRGB
 90
-16777216
102
RTVSPost2010PropOp51
 70
     0
102
RTVSPost2010Prop52
140
1.0
102
RTVSPost2010PropOp52
 70
     0
102
RTVSPost2010Prop53
 90
        2
102
RTVSPost2010PropOp53
 70
     1
102
RTVSPost2010Prop54
  1
strokes_ogs.tif
102
RTVSPost2010PropOp54
 70
     1
102
RTVSPost2010Prop55
280
     0
102
RTVSPost2010PropOp55
 70
     1
102
RTVSPost2010Prop56
140
1.0
102
RTVSPost2010PropOp56
 70
     1
102
RTVSPost2010Prop57
140
1.0
102
RTVSPost2010PropOp57
 70
     1
  0
XRECORD
  5
C3
102
{ACAD_REACTORS
330
C2
102
}
330
C2
100
AcDbXrecord
280
     1
102
RTVSPropertyOp0
 70
     1
102
RTVSPropertyOp1
 70
     1
102
RTVSPropertyOp2
 70
     1
102
RTVSPropertyOp3
 70
     1
102
RTVSPropertyOp4
 70
     1
102
RTVSPropertyOp5
 70
     1
102
RTVSPropertyOp6
 70
     1
102
RTVSPropertyOp7
 70
     1
102
RTVSPropertyOp8
 70
     1
102
RTVSPropertyOp9
 70
     1
102
RTVSPropertyOp10
 70
     1
102
RTVSPropertyOp11
 70
     1
102
RTVSPropertyOp12
 70
     1
102
RTVSPropertyOp13
 70
     1
102
RTVSPropertyOp14
 70
     1
102
RTVSPropertyOp15
 70
     1
102
RTVSPropertyOp16
 70
     1
102
RTVSPropertyOp17
 70
     1
102
RTVSPropertyOp18
 70
     1
102
RTVSPropertyOp19
 70
     1
102
RTVSPropertyOp20
 70
     1
102
RTVSPropertyOp21
 70
     1
102
RTVSPropertyOp22
 70
     1
102
RTVSPropertyOp23
 70
     1
102
RTVSPropertyOp24
 70
     1
102
RTVSPropertyOp25
 70
     1
102
RTVSPropertyOp26
 70
     1
102
RTVSPropertyOp27
 70
     1
102
RTVSPropertyOp28
 70
     1
102
RTVSPropertyOp29
 70
     1
102
RTVSPropertyOp30
 70
     1
102
RTVSPropertyOp31
 70
     1
102
RTVSPropertyOp32
 70
     1
102
RTVSPropertyOp33
 70
     1
102
RTVSPropertyOp34
 70
     1
102
RTVSPropertyOp35
 70
     1
102
RTVSPropertyOp36
 70
     1
102
RTVSPropertyOp37
 70
     1
102
RTVSPropertyOp38
 70
     1
102
RTVSPropertyOp39
 70
     1
102
RTVSPropertyOp40
 70
     1
102
RTVSPropertyOp41
 70
     1
102
RTVSPropertyOp42
 70
     1
102
RTVSPropertyOp43
 70
     1
102
RTVSPropertyOp44
 70
     1
102
RTVSPropertyOp45
 70
     1
102
RTVSPropertyOp46
 70
     1
102
RTVSPropertyOp47
 70
     1
102
RTVSPropertyOp48
 70
     1
102
RTVSPropertyOp49
 70
     1
102
RTVSPropertyOp50
 70
     1
102
RTVSPropertyOp51
 70
     0
102
RTVSPropertyOp52
 70
     0
102
RTVSPropertyOp53
 70
     1
102
RTVSPropertyOp54
 70
     1
102
RTVSPropertyOp55
 70
     1
102
RTVSPropertyOp56
 70
     1
102
RTVSPropertyOp57
 70
     1
102
RTVSPost2010Prop28
280
     0
102
RTVSPost2010PropOp28
 70
     1
102
RTVSPost2010Prop29
280
     1
102
RTVSPost2010PropOp29
 70
     1
102
RTVSPost2010Prop30
280
     1
102
RTVSPost2010PropOp30
 70
     1
102
RTVSPost2010Prop31
280
     0
102
RTVSPost2010PropOp31
 70
     1
102
RTVSPost2010Prop32
280
     0
102
RTVSPost2010PropOp32
 70
     1
102
RTVSPost2010Prop33
280
     0
102
RTVSPost2010PropOp33
 70
     1
102
RTVSPost2010Prop34
280
     0
102
RTVSPost2010PropOp34
 70
     1
102
RTVSPost2010Prop35
280
     0
102
RTVSPost2010PropOp35
 70
     1
102
RTVSPost2010Prop36
280
     0
102
RTVSPost2010PropOp36
 70
     1
102
RTVSPost2010Prop37
 90
       50
102
RTVSPost2010PropOp37
 70
     1
102
RTVSPost2010Prop38
140
0.0
102
RTVSPost2010PropOp38
 70
     1
102
RTVSPost2010Prop39
140
1.0
102
RTVSPost2010PropOp39
 70
     1
102
RTVSPost2010Prop40
 90
        0
102
RTVSPost2010PropOp40
 70
     1
102
RTVSPost2010Prop41ColorIndex
 90
       18
102
RTVSPost2010Prop41ColorRGB
 90
        0
102
RTVSPost2010PropOp41
 70
     1
102
RTVSPost2010Prop42
 90
       50
102
RTVSPost2010PropOp42
 70
     1
102
RTVSPost2010Prop43
 90
        3
102
RTVSPost2010PropOp43
 70
     1
102
RTVSPost2010Prop44ColorIndex
 90
        5
102
RTVSPost2010Prop44ColorRGB
 90
      255
102
RTVSPost2010PropOp44
 70
     1
102
RTVSPost2010Prop45
280
     0
102
RTVSPost2010PropOp45
 70
     1
102
RTVSPost2010Prop46
 90
       50
102
RTVSPost2010PropOp46
 70
     1
102
RTVSPost2010Prop47
 90
       50
102
RTVSPost2010PropOp47
 70
     1
102
RTVSPost2010Prop48
 90
       50
102
RTVSPost2010PropOp48
 70
     1
102
RTVSPost2010Prop49
280
     0
102
RTVSPost2010PropOp49
 70
     1
102
RTVSPost2010Prop50
 90
       50
102
RTVSPost2010PropOp50
 70
     1
102
RTVSPost2010Prop51ColorIndex
 90
      256
102
RTVSPost2010Prop51ColorRGB
 90
-16777216
102
RTVSPost2010PropOp51
 70
     0
102
RTVSPost2010Prop52
140
1.0
102
RTVSPost2010PropOp52
 70
     0
102
RTVSPost2010Prop53
 90
        2
102
RTVSPost2010PropOp53
 70
     1
102
RTVSPost2010Prop54
  1
strokes_ogs.tif
102
RTVSPost2010PropOp54
 70
     1
102
RTVSPost2010Prop55
280
     0
102
RTVSPost2010PropOp55
 70
     1
102
RTVSPost2010Prop56
140
1.0
102
RTVSPost2010PropOp56
 70
     1
102
RTVSPost2010Prop57
140
1.0
102
RTVSPost2010PropOp57
 70
     1
  0
XRECORD
  5
CB
102
{ACAD_REACTORS
330
CA
102
}
330
CA
100
AcDbXrecord
280
     1
102
RTVSPropertyOp0
 70
     1
102
RTVSPropertyOp1
 70
     1
102
RTVSPropertyOp2
 70
     1
102
RTVSPropertyOp3
 70
     1
102
RTVSPropertyOp4
 70
     1
102
RTVSPropertyOp5
 70
     1
102
RTVSPropertyOp6
 70
     1
102
RTVSPropertyOp7
 70
     1
102
RTVSPropertyOp8
 70
     1
102
RTVSPropertyOp9
 70
     1
102
RTVSPropertyOp10
 70
     1
102
RTVSPropertyOp11
 70
     1
102
RTVSPropertyOp12
 70
     1
102
RTVSPropertyOp13
 70
     1
102
RTVSPropertyOp14
 70
     1
102
RTVSPropertyOp15
 70
     1
102
RTVSPropertyOp16
 70
     1
102
RTVSPropertyOp17
 70
     1
102
RTVSPropertyOp18
 70
     1
102
RTVSPropertyOp19
 70
     1
102
RTVSPropertyOp20
 70
     1
102
RTVSPropertyOp21
 70
     1
102
RTVSPropertyOp22
 70
     1
102
RTVSPropertyOp23
 70
     1
102
RTVSPropertyOp24
 70
     1
102
RTVSPropertyOp25
 70
     1
102
RTVSPropertyOp26
 70
     1
102
RTVSPropertyOp27
 70
     1
102
RTVSPropertyOp28
 70
     1
102
RTVSPropertyOp29
 70
     1
102
RTVSPropertyOp30
 70
     1
102
RTVSPropertyOp31
 70
     1
102
RTVSPropertyOp32
 70
     1
102
RTVSPropertyOp33
 70
     1
102
RTVSPropertyOp34
 70
     1
102
RTVSPropertyOp35
 70
     1
102
RTVSPropertyOp36
 70
     1
102
RTVSPropertyOp37
 70
     1
102
RTVSPropertyOp38
 70
     1
102
RTVSPropertyOp39
 70
     1
102
RTVSPropertyOp40
 70
     1
102
RTVSPropertyOp41
 70
     1
102
RTVSPropertyOp42
 70
     1
102
RTVSPropertyOp43
 70
     1
102
RTVSPropertyOp44
 70
     1
102
RTVSPropertyOp45
 70
     1
102
RTVSPropertyOp46
 70
     1
102
RTVSPropertyOp47
 70
     1
102
RTVSPropertyOp48
 70
     1
102
RTVSPropertyOp49
 70
     1
102
RTVSPropertyOp50
 70
     1
102
RTVSPropertyOp51
 70
     0
102
RTVSPropertyOp52
 70
     0
102
RTVSPropertyOp53
 70
     1
102
RTVSPropertyOp54
 70
     1
102
RTVSPropertyOp55
 70
     1
102
RTVSPropertyOp56
 70
     1
102
RTVSPropertyOp57
 70
     1
102
RTVSPost2010Prop28
280
     0
102
RTVSPost2010PropOp28
 70
     1
102
RTVSPost2010Prop29
280
     1
102
RTVSPost2010PropOp29
 70
     1
102
RTVSPost2010Prop30
280
     1
102
RTVSPost2010PropOp30
 70
     1
102
RTVSPost2010Prop31
280
     0
102
RTVSPost2010PropOp31
 70
     1
102
RTVSPost2010Prop32
280
     0
102
RTVSPost2010PropOp32
 70
     1
102
RTVSPost2010Prop33
280
     0
102
RTVSPost2010PropOp33
 70
     1
102
RTVSPost2010Prop34
280
     0
102
RTVSPost2010PropOp34
 70
     1
102
RTVSPost2010Prop35
280
     0
102
RTVSPost2010PropOp35
 70
     1
102
RTVSPost2010Prop36
280
     0
102
RTVSPost2010PropOp36
 70
     1
102
RTVSPost2010Prop37
 90
       50
102
RTVSPost2010PropOp37
 70
     1
102
RTVSPost2010Prop38
140
0.0
102
RTVSPost2010PropOp38
 70
     1
102
RTVSPost2010Prop39
140
1.0
102
RTVSPost2010PropOp39
 70
     1
102
RTVSPost2010Prop40
 90
        0
102
RTVSPost2010PropOp40
 70
     1
102
RTVSPost2010Prop41ColorIndex
 90
       18
102
RTVSPost2010Prop41ColorRGB
 90
        0
102
RTVSPost2010PropOp41
 70
     1
102
RTVSPost2010Prop42
 90
       50
102
RTVSPost2010PropOp42
 70
     1
102
RTVSPost2010Prop43
 90
        3
102
RTVSPost2010PropOp43
 70
     1
102
RTVSPost2010Prop44ColorIndex
 90
        5
102
RTVSPost2010Prop44ColorRGB
 90
      255
102
RTVSPost2010PropOp44
 70
     1
102
RTVSPost2010Prop45
280
     0
102
RTVSPost2010PropOp45
 70
     1
102
RTVSPost2010Prop46
 90
       50
102
RTVSPost2010PropOp46
 70
     1
102
RTVSPost2010Prop47
 90
       50
102
RTVSPost2010PropOp47
 70
     1
102
RTVSPost2010Prop48
 90
       50
102
RTVSPost2010PropOp48
 70
     1
102
RTVSPost2010Prop49
280
     0
102
RTVSPost2010PropOp49
 70
     1
102
RTVSPost2010Prop50
 90
       50
102
RTVSPost2010PropOp50
 70
     1
102
RTVSPost2010Prop51ColorIndex
 90
      256
102
RTVSPost2010Prop51ColorRGB
 90
-16777216
102
RTVSPost2010PropOp51
 70
     0
102
RTVSPost2010Prop52
140
1.0
102
RTVSPost2010PropOp52
 70
     0
102
RTVSPost2010Prop53
 90
        2
102
RTVSPost2010PropOp53
 70
     1
102
RTVSPost2010Prop54
  1
strokes_ogs.tif
102
RTVSPost2010PropOp54
 70
     1
102
RTVSPost2010Prop55
280
     0
102
RTVSPost2010PropOp55
 70
     1
102
RTVSPost2010Prop56
140
1.0
102
RTVSPost2010PropOp56
 70
     1
102
RTVSPost2010Prop57
140
1.0
102
RTVSPost2010PropOp57
 70
     1
  0
XRECORD
  5
BF
102
{ACAD_REACTORS
330
BE
102
}
330
BE
100
AcDbXrecord
280
     1
102
RTVSPropertyOp0
 70
     1
102
RTVSPropertyOp1
 70
     1
102
RTVSPropertyOp2
 70
     1
102
RTVSPropertyOp3
 70
     1
102
RTVSPropertyOp4
 70
     1
102
RTVSPropertyOp5
 70
     1
102
RTVSPropertyOp6
 70
     1
102
RTVSPropertyOp7
 70
     1
102
RTVSPropertyOp8
 70
     1
102
RTVSPropertyOp9
 70
     1
102
RTVSPropertyOp10
 70
     1
102
RTVSPropertyOp11
 70
     1
102
RTVSPropertyOp12
 70
     1
102
RTVSPropertyOp13
 70
     1
102
RTVSPropertyOp14
 70
     1
102
RTVSPropertyOp15
 70
     1
102
RTVSPropertyOp16
 70
     1
102
RTVSPropertyOp17
 70
     1
102
RTVSPropertyOp18
 70
     1
102
RTVSPropertyOp19
 70
     1
102
RTVSPropertyOp20
 70
     1
102
RTVSPropertyOp21
 70
     1
102
RTVSPropertyOp22
 70
     1
102
RTVSPropertyOp23
 70
     1
102
RTVSPropertyOp24
 70
     1
102
RTVSPropertyOp25
 70
     1
102
RTVSPropertyOp26
 70
     1
102
RTVSPropertyOp27
 70
     1
102
RTVSPropertyOp28
 70
     1
102
RTVSPropertyOp29
 70
     1
102
RTVSPropertyOp30
 70
     1
102
RTVSPropertyOp31
 70
     1
102
RTVSPropertyOp32
 70
     1
102
RTVSPropertyOp33
 70
     1
102
RTVSPropertyOp34
 70
     1
102
RTVSPropertyOp35
 70
     1
102
RTVSPropertyOp36
 70
     1
102
RTVSPropertyOp37
 70
     1
102
RTVSPropertyOp38
 70
     1
102
RTVSPropertyOp39
 70
     1
102
RTVSPropertyOp40
 70
     1
102
RTVSPropertyOp41
 70
     1
102
RTVSPropertyOp42
 70
     1
102
RTVSPropertyOp43
 70
     1
102
RTVSPropertyOp44
 70
     1
102
RTVSPropertyOp45
 70
     1
102
RTVSPropertyOp46
 70
     1
102
RTVSPropertyOp47
 70
     1
102
RTVSPropertyOp48
 70
     1
102
RTVSPropertyOp49
 70
     1
102
RTVSPropertyOp50
 70
     1
102
RTVSPropertyOp51
 70
     0
102
RTVSPropertyOp52
 70
     0
102
RTVSPropertyOp53
 70
     1
102
RTVSPropertyOp54
 70
     1
102
RTVSPropertyOp55
 70
     1
102
RTVSPropertyOp56
 70
     1
102
RTVSPropertyOp57
 70
     1
102
RTVSPost2010Prop28
280
     0
102
RTVSPost2010PropOp28
 70
     1
102
RTVSPost2010Prop29
280
     1
102
RTVSPost2010PropOp29
 70
     1
102
RTVSPost2010Prop30
280
     1
102
RTVSPost2010PropOp30
 70
     1
102
RTVSPost2010Prop31
280
     0
102
RTVSPost2010PropOp31
 70
     1
102
RTVSPost2010Prop32
280
     0
102
RTVSPost2010PropOp32
 70
     1
102
RTVSPost2010Prop33
280
     0
102
RTVSPost2010PropOp33
 70
     1
102
RTVSPost2010Prop34
280
     0
102
RTVSPost2010PropOp34
 70
     1
102
RTVSPost2010Prop35
280
     0
102
RTVSPost2010PropOp35
 70
     1
102
RTVSPost2010Prop36
280
     0
102
RTVSPost2010PropOp36
 70
     1
102
RTVSPost2010Prop37
 90
       50
102
RTVSPost2010PropOp37
 70
     1
102
RTVSPost2010Prop38
140
0.0
102
RTVSPost2010PropOp38
 70
     1
102
RTVSPost2010Prop39
140
1.0
102
RTVSPost2010PropOp39
 70
     1
102
RTVSPost2010Prop40
 90
        0
102
RTVSPost2010PropOp40
 70
     1
102
RTVSPost2010Prop41ColorIndex
 90
       18
102
RTVSPost2010Prop41ColorRGB
 90
        0
102
RTVSPost2010PropOp41
 70
     1
102
RTVSPost2010Prop42
 90
       50
102
RTVSPost2010PropOp42
 70
     1
102
RTVSPost2010Prop43
 90
        3
102
RTVSPost2010PropOp43
 70
     1
102
RTVSPost2010Prop44ColorIndex
 90
        5
102
RTVSPost2010Prop44ColorRGB
 90
      255
102
RTVSPost2010PropOp44
 70
     1
102
RTVSPost2010Prop45
280
     0
102
RTVSPost2010PropOp45
 70
     1
102
RTVSPost2010Prop46
 90
       50
102
RTVSPost2010PropOp46
 70
     1
102
RTVSPost2010Prop47
 90
       50
102
RTVSPost2010PropOp47
 70
     1
102
RTVSPost2010Prop48
 90
       50
102
RTVSPost2010PropOp48
 70
     1
102
RTVSPost2010Prop49
280
     0
102
RTVSPost2010PropOp49
 70
     1
102
RTVSPost2010Prop50
 90
       50
102
RTVSPost2010PropOp50
 70
     1
102
RTVSPost2010Prop51ColorIndex
 90
      256
102
RTVSPost2010Prop51ColorRGB
 90
-16777216
102
RTVSPost2010PropOp51
 70
     0
102
RTVSPost2010Prop52
140
1.0
102
RTVSPost2010PropOp52
 70
     0
102
RTVSPost2010Prop53
 90
        2
102
RTVSPost2010PropOp53
 70
     1
102
RTVSPost2010Prop54
  1
strokes_ogs.tif
102
RTVSPost2010PropOp54
 70
     1
102
RTVSPost2010Prop55
280
     0
102
RTVSPost2010PropOp55
 70
     1
102
RTVSPost2010Prop56
140
1.0
102
RTVSPost2010PropOp56
 70
     1
102
RTVSPost2010Prop57
140
1.0
102
RTVSPost2010PropOp57
 70
     1
  0
XRECORD
  5
C1
102
{ACAD_REACTORS
330
C0
102
}
330
C0
100
AcDbXrecord
280
     1
102
RTVSPropertyOp0
 70
     1
102
RTVSPropertyOp1
 70
     1
102
RTVSPropertyOp2
 70
     1
102
RTVSPropertyOp3
 70
     1
102
RTVSPropertyOp4
 70
     1
102
RTVSPropertyOp5
 70
     1
102
RTVSPropertyOp6
 70
     1
102
RTVSPropertyOp7
 70
     1
102
RTVSPropertyOp8
 70
     1
102
RTVSPropertyOp9
 70
     1
102
RTVSPropertyOp10
 70
     1
102
RTVSPropertyOp11
 70
     1
102
RTVSPropertyOp12
 70
     1
102
RTVSPropertyOp13
 70
     1
102
RTVSPropertyOp14
 70
     1
102
RTVSPropertyOp15
 70
     1
102
RTVSPropertyOp16
 70
     1
102
RTVSPropertyOp17
 70
     1
102
RTVSPropertyOp18
 70
     1
102
RTVSPropertyOp19
 70
     1
102
RTVSPropertyOp20
 70
     1
102
RTVSPropertyOp21
 70
     1
102
RTVSPropertyOp22
 70
     1
102
RTVSPropertyOp23
 70
     1
102
RTVSPropertyOp24
 70
     1
102
RTVSPropertyOp25
 70
     1
102
RTVSPropertyOp26
 70
     1
102
RTVSPropertyOp27
 70
     1
102
RTVSPropertyOp28
 70
     1
102
RTVSPropertyOp29
 70
     1
102
RTVSPropertyOp30
 70
     1
102
RTVSPropertyOp31
 70
     1
102
RTVSPropertyOp32
 70
     1
102
RTVSPropertyOp33
 70
     1
102
RTVSPropertyOp34
 70
     1
102
RTVSPropertyOp35
 70
     1
102
RTVSPropertyOp36
 70
     1
102
RTVSPropertyOp37
 70
     1
102
RTVSPropertyOp38
 70
     1
102
RTVSPropertyOp39
 70
     1
102
RTVSPropertyOp40
 70
     1
102
RTVSPropertyOp41
 70
     1
102
RTVSPropertyOp42
 70
     1
102
RTVSPropertyOp43
 70
     1
102
RTVSPropertyOp44
 70
     1
102
RTVSPropertyOp45
 70
     1
102
RTVSPropertyOp46
 70
     1
102
RTVSPropertyOp47
 70
     1
102
RTVSPropertyOp48
 70
     1
102
RTVSPropertyOp49
 70
     1
102
RTVSPropertyOp50
 70
     1
102
RTVSPropertyOp51
 70
     0
102
RTVSPropertyOp52
 70
     0
102
RTVSPropertyOp53
 70
     1
102
RTVSPropertyOp54
 70
     1
102
RTVSPropertyOp55
 70
     1
102
RTVSPropertyOp56
 70
     1
102
RTVSPropertyOp57
 70
     1
102
RTVSPost2010Prop28
280
     0
102
RTVSPost2010PropOp28
 70
     1
102
RTVSPost2010Prop29
280
     1
102
RTVSPost2010PropOp29
 70
     1
102
RTVSPost2010Prop30
280
     1
102
RTVSPost2010PropOp30
 70
     1
102
RTVSPost2010Prop31
280
     0
102
RTVSPost2010PropOp31
 70
     1
102
RTVSPost2010Prop32
280
     0
102
RTVSPost2010PropOp32
 70
     1
102
RTVSPost2010Prop33
280
     0
102
RTVSPost2010PropOp33
 70
     1
102
RTVSPost2010Prop34
280
     0
102
RTVSPost2010PropOp34
 70
     1
102
RTVSPost2010Prop35
280
     0
102
RTVSPost2010PropOp35
 70
     1
102
RTVSPost2010Prop36
280
     0
102
RTVSPost2010PropOp36
 70
     1
102
RTVSPost2010Prop37
 90
       50
102
RTVSPost2010PropOp37
 70
     1
102
RTVSPost2010Prop38
140
0.0
102
RTVSPost2010PropOp38
 70
     1
102
RTVSPost2010Prop39
140
1.0
102
RTVSPost2010PropOp39
 70
     1
102
RTVSPost2010Prop40
 90
        0
102
RTVSPost2010PropOp40
 70
     1
102
RTVSPost2010Prop41ColorIndex
 90
       18
102
RTVSPost2010Prop41ColorRGB
 90
        0
102
RTVSPost2010PropOp41
 70
     1
102
RTVSPost2010Prop42
 90
       50
102
RTVSPost2010PropOp42
 70
     1
102
RTVSPost2010Prop43
 90
        3
102
RTVSPost2010PropOp43
 70
     1
102
RTVSPost2010Prop44ColorIndex
 90
        5
102
RTVSPost2010Prop44ColorRGB
 90
      255
102
RTVSPost2010PropOp44
 70
     1
102
RTVSPost2010Prop45
280
     0
102
RTVSPost2010PropOp45
 70
     1
102
RTVSPost2010Prop46
 90
       50
102
RTVSPost2010PropOp46
 70
     1
102
RTVSPost2010Prop47
 90
       50
102
RTVSPost2010PropOp47
 70
     1
102
RTVSPost2010Prop48
 90
       50
102
RTVSPost2010PropOp48
 70
     1
102
RTVSPost2010Prop49
280
     0
102
RTVSPost2010PropOp49
 70
     1
102
RTVSPost2010Prop50
 90
       50
102
RTVSPost2010PropOp50
 70
     1
102
RTVSPost2010Prop51ColorIndex
 90
      256
102
RTVSPost2010Prop51ColorRGB
 90
-16777216
102
RTVSPost2010PropOp51
 70
     0
102
RTVSPost2010Prop52
140
1.0
102
RTVSPost2010PropOp52
 70
     0
102
RTVSPost2010Prop53
 90
        2
102
RTVSPost2010PropOp53
 70
     1
102
RTVSPost2010Prop54
  1
strokes_ogs.tif
102
RTVSPost2010PropOp54
 70
     1
102
RTVSPost2010Prop55
280
     0
102
RTVSPost2010PropOp55
 70
     1
102
RTVSPost2010Prop56
140
1.0
102
RTVSPost2010PropOp56
 70
     1
102
RTVSPost2010Prop57
140
1.0
102
RTVSPost2010PropOp57
 70
     1
  0
XRECORD
  5
D1
102
{ACAD_REACTORS
330
D0
102
}
330
D0
100
AcDbXrecord
280
     1
102
RTVSPropertyOp0
 70
     0
102
RTVSPropertyOp1
 70
     0
102
RTVSPropertyOp2
 70
     0
102
RTVSPropertyOp3
 70
     0
102
RTVSPropertyOp4
 70
     0
102
RTVSPropertyOp5
 70
     0
102
RTVSPropertyOp6
 70
     0
102
RTVSPropertyOp7
 70
     0
102
RTVSPropertyOp8
 70
     0
102
RTVSPropertyOp9
 70
     0
102
RTVSPropertyOp10
 70
     0
102
RTVSPropertyOp11
 70
     0
102
RTVSPropertyOp12
 70
     0
102
RTVSPropertyOp13
 70
     0
102
RTVSPropertyOp14
 70
     2
102
RTVSPropertyOp15
 70
     0
102
RTVSPropertyOp16
 70
     0
102
RTVSPropertyOp17
 70
     0
102
RTVSPropertyOp18
 70
     0
102
RTVSPropertyOp19
 70
     0
102
RTVSPropertyOp20
 70
     0
102
RTVSPropertyOp21
 70
     0
102
RTVSPropertyOp22
 70
     0
102
RTVSPropertyOp23
 70
     0
102
RTVSPropertyOp24
 70
     0
102
RTVSPropertyOp25
 70
     0
102
RTVSPropertyOp26
 70
     0
102
RTVSPropertyOp27
 70
     0
102
RTVSPropertyOp28
 70
     0
102
RTVSPropertyOp29
 70
     0
102
RTVSPropertyOp30
 70
     0
102
RTVSPropertyOp31
 70
     0
102
RTVSPropertyOp32
 70
     0
102
RTVSPropertyOp33
 70
     0
102
RTVSPropertyOp34
 70
     0
102
RTVSPropertyOp35
 70
     0
102
RTVSPropertyOp36
 70
     0
102
RTVSPropertyOp37
 70
     0
102
RTVSPropertyOp38
 70
     0
102
RTVSPropertyOp39
 70
     0
102
RTVSPropertyOp40
 70
     0
102
RTVSPropertyOp41
 70
     0
102
RTVSPropertyOp42
 70
     0
102
RTVSPropertyOp43
 70
     0
102
RTVSPropertyOp44
 70
     0
102
RTVSPropertyOp45
 70
     0
102
RTVSPropertyOp46
 70
     0
102
RTVSPropertyOp47
 70
     0
102
RTVSPropertyOp48
 70
     0
102
RTVSPropertyOp49
 70
     0
102
RTVSPropertyOp50
 70
     0
102
RTVSPropertyOp51
 70
     0
102
RTVSPropertyOp52
 70
     0
102
RTVSPropertyOp53
 70
     0
102
RTVSPropertyOp54
 70
     0
102
RTVSPropertyOp55
 70
     0
102
RTVSPropertyOp56
 70
     0
102
RTVSPropertyOp57
 70
     0
102
RTVSPost2010Prop28
280
     0
102
RTVSPost2010PropOp28
 70
     0
102
RTVSPost2010Prop29
280
     1
102
RTVSPost2010PropOp29
 70
     0
102
RTVSPost2010Prop30
280
     1
102
RTVSPost2010PropOp30
 70
     0
102
RTVSPost2010Prop31
280
     0
102
RTVSPost2010PropOp31
 70
     0
102
RTVSPost2010Prop32
280
     0
102
RTVSPost2010PropOp32
 70
     0
102
RTVSPost2010Prop33
280
     0
102
RTVSPost2010PropOp33
 70
     0
102
RTVSPost2010Prop34
280
     0
102
RTVSPost2010PropOp34
 70
     0
102
RTVSPost2010Prop35
280
     0
102
RTVSPost2010PropOp35
 70
     0
102
RTVSPost2010Prop36
280
     0
102
RTVSPost2010PropOp36
 70
     0
102
RTVSPost2010Prop37
 90
       50
102
RTVSPost2010PropOp37
 70
     0
102
RTVSPost2010Prop38
140
0.0
102
RTVSPost2010PropOp38
 70
     0
102
RTVSPost2010Prop39
140
1.0
102
RTVSPost2010PropOp39
 70
     0
102
RTVSPost2010Prop40
 90
        0
102
RTVSPost2010PropOp40
 70
     0
102
RTVSPost2010Prop41ColorIndex
 90
       18
102
RTVSPost2010Prop41ColorRGB
 90
        0
102
RTVSPost2010PropOp41
 70
     0
102
RTVSPost2010Prop42
 90
       50
102
RTVSPost2010PropOp42
 70
     0
102
RTVSPost2010Prop43
 90
        3
102
RTVSPost2010PropOp43
 70
     0
102
RTVSPost2010Prop44ColorIndex
 90
        5
102
RTVSPost2010Prop44ColorRGB
 90
      255
102
RTVSPost2010PropOp44
 70
     0
102
RTVSPost2010Prop45
280
     0
102
RTVSPost2010PropOp45
 70
     0
102
RTVSPost2010Prop46
 90
       50
102
RTVSPost2010PropOp46
 70
     0
102
RTVSPost2010Prop47
 90
       50
102
RTVSPost2010PropOp47
 70
     0
102
RTVSPost2010Prop48
 90
       50
102
RTVSPost2010PropOp48
 70
     0
102
RTVSPost2010Prop49
280
     0
102
RTVSPost2010PropOp49
 70
     0
102
RTVSPost2010Prop50
 90
       50
102
RTVSPost2010PropOp50
 70
     0
102
RTVSPost2010Prop51ColorIndex
 90
      256
102
RTVSPost2010Prop51ColorRGB
 90
-16777216
102
RTVSPost2010PropOp51
 70
     0
102
RTVSPost2010Prop52
140
1.0
102
RTVSPost2010PropOp52
 70
     0
102
RTVSPost2010Prop53
 90
        2
102
RTVSPost2010PropOp53
 70
     0
102
RTVSPost2010Prop54
  1
strokes_ogs.tif
102
RTVSPost2010PropOp54
 70
     0
102
RTVSPost2010Prop55
280
     0
102
RTVSPost2010PropOp55
 70
     0
102
RTVSPost2010Prop56
140
1.0
102
RTVSPost2010PropOp56
 70
     0
102
RTVSPost2010Prop57
140
1.0
102
RTVSPost2010PropOp57
 70
     0
  0
XRECORD
  5
C9
102
{ACAD_REACTORS
330
C8
102
}
330
C8
100
AcDbXrecord
280
     1
102
RTVSPropertyOp0
 70
     1
102
RTVSPropertyOp1
 70
     1
102
RTVSPropertyOp2
 70
     1
102
RTVSPropertyOp3
 70
     1
102
RTVSPropertyOp4
 70
     1
102
RTVSPropertyOp5
 70
     1
102
RTVSPropertyOp6
 70
     1
102
RTVSPropertyOp7
 70
     1
102
RTVSPropertyOp8
 70
     1
102
RTVSPropertyOp9
 70
     1
102
RTVSPropertyOp10
 70
     1
102
RTVSPropertyOp11
 70
     1
102
RTVSPropertyOp12
 70
     1
102
RTVSPropertyOp13
 70
     1
102
RTVSPropertyOp14
 70
     1
102
RTVSPropertyOp15
 70
     1
102
RTVSPropertyOp16
 70
     1
102
RTVSPropertyOp17
 70
     1
102
RTVSPropertyOp18
 70
     1
102
RTVSPropertyOp19
 70
     1
102
RTVSPropertyOp20
 70
     1
102
RTVSPropertyOp21
 70
     1
102
RTVSPropertyOp22
 70
     1
102
RTVSPropertyOp23
 70
     1
102
RTVSPropertyOp24
 70
     1
102
RTVSPropertyOp25
 70
     1
102
RTVSPropertyOp26
 70
     1
102
RTVSPropertyOp27
 70
     1
102
RTVSPropertyOp28
 70
     1
102
RTVSPropertyOp29
 70
     1
102
RTVSPropertyOp30
 70
     1
102
RTVSPropertyOp31
 70
     1
102
RTVSPropertyOp32
 70
     1
102
RTVSPropertyOp33
 70
     1
102
RTVSPropertyOp34
 70
     1
102
RTVSPropertyOp35
 70
     1
102
RTVSPropertyOp36
 70
     1
102
RTVSPropertyOp37
 70
     1
102
RTVSPropertyOp38
 70
     1
102
RTVSPropertyOp39
 70
     1
102
RTVSPropertyOp40
 70
     1
102
RTVSPropertyOp41
 70
     1
102
RTVSPropertyOp42
 70
     1
102
RTVSPropertyOp43
 70
     1
102
RTVSPropertyOp44
 70
     1
102
RTVSPropertyOp45
 70
     1
102
RTVSPropertyOp46
 70
     1
102
RTVSPropertyOp47
 70
     1
102
RTVSPropertyOp48
 70
     1
102
RTVSPropertyOp49
 70
     1
102
RTVSPropertyOp50
 70
     1
102
RTVSPropertyOp51
 70
     0
102
RTVSPropertyOp52
 70
     0
102
RTVSPropertyOp53
 70
     1
102
RTVSPropertyOp54
 70
     1
102
RTVSPropertyOp55
 70
     1
102
RTVSPropertyOp56
 70
     1
102
RTVSPropertyOp57
 70
     1
102
RTVSPost2010Prop28
280
     0
102
RTVSPost2010PropOp28
 70
     1
102
RTVSPost2010Prop29
280
     1
102
RTVSPost2010PropOp29
 70
     1
102
RTVSPost2010Prop30
280
     1
102
RTVSPost2010PropOp30
 70
     1
102
RTVSPost2010Prop31
280
     0
102
RTVSPost2010PropOp31
 70
     1
102
RTVSPost2010Prop32
280
     0
102
RTVSPost2010PropOp32
 70
     1
102
RTVSPost2010Prop33
280
     0
102
RTVSPost2010PropOp33
 70
     1
102
RTVSPost2010Prop34
280
     0
102
RTVSPost2010PropOp34
 70
     1
102
RTVSPost2010Prop35
280
     0
102
RTVSPost2010PropOp35
 70
     1
102
RTVSPost2010Prop36
280
     0
102
RTVSPost2010PropOp36
 70
     1
102
RTVSPost2010Prop37
 90
       50
102
RTVSPost2010PropOp37
 70
     1
102
RTVSPost2010Prop38
140
0.0
102
RTVSPost2010PropOp38
 70
     1
102
RTVSPost2010Prop39
140
1.0
102
RTVSPost2010PropOp39
 70
     1
102
RTVSPost2010Prop40
 90
        0
102
RTVSPost2010PropOp40
 70
     1
102
RTVSPost2010Prop41ColorIndex
 90
       18
102
RTVSPost2010Prop41ColorRGB
 90
        0
102
RTVSPost2010PropOp41
 70
     1
102
RTVSPost2010Prop42
 90
       50
102
RTVSPost2010PropOp42
 70
     1
102
RTVSPost2010Prop43
 90
        3
102
RTVSPost2010PropOp43
 70
     1
102
RTVSPost2010Prop44ColorIndex
 90
        5
102
RTVSPost2010Prop44ColorRGB
 90
      255
102
RTVSPost2010PropOp44
 70
     1
102
RTVSPost2010Prop45
280
     0
102
RTVSPost2010PropOp45
 70
     1
102
RTVSPost2010Prop46
 90
       50
102
RTVSPost2010PropOp46
 70
     1
102
RTVSPost2010Prop47
 90
       50
102
RTVSPost2010PropOp47
 70
     1
102
RTVSPost2010Prop48
 90
       50
102
RTVSPost2010PropOp48
 70
     1
102
RTVSPost2010Prop49
280
     0
102
RTVSPost2010PropOp49
 70
     1
102
RTVSPost2010Prop50
 90
       50
102
RTVSPost2010PropOp50
 70
     1
102
RTVSPost2010Prop51ColorIndex
 90
      256
102
RTVSPost2010Prop51ColorRGB
 90
-16777216
102
RTVSPost2010PropOp51
 70
     0
102
RTVSPost2010Prop52
140
1.0
102
RTVSPost2010PropOp52
 70
     0
102
RTVSPost2010Prop53
 90
        2
102
RTVSPost2010PropOp53
 70
     1
102
RTVSPost2010Prop54
  1
strokes_ogs.tif
102
RTVSPost2010PropOp54
 70
     1
102
RTVSPost2010Prop55
280
     0
102
RTVSPost2010PropOp55
 70
     1
102
RTVSPost2010Prop56
140
1.0
102
RTVSPost2010PropOp56
 70
     1
102
RTVSPost2010Prop57
140
1.0
102
RTVSPost2010PropOp57
 70
     1
  0
XRECORD
  5
AF
102
{ACAD_REACTORS
330
AE
102
}
330
AE
100
AcDbXrecord
280
     1
102
RTVSPropertyOp0
 70
     1
102
RTVSPropertyOp1
 70
     1
102
RTVSPropertyOp2
 70
     1
102
RTVSPropertyOp3
 70
     1
102
RTVSPropertyOp4
 70
     1
102
RTVSPropertyOp5
 70
     1
102
RTVSPropertyOp6
 70
     1
102
RTVSPropertyOp7
 70
     1
102
RTVSPropertyOp8
 70
     1
102
RTVSPropertyOp9
 70
     1
102
RTVSPropertyOp10
 70
     1
102
RTVSPropertyOp11
 70
     1
102
RTVSPropertyOp12
 70
     1
102
RTVSPropertyOp13
 70
     1
102
RTVSPropertyOp14
 70
     1
102
RTVSPropertyOp15
 70
     1
102
RTVSPropertyOp16
 70
     1
102
RTVSPropertyOp17
 70
     1
102
RTVSPropertyOp18
 70
     1
102
RTVSPropertyOp19
 70
     1
102
RTVSPropertyOp20
 70
     1
102
RTVSPropertyOp21
 70
     1
102
RTVSPropertyOp22
 70
     1
102
RTVSPropertyOp23
 70
     1
102
RTVSPropertyOp24
 70
     1
102
RTVSPropertyOp25
 70
     1
102
RTVSPropertyOp26
 70
     1
102
RTVSPropertyOp27
 70
     1
102
RTVSPropertyOp28
 70
     1
102
RTVSPropertyOp29
 70
     1
102
RTVSPropertyOp30
 70
     1
102
RTVSPropertyOp31
 70
     1
102
RTVSPropertyOp32
 70
     1
102
RTVSPropertyOp33
 70
     1
102
RTVSPropertyOp34
 70
     1
102
RTVSPropertyOp35
 70
     1
102
RTVSPropertyOp36
 70
     1
102
RTVSPropertyOp37
 70
     1
102
RTVSPropertyOp38
 70
     1
102
RTVSPropertyOp39
 70
     1
102
RTVSPropertyOp40
 70
     1
102
RTVSPropertyOp41
 70
     1
102
RTVSPropertyOp42
 70
     1
102
RTVSPropertyOp43
 70
     1
102
RTVSPropertyOp44
 70
     1
102
RTVSPropertyOp45
 70
     1
102
RTVSPropertyOp46
 70
     1
102
RTVSPropertyOp47
 70
     1
102
RTVSPropertyOp48
 70
     1
102
RTVSPropertyOp49
 70
     1
102
RTVSPropertyOp50
 70
     1
102
RTVSPropertyOp51
 70
     0
102
RTVSPropertyOp52
 70
     0
102
RTVSPropertyOp53
 70
     1
102
RTVSPropertyOp54
 70
     1
102
RTVSPropertyOp55
 70
     1
102
RTVSPropertyOp56
 70
     1
102
RTVSPropertyOp57
 70
     1
102
RTVSPost2010Prop28
280
     0
102
RTVSPost2010PropOp28
 70
     1
102
RTVSPost2010Prop29
280
     1
102
RTVSPost2010PropOp29
 70
     1
102
RTVSPost2010Prop30
280
     1
102
RTVSPost2010PropOp30
 70
     1
102
RTVSPost2010Prop31
280
     0
102
RTVSPost2010PropOp31
 70
     1
102
RTVSPost2010Prop32
280
     0
102
RTVSPost2010PropOp32
 70
     1
102
RTVSPost2010Prop33
280
     0
102
RTVSPost2010PropOp33
 70
     1
102
RTVSPost2010Prop34
280
     0
102
RTVSPost2010PropOp34
 70
     1
102
RTVSPost2010Prop35
280
     0
102
RTVSPost2010PropOp35
 70
     1
102
RTVSPost2010Prop36
280
     0
102
RTVSPost2010PropOp36
 70
     1
102
RTVSPost2010Prop37
 90
       50
102
RTVSPost2010PropOp37
 70
     1
102
RTVSPost2010Prop38
140
0.0
102
RTVSPost2010PropOp38
 70
     1
102
RTVSPost2010Prop39
140
1.0
102
RTVSPost2010PropOp39
 70
     1
102
RTVSPost2010Prop40
 90
        0
102
RTVSPost2010PropOp40
 70
     1
102
RTVSPost2010Prop41ColorIndex
 90
       18
102
RTVSPost2010Prop41ColorRGB
 90
        0
102
RTVSPost2010PropOp41
 70
     1
102
RTVSPost2010Prop42
 90
       50
102
RTVSPost2010PropOp42
 70
     1
102
RTVSPost2010Prop43
 90
        3
102
RTVSPost2010PropOp43
 70
     1
102
RTVSPost2010Prop44ColorIndex
 90
        5
102
RTVSPost2010Prop44ColorRGB
 90
      255
102
RTVSPost2010PropOp44
 70
     1
102
RTVSPost2010Prop45
280
     0
102
RTVSPost2010PropOp45
 70
     1
102
RTVSPost2010Prop46
 90
       50
102
RTVSPost2010PropOp46
 70
     1
102
RTVSPost2010Prop47
 90
       50
102
RTVSPost2010PropOp47
 70
     1
102
RTVSPost2010Prop48
 90
       50
102
RTVSPost2010PropOp48
 70
     1
102
RTVSPost2010Prop49
280
     0
102
RTVSPost2010PropOp49
 70
     1
102
RTVSPost2010Prop50
 90
       50
102
RTVSPost2010PropOp50
 70
     1
102
RTVSPost2010Prop51ColorIndex
 90
      256
102
RTVSPost2010Prop51ColorRGB
 90
-16777216
102
RTVSPost2010PropOp51
 70
     0
102
RTVSPost2010Prop52
140
1.0
102
RTVSPost2010PropOp52
 70
     0
102
RTVSPost2010Prop53
 90
        2
102
RTVSPost2010PropOp53
 70
     1
102
RTVSPost2010Prop54
  1
strokes_ogs.tif
102
RTVSPost2010PropOp54
 70
     1
102
RTVSPost2010Prop55
280
     0
102
RTVSPost2010PropOp55
 70
     1
102
RTVSPost2010Prop56
140
1.0
102
RTVSPost2010PropOp56
 70
     1
102
RTVSPost2010Prop57
140
1.0
102
RTVSPost2010PropOp57
 70
     1
  0
XRECORD
  5
B1
102
{ACAD_REACTORS
330
B0
102
}
330
B0
100
AcDbXrecord
280
     1
102
RTVSPropertyOp0
 70
     1
102
RTVSPropertyOp1
 70
     1
102
RTVSPropertyOp2
 70
     1
102
RTVSPropertyOp3
 70
     1
102
RTVSPropertyOp4
 70
     1
102
RTVSPropertyOp5
 70
     1
102
RTVSPropertyOp6
 70
     1
102
RTVSPropertyOp7
 70
     1
102
RTVSPropertyOp8
 70
     1
102
RTVSPropertyOp9
 70
     1
102
RTVSPropertyOp10
 70
     1
102
RTVSPropertyOp11
 70
     1
102
RTVSPropertyOp12
 70
     1
102
RTVSPropertyOp13
 70
     1
102
RTVSPropertyOp14
 70
     1
102
RTVSPropertyOp15
 70
     1
102
RTVSPropertyOp16
 70
     1
102
RTVSPropertyOp17
 70
     1
102
RTVSPropertyOp18
 70
     1
102
RTVSPropertyOp19
 70
     1
102
RTVSPropertyOp20
 70
     1
102
RTVSPropertyOp21
 70
     1
102
RTVSPropertyOp22
 70
     1
102
RTVSPropertyOp23
 70
     1
102
RTVSPropertyOp24
 70
     1
102
RTVSPropertyOp25
 70
     1
102
RTVSPropertyOp26
 70
     1
102
RTVSPropertyOp27
 70
     1
102
RTVSPropertyOp28
 70
     1
102
RTVSPropertyOp29
 70
     1
102
RTVSPropertyOp30
 70
     1
102
RTVSPropertyOp31
 70
     1
102
RTVSPropertyOp32
 70
     1
102
RTVSPropertyOp33
 70
     1
102
RTVSPropertyOp34
 70
     1
102
RTVSPropertyOp35
 70
     1
102
RTVSPropertyOp36
 70
     1
102
RTVSPropertyOp37
 70
     1
102
RTVSPropertyOp38
 70
     1
102
RTVSPropertyOp39
 70
     1
102
RTVSPropertyOp40
 70
     1
102
RTVSPropertyOp41
 70
     1
102
RTVSPropertyOp42
 70
     1
102
RTVSPropertyOp43
 70
     1
102
RTVSPropertyOp44
 70
     1
102
RTVSPropertyOp45
 70
     1
102
RTVSPropertyOp46
 70
     1
102
RTVSPropertyOp47
 70
     1
102
RTVSPropertyOp48
 70
     1
102
RTVSPropertyOp49
 70
     1
102
RTVSPropertyOp50
 70
     1
102
RTVSPropertyOp51
 70
     0
102
RTVSPropertyOp52
 70
     0
102
RTVSPropertyOp53
 70
     1
102
RTVSPropertyOp54
 70
     1
102
RTVSPropertyOp55
 70
     1
102
RTVSPropertyOp56
 70
     1
102
RTVSPropertyOp57
 70
     1
102
RTVSPost2010Prop28
280
     0
102
RTVSPost2010PropOp28
 70
     1
102
RTVSPost2010Prop29
280
     1
102
RTVSPost2010PropOp29
 70
     1
102
RTVSPost2010Prop30
280
     1
102
RTVSPost2010PropOp30
 70
     1
102
RTVSPost2010Prop31
280
     0
102
RTVSPost2010PropOp31
 70
     1
102
RTVSPost2010Prop32
280
     0
102
RTVSPost2010PropOp32
 70
     1
102
RTVSPost2010Prop33
280
     0
102
RTVSPost2010PropOp33
 70
     1
102
RTVSPost2010Prop34
280
     0
102
RTVSPost2010PropOp34
 70
     1
102
RTVSPost2010Prop35
280
     0
102
RTVSPost2010PropOp35
 70
     1
102
RTVSPost2010Prop36
280
     0
102
RTVSPost2010PropOp36
 70
     1
102
RTVSPost2010Prop37
 90
       50
102
RTVSPost2010PropOp37
 70
     1
102
RTVSPost2010Prop38
140
0.0
102
RTVSPost2010PropOp38
 70
     1
102
RTVSPost2010Prop39
140
1.0
102
RTVSPost2010PropOp39
 70
     1
102
RTVSPost2010Prop40
 90
        0
102
RTVSPost2010PropOp40
 70
     1
102
RTVSPost2010Prop41ColorIndex
 90
       18
102
RTVSPost2010Prop41ColorRGB
 90
        0
102
RTVSPost2010PropOp41
 70
     1
102
RTVSPost2010Prop42
 90
       50
102
RTVSPost2010PropOp42
 70
     1
102
RTVSPost2010Prop43
 90
        3
102
RTVSPost2010PropOp43
 70
     1
102
RTVSPost2010Prop44ColorIndex
 90
        5
102
RTVSPost2010Prop44ColorRGB
 90
      255
102
RTVSPost2010PropOp44
 70
     1
102
RTVSPost2010Prop45
280
     0
102
RTVSPost2010PropOp45
 70
     1
102
RTVSPost2010Prop46
 90
       50
102
RTVSPost2010PropOp46
 70
     1
102
RTVSPost2010Prop47
 90
       50
102
RTVSPost2010PropOp47
 70
     1
102
RTVSPost2010Prop48
 90
       50
102
RTVSPost2010PropOp48
 70
     1
102
RTVSPost2010Prop49
280
     0
102
RTVSPost2010PropOp49
 70
     1
102
RTVSPost2010Prop50
 90
       50
102
RTVSPost2010PropOp50
 70
     1
102
RTVSPost2010Prop51ColorIndex
 90
      256
102
RTVSPost2010Prop51ColorRGB
 90
-16777216
102
RTVSPost2010PropOp51
 70
     0
102
RTVSPost2010Prop52
140
1.0
102
RTVSPost2010PropOp52
 70
     0
102
RTVSPost2010Prop53
 90
        2
102
RTVSPost2010PropOp53
 70
     1
102
RTVSPost2010Prop54
  1
strokes_ogs.tif
102
RTVSPost2010PropOp54
 70
     1
102
RTVSPost2010Prop55
280
     0
102
RTVSPost2010PropOp55
 70
     1
102
RTVSPost2010Prop56
140
1.0
102
RTVSPost2010PropOp56
 70
     1
102
RTVSPost2010Prop57
140
1.0
102
RTVSPost2010PropOp57
 70
     1
  0
XRECORD
  5
B3
102
{ACAD_REACTORS
330
B2
102
}
330
B2
100
AcDbXrecord
280
     1
102
RTVSPropertyOp0
 70
     1
102
RTVSPropertyOp1
 70
     1
102
RTVSPropertyOp2
 70
     1
102
RTVSPropertyOp3
 70
     1
102
RTVSPropertyOp4
 70
     1
102
RTVSPropertyOp5
 70
     1
102
RTVSPropertyOp6
 70
     1
102
RTVSPropertyOp7
 70
     1
102
RTVSPropertyOp8
 70
     1
102
RTVSPropertyOp9
 70
     1
102
RTVSPropertyOp10
 70
     1
102
RTVSPropertyOp11
 70
     1
102
RTVSPropertyOp12
 70
     1
102
RTVSPropertyOp13
 70
     1
102
RTVSPropertyOp14
 70
     1
102
RTVSPropertyOp15
 70
     1
102
RTVSPropertyOp16
 70
     1
102
RTVSPropertyOp17
 70
     1
102
RTVSPropertyOp18
 70
     1
102
RTVSPropertyOp19
 70
     1
102
RTVSPropertyOp20
 70
     1
102
RTVSPropertyOp21
 70
     1
102
RTVSPropertyOp22
 70
     1
102
RTVSPropertyOp23
 70
     1
102
RTVSPropertyOp24
 70
     1
102
RTVSPropertyOp25
 70
     1
102
RTVSPropertyOp26
 70
     1
102
RTVSPropertyOp27
 70
     1
102
RTVSPropertyOp28
 70
     1
102
RTVSPropertyOp29
 70
     1
102
RTVSPropertyOp30
 70
     1
102
RTVSPropertyOp31
 70
     1
102
RTVSPropertyOp32
 70
     1
102
RTVSPropertyOp33
 70
     1
102
RTVSPropertyOp34
 70
     1
102
RTVSPropertyOp35
 70
     1
102
RTVSPropertyOp36
 70
     1
102
RTVSPropertyOp37
 70
     1
102
RTVSPropertyOp38
 70
     1
102
RTVSPropertyOp39
 70
     1
102
RTVSPropertyOp40
 70
     1
102
RTVSPropertyOp41
 70
     1
102
RTVSPropertyOp42
 70
     1
102
RTVSPropertyOp43
 70
     1
102
RTVSPropertyOp44
 70
     1
102
RTVSPropertyOp45
 70
     1
102
RTVSPropertyOp46
 70
     1
102
RTVSPropertyOp47
 70
     1
102
RTVSPropertyOp48
 70
     1
102
RTVSPropertyOp49
 70
     1
102
RTVSPropertyOp50
 70
     1
102
RTVSPropertyOp51
 70
     0
102
RTVSPropertyOp52
 70
     0
102
RTVSPropertyOp53
 70
     1
102
RTVSPropertyOp54
 70
     1
102
RTVSPropertyOp55
 70
     1
102
RTVSPropertyOp56
 70
     1
102
RTVSPropertyOp57
 70
     1
102
RTVSPost2010Prop28
280
     0
102
RTVSPost2010PropOp28
 70
     1
102
RTVSPost2010Prop29
280
     1
102
RTVSPost2010PropOp29
 70
     1
102
RTVSPost2010Prop30
280
     1
102
RTVSPost2010PropOp30
 70
     1
102
RTVSPost2010Prop31
280
     0
102
RTVSPost2010PropOp31
 70
     1
102
RTVSPost2010Prop32
280
     0
102
RTVSPost2010PropOp32
 70
     1
102
RTVSPost2010Prop33
280
     0
102
RTVSPost2010PropOp33
 70
     1
102
RTVSPost2010Prop34
280
     0
102
RTVSPost2010PropOp34
 70
     1
102
RTVSPost2010Prop35
280
     0
102
RTVSPost2010PropOp35
 70
     1
102
RTVSPost2010Prop36
280
     0
102
RTVSPost2010PropOp36
 70
     1
102
RTVSPost2010Prop37
 90
       50
102
RTVSPost2010PropOp37
 70
     1
102
RTVSPost2010Prop38
140
0.0
102
RTVSPost2010PropOp38
 70
     1
102
RTVSPost2010Prop39
140
1.0
102
RTVSPost2010PropOp39
 70
     1
102
RTVSPost2010Prop40
 90
        0
102
RTVSPost2010PropOp40
 70
     1
102
RTVSPost2010Prop41ColorIndex
 90
       18
102
RTVSPost2010Prop41ColorRGB
 90
        0
102
RTVSPost2010PropOp41
 70
     1
102
RTVSPost2010Prop42
 90
       50
102
RTVSPost2010PropOp42
 70
     1
102
RTVSPost2010Prop43
 90
        3
102
RTVSPost2010PropOp43
 70
     1
102
RTVSPost2010Prop44ColorIndex
 90
        5
102
RTVSPost2010Prop44ColorRGB
 90
      255
102
RTVSPost2010PropOp44
 70
     1
102
RTVSPost2010Prop45
280
     0
102
RTVSPost2010PropOp45
 70
     1
102
RTVSPost2010Prop46
 90
       50
102
RTVSPost2010PropOp46
 70
     1
102
RTVSPost2010Prop47
 90
       50
102
RTVSPost2010PropOp47
 70
     1
102
RTVSPost2010Prop48
 90
       50
102
RTVSPost2010PropOp48
 70
     1
102
RTVSPost2010Prop49
280
     0
102
RTVSPost2010PropOp49
 70
     1
102
RTVSPost2010Prop50
 90
       50
102
RTVSPost2010PropOp50
 70
     1
102
RTVSPost2010Prop51ColorIndex
 90
      256
102
RTVSPost2010Prop51ColorRGB
 90
-16777216
102
RTVSPost2010PropOp51
 70
     0
102
RTVSPost2010Prop52
140
1.0
102
RTVSPost2010PropOp52
 70
     0
102
RTVSPost2010Prop53
 90
        2
102
RTVSPost2010PropOp53
 70
     1
102
RTVSPost2010Prop54
  1
strokes_ogs.tif
102
RTVSPost2010PropOp54
 70
     1
102
RTVSPost2010Prop55
280
     0
102
RTVSPost2010PropOp55
 70
     1
102
RTVSPost2010Prop56
140
1.0
102
RTVSPost2010PropOp56
 70
     1
102
RTVSPost2010Prop57
140
1.0
102
RTVSPost2010PropOp57
 70
     1
  0
XRECORD
  5
B5
102
{ACAD_REACTORS
330
B4
102
}
330
B4
100
AcDbXrecord
280
     1
102
RTVSPropertyOp0
 70
     1
102
RTVSPropertyOp1
 70
     1
102
RTVSPropertyOp2
 70
     1
102
RTVSPropertyOp3
 70
     1
102
RTVSPropertyOp4
 70
     1
102
RTVSPropertyOp5
 70
     1
102
RTVSPropertyOp6
 70
     1
102
RTVSPropertyOp7
 70
     1
102
RTVSPropertyOp8
 70
     1
102
RTVSPropertyOp9
 70
     1
102
RTVSPropertyOp10
 70
     1
102
RTVSPropertyOp11
 70
     1
102
RTVSPropertyOp12
 70
     1
102
RTVSPropertyOp13
 70
     1
102
RTVSPropertyOp14
 70
     1
102
RTVSPropertyOp15
 70
     1
102
RTVSPropertyOp16
 70
     1
102
RTVSPropertyOp17
 70
     1
102
RTVSPropertyOp18
 70
     1
102
RTVSPropertyOp19
 70
     1
102
RTVSPropertyOp20
 70
     1
102
RTVSPropertyOp21
 70
     1
102
RTVSPropertyOp22
 70
     1
102
RTVSPropertyOp23
 70
     1
102
RTVSPropertyOp24
 70
     1
102
RTVSPropertyOp25
 70
     1
102
RTVSPropertyOp26
 70
     1
102
RTVSPropertyOp27
 70
     1
102
RTVSPropertyOp28
 70
     1
102
RTVSPropertyOp29
 70
     1
102
RTVSPropertyOp30
 70
     1
102
RTVSPropertyOp31
 70
     1
102
RTVSPropertyOp32
 70
     1
102
RTVSPropertyOp33
 70
     1
102
RTVSPropertyOp34
 70
     1
102
RTVSPropertyOp35
 70
     1
102
RTVSPropertyOp36
 70
     1
102
RTVSPropertyOp37
 70
     1
102
RTVSPropertyOp38
 70
     1
102
RTVSPropertyOp39
 70
     1
102
RTVSPropertyOp40
 70
     1
102
RTVSPropertyOp41
 70
     1
102
RTVSPropertyOp42
 70
     1
102
RTVSPropertyOp43
 70
     1
102
RTVSPropertyOp44
 70
     1
102
RTVSPropertyOp45
 70
     1
102
RTVSPropertyOp46
 70
     1
102
RTVSPropertyOp47
 70
     1
102
RTVSPropertyOp48
 70
     1
102
RTVSPropertyOp49
 70
     1
102
RTVSPropertyOp50
 70
     1
102
RTVSPropertyOp51
 70
     0
102
RTVSPropertyOp52
 70
     0
102
RTVSPropertyOp53
 70
     1
102
RTVSPropertyOp54
 70
     1
102
RTVSPropertyOp55
 70
     1
102
RTVSPropertyOp56
 70
     1
102
RTVSPropertyOp57
 70
     1
102
RTVSPost2010Prop28
280
     0
102
RTVSPost2010PropOp28
 70
     1
102
RTVSPost2010Prop29
280
     1
102
RTVSPost2010PropOp29
 70
     1
102
RTVSPost2010Prop30
280
     1
102
RTVSPost2010PropOp30
 70
     1
102
RTVSPost2010Prop31
280
     0
102
RTVSPost2010PropOp31
 70
     1
102
RTVSPost2010Prop32
280
     0
102
RTVSPost2010PropOp32
 70
     1
102
RTVSPost2010Prop33
280
     0
102
RTVSPost2010PropOp33
 70
     1
102
RTVSPost2010Prop34
280
     0
102
RTVSPost2010PropOp34
 70
     1
102
RTVSPost2010Prop35
280
     0
102
RTVSPost2010PropOp35
 70
     1
102
RTVSPost2010Prop36
280
     0
102
RTVSPost2010PropOp36
 70
     1
102
RTVSPost2010Prop37
 90
       50
102
RTVSPost2010PropOp37
 70
     1
102
RTVSPost2010Prop38
140
0.0
102
RTVSPost2010PropOp38
 70
     1
102
RTVSPost2010Prop39
140
1.0
102
RTVSPost2010PropOp39
 70
     1
102
RTVSPost2010Prop40
 90
        0
102
RTVSPost2010PropOp40
 70
     1
102
RTVSPost2010Prop41ColorIndex
 90
       18
102
RTVSPost2010Prop41ColorRGB
 90
        0
102
RTVSPost2010PropOp41
 70
     1
102
RTVSPost2010Prop42
 90
       50
102
RTVSPost2010PropOp42
 70
     1
102
RTVSPost2010Prop43
 90
        3
102
RTVSPost2010PropOp43
 70
     1
102
RTVSPost2010Prop44ColorIndex
 90
        5
102
RTVSPost2010Prop44ColorRGB
 90
      255
102
RTVSPost2010PropOp44
 70
     1
102
RTVSPost2010Prop45
280
     0
102
RTVSPost2010PropOp45
 70
     1
102
RTVSPost2010Prop46
 90
       50
102
RTVSPost2010PropOp46
 70
     1
102
RTVSPost2010Prop47
 90
       50
102
RTVSPost2010PropOp47
 70
     1
102
RTVSPost2010Prop48
 90
       50
102
RTVSPost2010PropOp48
 70
     1
102
RTVSPost2010Prop49
280
     0
102
RTVSPost2010PropOp49
 70
     1
102
RTVSPost2010Prop50
 90
       50
102
RTVSPost2010PropOp50
 70
     1
102
RTVSPost2010Prop51ColorIndex
 90
      256
102
RTVSPost2010Prop51ColorRGB
 90
-16777216
102
RTVSPost2010PropOp51
 70
     0
102
RTVSPost2010Prop52
140
1.0
102
RTVSPost2010PropOp52
 70
     0
102
RTVSPost2010Prop53
 90
        2
102
RTVSPost2010PropOp53
 70
     1
102
RTVSPost2010Prop54
  1
strokes_ogs.tif
102
RTVSPost2010PropOp54
 70
     1
102
RTVSPost2010Prop55
280
     0
102
RTVSPost2010PropOp55
 70
     1
102
RTVSPost2010Prop56
140
1.0
102
RTVSPost2010PropOp56
 70
     1
102
RTVSPost2010Prop57
140
1.0
102
RTVSPost2010PropOp57
 70
     1
  0
XRECORD
  5
B9
102
{ACAD_REACTORS
330
B8
102
}
330
B8
100
AcDbXrecord
280
     1
102
RTVSPropertyOp0
 70
     1
102
RTVSPropertyOp1
 70
     1
102
RTVSPropertyOp2
 70
     1
102
RTVSPropertyOp3
 70
     1
102
RTVSPropertyOp4
 70
     1
102
RTVSPropertyOp5
 70
     1
102
RTVSPropertyOp6
 70
     1
102
RTVSPropertyOp7
 70
     1
102
RTVSPropertyOp8
 70
     1
102
RTVSPropertyOp9
 70
     1
102
RTVSPropertyOp10
 70
     1
102
RTVSPropertyOp11
 70
     1
102
RTVSPropertyOp12
 70
     1
102
RTVSPropertyOp13
 70
     1
102
RTVSPropertyOp14
 70
     1
102
RTVSPropertyOp15
 70
     1
102
RTVSPropertyOp16
 70
     1
102
RTVSPropertyOp17
 70
     1
102
RTVSPropertyOp18
 70
     1
102
RTVSPropertyOp19
 70
     1
102
RTVSPropertyOp20
 70
     1
102
RTVSPropertyOp21
 70
     1
102
RTVSPropertyOp22
 70
     1
102
RTVSPropertyOp23
 70
     1
102
RTVSPropertyOp24
 70
     1
102
RTVSPropertyOp25
 70
     1
102
RTVSPropertyOp26
 70
     1
102
RTVSPropertyOp27
 70
     1
102
RTVSPropertyOp28
 70
     1
102
RTVSPropertyOp29
 70
     1
102
RTVSPropertyOp30
 70
     1
102
RTVSPropertyOp31
 70
     1
102
RTVSPropertyOp32
 70
     1
102
RTVSPropertyOp33
 70
     1
102
RTVSPropertyOp34
 70
     1
102
RTVSPropertyOp35
 70
     1
102
RTVSPropertyOp36
 70
     1
102
RTVSPropertyOp37
 70
     1
102
RTVSPropertyOp38
 70
     1
102
RTVSPropertyOp39
 70
     1
102
RTVSPropertyOp40
 70
     1
102
RTVSPropertyOp41
 70
     1
102
RTVSPropertyOp42
 70
     1
102
RTVSPropertyOp43
 70
     1
102
RTVSPropertyOp44
 70
     1
102
RTVSPropertyOp45
 70
     1
102
RTVSPropertyOp46
 70
     1
102
RTVSPropertyOp47
 70
     1
102
RTVSPropertyOp48
 70
     1
102
RTVSPropertyOp49
 70
     1
102
RTVSPropertyOp50
 70
     1
102
RTVSPropertyOp51
 70
     0
102
RTVSPropertyOp52
 70
     0
102
RTVSPropertyOp53
 70
     1
102
RTVSPropertyOp54
 70
     1
102
RTVSPropertyOp55
 70
     1
102
RTVSPropertyOp56
 70
     1
102
RTVSPropertyOp57
 70
     1
102
RTVSPost2010Prop28
280
     0
102
RTVSPost2010PropOp28
 70
     1
102
RTVSPost2010Prop29
280
     1
102
RTVSPost2010PropOp29
 70
     1
102
RTVSPost2010Prop30
280
     1
102
RTVSPost2010PropOp30
 70
     1
102
RTVSPost2010Prop31
280
     0
102
RTVSPost2010PropOp31
 70
     1
102
RTVSPost2010Prop32
280
     0
102
RTVSPost2010PropOp32
 70
     1
102
RTVSPost2010Prop33
280
     0
102
RTVSPost2010PropOp33
 70
     1
102
RTVSPost2010Prop34
280
     0
102
RTVSPost2010PropOp34
 70
     1
102
RTVSPost2010Prop35
280
     0
102
RTVSPost2010PropOp35
 70
     1
102
RTVSPost2010Prop36
280
     0
102
RTVSPost2010PropOp36
 70
     1
102
RTVSPost2010Prop37
 90
       50
102
RTVSPost2010PropOp37
 70
     1
102
RTVSPost2010Prop38
140
0.0
102
RTVSPost2010PropOp38
 70
     1
102
RTVSPost2010Prop39
140
1.0
102
RTVSPost2010PropOp39
 70
     1
102
RTVSPost2010Prop40
 90
        0
102
RTVSPost2010PropOp40
 70
     1
102
RTVSPost2010Prop41ColorIndex
 90
       18
102
RTVSPost2010Prop41ColorRGB
 90
        0
102
RTVSPost2010PropOp41
 70
     1
102
RTVSPost2010Prop42
 90
       50
102
RTVSPost2010PropOp42
 70
     1
102
RTVSPost2010Prop43
 90
        3
102
RTVSPost2010PropOp43
 70
     1
102
RTVSPost2010Prop44ColorIndex
 90
        5
102
RTVSPost2010Prop44ColorRGB
 90
      255
102
RTVSPost2010PropOp44
 70
     1
102
RTVSPost2010Prop45
280
     0
102
RTVSPost2010PropOp45
 70
     1
102
RTVSPost2010Prop46
 90
       50
102
RTVSPost2010PropOp46
 70
     1
102
RTVSPost2010Prop47
 90
       50
102
RTVSPost2010PropOp47
 70
     1
102
RTVSPost2010Prop48
 90
       50
102
RTVSPost2010PropOp48
 70
     1
102
RTVSPost2010Prop49
280
     0
102
RTVSPost2010PropOp49
 70
     1
102
RTVSPost2010Prop50
 90
       50
102
RTVSPost2010PropOp50
 70
     1
102
RTVSPost2010Prop51ColorIndex
 90
      256
102
RTVSPost2010Prop51ColorRGB
 90
-16777216
102
RTVSPost2010PropOp51
 70
     0
102
RTVSPost2010Prop52
140
1.0
102
RTVSPost2010PropOp52
 70
     0
102
RTVSPost2010Prop53
 90
        2
102
RTVSPost2010PropOp53
 70
     1
102
RTVSPost2010Prop54
  1
strokes_ogs.tif
102
RTVSPost2010PropOp54
 70
     1
102
RTVSPost2010Prop55
280
     0
102
RTVSPost2010PropOp55
 70
     1
102
RTVSPost2010Prop56
140
1.0
102
RTVSPost2010PropOp56
 70
     1
102
RTVSPost2010Prop57
140
1.0
102
RTVSPost2010PropOp57
 70
     1
  0
XRECORD
  5
CD
102
{ACAD_REACTORS
330
CC
102
}
330
CC
100
AcDbXrecord
280
     1
102
RTVSPropertyOp0
 70
     0
102
RTVSPropertyOp1
 70
     0
102
RTVSPropertyOp2
 70
     0
102
RTVSPropertyOp3
 70
     0
102
RTVSPropertyOp4
 70
     0
102
RTVSPropertyOp5
 70
     0
102
RTVSPropertyOp6
 70
     0
102
RTVSPropertyOp7
 70
     0
102
RTVSPropertyOp8
 70
     0
102
RTVSPropertyOp9
 70
     0
102
RTVSPropertyOp10
 70
     0
102
RTVSPropertyOp11
 70
     0
102
RTVSPropertyOp12
 70
     0
102
RTVSPropertyOp13
 70
     0
102
RTVSPropertyOp14
 70
     2
102
RTVSPropertyOp15
 70
     0
102
RTVSPropertyOp16
 70
     0
102
RTVSPropertyOp17
 70
     0
102
RTVSPropertyOp18
 70
     0
102
RTVSPropertyOp19
 70
     0
102
RTVSPropertyOp20
 70
     0
102
RTVSPropertyOp21
 70
     0
102
RTVSPropertyOp22
 70
     0
102
RTVSPropertyOp23
 70
     0
102
RTVSPropertyOp24
 70
     0
102
RTVSPropertyOp25
 70
     0
102
RTVSPropertyOp26
 70
     0
102
RTVSPropertyOp27
 70
     0
102
RTVSPropertyOp28
 70
     0
102
RTVSPropertyOp29
 70
     0
102
RTVSPropertyOp30
 70
     0
102
RTVSPropertyOp31
 70
     0
102
RTVSPropertyOp32
 70
     0
102
RTVSPropertyOp33
 70
     0
102
RTVSPropertyOp34
 70
     0
102
RTVSPropertyOp35
 70
     0
102
RTVSPropertyOp36
 70
     0
102
RTVSPropertyOp37
 70
     0
102
RTVSPropertyOp38
 70
     0
102
RTVSPropertyOp39
 70
     0
102
RTVSPropertyOp40
 70
     0
102
RTVSPropertyOp41
 70
     0
102
RTVSPropertyOp42
 70
     0
102
RTVSPropertyOp43
 70
     0
102
RTVSPropertyOp44
 70
     0
102
RTVSPropertyOp45
 70
     0
102
RTVSPropertyOp46
 70
     0
102
RTVSPropertyOp47
 70
     0
102
RTVSPropertyOp48
 70
     0
102
RTVSPropertyOp49
 70
     0
102
RTVSPropertyOp50
 70
     0
102
RTVSPropertyOp51
 70
     0
102
RTVSPropertyOp52
 70
     0
102
RTVSPropertyOp53
 70
     0
102
RTVSPropertyOp54
 70
     0
102
RTVSPropertyOp55
 70
     0
102
RTVSPropertyOp56
 70
     0
102
RTVSPropertyOp57
 70
     0
102
RTVSPost2010Prop28
280
     0
102
RTVSPost2010PropOp28
 70
     0
102
RTVSPost2010Prop29
280
     1
102
RTVSPost2010PropOp29
 70
     0
102
RTVSPost2010Prop30
280
     1
102
RTVSPost2010PropOp30
 70
     0
102
RTVSPost2010Prop31
280
     0
102
RTVSPost2010PropOp31
 70
     0
102
RTVSPost2010Prop32
280
     0
102
RTVSPost2010PropOp32
 70
     0
102
RTVSPost2010Prop33
280
     0
102
RTVSPost2010PropOp33
 70
     0
102
RTVSPost2010Prop34
280
     0
102
RTVSPost2010PropOp34
 70
     0
102
RTVSPost2010Prop35
280
     0
102
RTVSPost2010PropOp35
 70
     0
102
RTVSPost2010Prop36
280
     0
102
RTVSPost2010PropOp36
 70
     0
102
RTVSPost2010Prop37
 90
       50
102
RTVSPost2010PropOp37
 70
     0
102
RTVSPost2010Prop38
140
0.0
102
RTVSPost2010PropOp38
 70
     0
102
RTVSPost2010Prop39
140
1.0
102
RTVSPost2010PropOp39
 70
     0
102
RTVSPost2010Prop40
 90
        0
102
RTVSPost2010PropOp40
 70
     0
102
RTVSPost2010Prop41ColorIndex
 90
       18
102
RTVSPost2010Prop41ColorRGB
 90
        0
102
RTVSPost2010PropOp41
 70
     0
102
RTVSPost2010Prop42
 90
       50
102
RTVSPost2010PropOp42
 70
     0
102
RTVSPost2010Prop43
 90
        3
102
RTVSPost2010PropOp43
 70
     0
102
RTVSPost2010Prop44ColorIndex
 90
        5
102
RTVSPost2010Prop44ColorRGB
 90
      255
102
RTVSPost2010PropOp44
 70
     0
102
RTVSPost2010Prop45
280
     0
102
RTVSPost2010PropOp45
 70
     0
102
RTVSPost2010Prop46
 90
       50
102
RTVSPost2010PropOp46
 70
     0
102
RTVSPost2010Prop47
 90
       50
102
RTVSPost2010PropOp47
 70
     0
102
RTVSPost2010Prop48
 90
       50
102
RTVSPost2010PropOp48
 70
     0
102
RTVSPost2010Prop49
280
     0
102
RTVSPost2010PropOp49
 70
     0
102
RTVSPost2010Prop50
 90
       50
102
RTVSPost2010PropOp50
 70
     0
102
RTVSPost2010Prop51ColorIndex
 90
      256
102
RTVSPost2010Prop51ColorRGB
 90
-16777216
102
RTVSPost2010PropOp51
 70
     0
102
RTVSPost2010Prop52
140
1.0
102
RTVSPost2010PropOp52
 70
     0
102
RTVSPost2010Prop53
 90
        2
102
RTVSPost2010PropOp53
 70
     0
102
RTVSPost2010Prop54
  1
strokes_ogs.tif
102
RTVSPost2010PropOp54
 70
     0
102
RTVSPost2010Prop55
280
     0
102
RTVSPost2010PropOp55
 70
     0
102
RTVSPost2010Prop56
140
1.0
102
RTVSPost2010PropOp56
 70
     0
102
RTVSPost2010Prop57
140
1.0
102
RTVSPost2010PropOp57
 70
     0
  0
XRECORD
  5
C7
102
{ACAD_REACTORS
330
C6
102
}
330
C6
100
AcDbXrecord
280
     1
102
RTVSPropertyOp0
 70
     1
102
RTVSPropertyOp1
 70
     1
102
RTVSPropertyOp2
 70
     1
102
RTVSPropertyOp3
 70
     1
102
RTVSPropertyOp4
 70
     1
102
RTVSPropertyOp5
 70
     1
102
RTVSPropertyOp6
 70
     1
102
RTVSPropertyOp7
 70
     1
102
RTVSPropertyOp8
 70
     1
102
RTVSPropertyOp9
 70
     1
102
RTVSPropertyOp10
 70
     1
102
RTVSPropertyOp11
 70
     1
102
RTVSPropertyOp12
 70
     1
102
RTVSPropertyOp13
 70
     1
102
RTVSPropertyOp14
 70
     1
102
RTVSPropertyOp15
 70
     1
102
RTVSPropertyOp16
 70
     1
102
RTVSPropertyOp17
 70
     1
102
RTVSPropertyOp18
 70
     1
102
RTVSPropertyOp19
 70
     1
102
RTVSPropertyOp20
 70
     1
102
RTVSPropertyOp21
 70
     1
102
RTVSPropertyOp22
 70
     1
102
RTVSPropertyOp23
 70
     1
102
RTVSPropertyOp24
 70
     1
102
RTVSPropertyOp25
 70
     1
102
RTVSPropertyOp26
 70
     1
102
RTVSPropertyOp27
 70
     1
102
RTVSPropertyOp28
 70
     1
102
RTVSPropertyOp29
 70
     1
102
RTVSPropertyOp30
 70
     1
102
RTVSPropertyOp31
 70
     1
102
RTVSPropertyOp32
 70
     1
102
RTVSPropertyOp33
 70
     1
102
RTVSPropertyOp34
 70
     1
102
RTVSPropertyOp35
 70
     1
102
RTVSPropertyOp36
 70
     1
102
RTVSPropertyOp37
 70
     1
102
RTVSPropertyOp38
 70
     1
102
RTVSPropertyOp39
 70
     1
102
RTVSPropertyOp40
 70
     1
102
RTVSPropertyOp41
 70
     1
102
RTVSPropertyOp42
 70
     1
102
RTVSPropertyOp43
 70
     1
102
RTVSPropertyOp44
 70
     1
102
RTVSPropertyOp45
 70
     1
102
RTVSPropertyOp46
 70
     1
102
RTVSPropertyOp47
 70
     1
102
RTVSPropertyOp48
 70
     1
102
RTVSPropertyOp49
 70
     1
102
RTVSPropertyOp50
 70
     1
102
RTVSPropertyOp51
 70
     0
102
RTVSPropertyOp52
 70
     0
102
RTVSPropertyOp53
 70
     1
102
RTVSPropertyOp54
 70
     1
102
RTVSPropertyOp55
 70
     1
102
RTVSPropertyOp56
 70
     1
102
RTVSPropertyOp57
 70
     1
102
RTVSPost2010Prop28
280
     0
102
RTVSPost2010PropOp28
 70
     1
102
RTVSPost2010Prop29
280
     1
102
RTVSPost2010PropOp29
 70
     1
102
RTVSPost2010Prop30
280
     1
102
RTVSPost2010PropOp30
 70
     1
102
RTVSPost2010Prop31
280
     0
102
RTVSPost2010PropOp31
 70
     1
102
RTVSPost2010Prop32
280
     0
102
RTVSPost2010PropOp32
 70
     1
102
RTVSPost2010Prop33
280
     0
102
RTVSPost2010PropOp33
 70
     1
102
RTVSPost2010Prop34
280
     0
102
RTVSPost2010PropOp34
 70
     1
102
RTVSPost2010Prop35
280
     0
102
RTVSPost2010PropOp35
 70
     1
102
RTVSPost2010Prop36
280
     0
102
RTVSPost2010PropOp36
 70
     1
102
RTVSPost2010Prop37
 90
       50
102
RTVSPost2010PropOp37
 70
     1
102
RTVSPost2010Prop38
140
0.0
102
RTVSPost2010PropOp38
 70
     1
102
RTVSPost2010Prop39
140
1.0
102
RTVSPost2010PropOp39
 70
     1
102
RTVSPost2010Prop40
 90
        0
102
RTVSPost2010PropOp40
 70
     1
102
RTVSPost2010Prop41ColorIndex
 90
       18
102
RTVSPost2010Prop41ColorRGB
 90
        0
102
RTVSPost2010PropOp41
 70
     1
102
RTVSPost2010Prop42
 90
       50
102
RTVSPost2010PropOp42
 70
     1
102
RTVSPost2010Prop43
 90
        3
102
RTVSPost2010PropOp43
 70
     1
102
RTVSPost2010Prop44ColorIndex
 90
        5
102
RTVSPost2010Prop44ColorRGB
 90
      255
102
RTVSPost2010PropOp44
 70
     1
102
RTVSPost2010Prop45
280
     0
102
RTVSPost2010PropOp45
 70
     1
102
RTVSPost2010Prop46
 90
       50
102
RTVSPost2010PropOp46
 70
     1
102
RTVSPost2010Prop47
 90
       50
102
RTVSPost2010PropOp47
 70
     1
102
RTVSPost2010Prop48
 90
       50
102
RTVSPost2010PropOp48
 70
     1
102
RTVSPost2010Prop49
280
     0
102
RTVSPost2010PropOp49
 70
     1
102
RTVSPost2010Prop50
 90
       50
102
RTVSPost2010PropOp50
 70
     1
102
RTVSPost2010Prop51ColorIndex
 90
      256
102
RTVSPost2010Prop51ColorRGB
 90
-16777216
102
RTVSPost2010PropOp51
 70
     0
102
RTVSPost2010Prop52
140
1.0
102
RTVSPost2010PropOp52
 70
     0
102
RTVSPost2010Prop53
 90
        2
102
RTVSPost2010PropOp53
 70
     1
102
RTVSPost2010Prop54
  1
strokes_ogs.tif
102
RTVSPost2010PropOp54
 70
     1
102
RTVSPost2010Prop55
280
     0
102
RTVSPost2010PropOp55
 70
     1
102
RTVSPost2010Prop56
140
1.0
102
RTVSPost2010PropOp56
 70
     1
102
RTVSPost2010Prop57
140
1.0
102
RTVSPost2010PropOp57
 70
     1
  0
XRECORD
  5
CF
102
{ACAD_REACTORS
330
CE
102
}
330
CE
100
AcDbXrecord
280
     1
102
RTVSPropertyOp0
 70
     0
102
RTVSPropertyOp1
 70
     0
102
RTVSPropertyOp2
 70
     0
102
RTVSPropertyOp3
 70
     0
102
RTVSPropertyOp4
 70
     0
102
RTVSPropertyOp5
 70
     0
102
RTVSPropertyOp6
 70
     0
102
RTVSPropertyOp7
 70
     0
102
RTVSPropertyOp8
 70
     0
102
RTVSPropertyOp9
 70
     0
102
RTVSPropertyOp10
 70
     0
102
RTVSPropertyOp11
 70
     0
102
RTVSPropertyOp12
 70
     0
102
RTVSPropertyOp13
 70
     0
102
RTVSPropertyOp14
 70
     2
102
RTVSPropertyOp15
 70
     0
102
RTVSPropertyOp16
 70
     0
102
RTVSPropertyOp17
 70
     0
102
RTVSPropertyOp18
 70
     0
102
RTVSPropertyOp19
 70
     0
102
RTVSPropertyOp20
 70
     0
102
RTVSPropertyOp21
 70
     0
102
RTVSPropertyOp22
 70
     0
102
RTVSPropertyOp23
 70
     0
102
RTVSPropertyOp24
 70
     0
102
RTVSPropertyOp25
 70
     0
102
RTVSPropertyOp26
 70
     0
102
RTVSPropertyOp27
 70
     0
102
RTVSPropertyOp28
 70
     0
102
RTVSPropertyOp29
 70
     0
102
RTVSPropertyOp30
 70
     0
102
RTVSPropertyOp31
 70
     0
102
RTVSPropertyOp32
 70
     0
102
RTVSPropertyOp33
 70
     0
102
RTVSPropertyOp34
 70
     0
102
RTVSPropertyOp35
 70
     0
102
RTVSPropertyOp36
 70
     0
102
RTVSPropertyOp37
 70
     0
102
RTVSPropertyOp38
 70
     0
102
RTVSPropertyOp39
 70
     0
102
RTVSPropertyOp40
 70
     0
102
RTVSPropertyOp41
 70
     0
102
RTVSPropertyOp42
 70
     0
102
RTVSPropertyOp43
 70
     0
102
RTVSPropertyOp44
 70
     0
102
RTVSPropertyOp45
 70
     0
102
RTVSPropertyOp46
 70
     0
102
RTVSPropertyOp47
 70
     0
102
RTVSPropertyOp48
 70
     0
102
RTVSPropertyOp49
 70
     0
102
RTVSPropertyOp50
 70
     0
102
RTVSPropertyOp51
 70
     0
102
RTVSPropertyOp52
 70
     0
102
RTVSPropertyOp53
 70
     0
102
RTVSPropertyOp54
 70
     0
102
RTVSPropertyOp55
 70
     0
102
RTVSPropertyOp56
 70
     0
102
RTVSPropertyOp57
 70
     0
102
RTVSPost2010Prop28
280
     0
102
RTVSPost2010PropOp28
 70
     0
102
RTVSPost2010Prop29
280
     1
102
RTVSPost2010PropOp29
 70
     0
102
RTVSPost2010Prop30
280
     1
102
RTVSPost2010PropOp30
 70
     0
102
RTVSPost2010Prop31
280
     0
102
RTVSPost2010PropOp31
 70
     0
102
RTVSPost2010Prop32
280
     0
102
RTVSPost2010PropOp32
 70
     0
102
RTVSPost2010Prop33
280
     0
102
RTVSPost2010PropOp33
 70
     0
102
RTVSPost2010Prop34
280
     0
102
RTVSPost2010PropOp34
 70
     0
102
RTVSPost2010Prop35
280
     0
102
RTVSPost2010PropOp35
 70
     0
102
RTVSPost2010Prop36
280
     0
102
RTVSPost2010PropOp36
 70
     0
102
RTVSPost2010Prop37
 90
       50
102
RTVSPost2010PropOp37
 70
     0
102
RTVSPost2010Prop38
140
0.0
102
RTVSPost2010PropOp38
 70
     0
102
RTVSPost2010Prop39
140
1.0
102
RTVSPost2010PropOp39
 70
     0
102
RTVSPost2010Prop40
 90
        0
102
RTVSPost2010PropOp40
 70
     0
102
RTVSPost2010Prop41ColorIndex
 90
       18
102
RTVSPost2010Prop41ColorRGB
 90
        0
102
RTVSPost2010PropOp41
 70
     0
102
RTVSPost2010Prop42
 90
       50
102
RTVSPost2010PropOp42
 70
     0
102
RTVSPost2010Prop43
 90
        3
102
RTVSPost2010PropOp43
 70
     0
102
RTVSPost2010Prop44ColorIndex
 90
        5
102
RTVSPost2010Prop44ColorRGB
 90
      255
102
RTVSPost2010PropOp44
 70
     0
102
RTVSPost2010Prop45
280
     0
102
RTVSPost2010PropOp45
 70
     0
102
RTVSPost2010Prop46
 90
       50
102
RTVSPost2010PropOp46
 70
     0
102
RTVSPost2010Prop47
 90
       50
102
RTVSPost2010PropOp47
 70
     0
102
RTVSPost2010Prop48
 90
       50
102
RTVSPost2010PropOp48
 70
     0
102
RTVSPost2010Prop49
280
     0
102
RTVSPost2010PropOp49
 70
     0
102
RTVSPost2010Prop50
 90
       50
102
RTVSPost2010PropOp50
 70
     0
102
RTVSPost2010Prop51ColorIndex
 90
      256
102
RTVSPost2010Prop51ColorRGB
 90
-16777216
102
RTVSPost2010PropOp51
 70
     0
102
RTVSPost2010Prop52
140
1.0
102
RTVSPost2010PropOp52
 70
     0
102
RTVSPost2010Prop53
 90
        2
102
RTVSPost2010PropOp53
 70
     0
102
RTVSPost2010Prop54
  1
strokes_ogs.tif
102
RTVSPost2010PropOp54
 70
     0
102
RTVSPost2010Prop55
280
     0
102
RTVSPost2010PropOp55
 70
     0
102
RTVSPost2010Prop56
140
1.0
102
RTVSPost2010PropOp56
 70
     0
102
RTVSPost2010Prop57
140
1.0
102
RTVSPost2010PropOp57
 70
     0
  0
XRECORD
  5
BD
102
{ACAD_REACTORS
330
BC
102
}
330
BC
100
AcDbXrecord
280
     1
102
RTVSPropertyOp0
 70
     1
102
RTVSPropertyOp1
 70
     1
102
RTVSPropertyOp2
 70
     1
102
RTVSPropertyOp3
 70
     1
102
RTVSPropertyOp4
 70
     1
102
RTVSPropertyOp5
 70
     1
102
RTVSPropertyOp6
 70
     1
102
RTVSPropertyOp7
 70
     1
102
RTVSPropertyOp8
 70
     1
102
RTVSPropertyOp9
 70
     1
102
RTVSPropertyOp10
 70
     1
102
RTVSPropertyOp11
 70
     1
102
RTVSPropertyOp12
 70
     1
102
RTVSPropertyOp13
 70
     1
102
RTVSPropertyOp14
 70
     1
102
RTVSPropertyOp15
 70
     1
102
RTVSPropertyOp16
 70
     1
102
RTVSPropertyOp17
 70
     1
102
RTVSPropertyOp18
 70
     1
102
RTVSPropertyOp19
 70
     1
102
RTVSPropertyOp20
 70
     1
102
RTVSPropertyOp21
 70
     1
102
RTVSPropertyOp22
 70
     1
102
RTVSPropertyOp23
 70
     1
102
RTVSPropertyOp24
 70
     1
102
RTVSPropertyOp25
 70
     1
102
RTVSPropertyOp26
 70
     1
102
RTVSPropertyOp27
 70
     1
102
RTVSPropertyOp28
 70
     1
102
RTVSPropertyOp29
 70
     1
102
RTVSPropertyOp30
 70
     1
102
RTVSPropertyOp31
 70
     1
102
RTVSPropertyOp32
 70
     1
102
RTVSPropertyOp33
 70
     1
102
RTVSPropertyOp34
 70
     1
102
RTVSPropertyOp35
 70
     1
102
RTVSPropertyOp36
 70
     1
102
RTVSPropertyOp37
 70
     1
102
RTVSPropertyOp38
 70
     1
102
RTVSPropertyOp39
 70
     1
102
RTVSPropertyOp40
 70
     1
102
RTVSPropertyOp41
 70
     1
102
RTVSPropertyOp42
 70
     1
102
RTVSPropertyOp43
 70
     1
102
RTVSPropertyOp44
 70
     1
102
RTVSPropertyOp45
 70
     1
102
RTVSPropertyOp46
 70
     1
102
RTVSPropertyOp47
 70
     1
102
RTVSPropertyOp48
 70
     1
102
RTVSPropertyOp49
 70
     1
102
RTVSPropertyOp50
 70
     1
102
RTVSPropertyOp51
 70
     0
102
RTVSPropertyOp52
 70
     0
102
RTVSPropertyOp53
 70
     1
102
RTVSPropertyOp54
 70
     1
102
RTVSPropertyOp55
 70
     1
102
RTVSPropertyOp56
 70
     1
102
RTVSPropertyOp57
 70
     1
102
RTVSPost2010Prop28
280
     0
102
RTVSPost2010PropOp28
 70
     1
102
RTVSPost2010Prop29
280
     1
102
RTVSPost2010PropOp29
 70
     1
102
RTVSPost2010Prop30
280
     1
102
RTVSPost2010PropOp30
 70
     1
102
RTVSPost2010Prop31
280
     0
102
RTVSPost2010PropOp31
 70
     1
102
RTVSPost2010Prop32
280
     0
102
RTVSPost2010PropOp32
 70
     1
102
RTVSPost2010Prop33
280
     0
102
RTVSPost2010PropOp33
 70
     1
102
RTVSPost2010Prop34
280
     0
102
RTVSPost2010PropOp34
 70
     1
102
RTVSPost2010Prop35
280
     0
102
RTVSPost2010PropOp35
 70
     1
102
RTVSPost2010Prop36
280
     0
102
RTVSPost2010PropOp36
 70
     1
102
RTVSPost2010Prop37
 90
       50
102
RTVSPost2010PropOp37
 70
     1
102
RTVSPost2010Prop38
140
0.0
102
RTVSPost2010PropOp38
 70
     1
102
RTVSPost2010Prop39
140
1.0
102
RTVSPost2010PropOp39
 70
     1
102
RTVSPost2010Prop40
 90
        0
102
RTVSPost2010PropOp40
 70
     1
102
RTVSPost2010Prop41ColorIndex
 90
       18
102
RTVSPost2010Prop41ColorRGB
 90
        0
102
RTVSPost2010PropOp41
 70
     1
102
RTVSPost2010Prop42
 90
       50
102
RTVSPost2010PropOp42
 70
     1
102
RTVSPost2010Prop43
 90
        3
102
RTVSPost2010PropOp43
 70
     1
102
RTVSPost2010Prop44ColorIndex
 90
        5
102
RTVSPost2010Prop44ColorRGB
 90
      255
102
RTVSPost2010PropOp44
 70
     1
102
RTVSPost2010Prop45
280
     0
102
RTVSPost2010PropOp45
 70
     1
102
RTVSPost2010Prop46
 90
       50
102
RTVSPost2010PropOp46
 70
     1
102
RTVSPost2010Prop47
 90
       50
102
RTVSPost2010PropOp47
 70
     1
102
RTVSPost2010Prop48
 90
       50
102
RTVSPost2010PropOp48
 70
     1
102
RTVSPost2010Prop49
280
     0
102
RTVSPost2010PropOp49
 70
     1
102
RTVSPost2010Prop50
 90
       50
102
RTVSPost2010PropOp50
 70
     1
102
RTVSPost2010Prop51ColorIndex
 90
      256
102
RTVSPost2010Prop51ColorRGB
 90
-16777216
102
RTVSPost2010PropOp51
 70
     0
102
RTVSPost2010Prop52
140
1.0
102
RTVSPost2010PropOp52
 70
     0
102
RTVSPost2010Prop53
 90
        2
102
RTVSPost2010PropOp53
 70
     1
102
RTVSPost2010Prop54
  1
strokes_ogs.tif
102
RTVSPost2010PropOp54
 70
     1
102
RTVSPost2010Prop55
280
     0
102
RTVSPost2010PropOp55
 70
     1
102
RTVSPost2010Prop56
140
1.0
102
RTVSPost2010PropOp56
 70
     1
102
RTVSPost2010Prop57
140
1.0
102
RTVSPost2010PropOp57
 70
     1
  0
XRECORD
  5
DB
102
{ACAD_REACTORS
330
DA
102
}
330
DA
100
AcDbXrecord
280
     1
102
RTVSPropertyOp0
 70
     1
102
RTVSPropertyOp1
 70
     1
102
RTVSPropertyOp2
 70
     1
102
RTVSPropertyOp3
 70
     1
102
RTVSPropertyOp4
 70
     1
102
RTVSPropertyOp5
 70
     1
102
RTVSPropertyOp6
 70
     1
102
RTVSPropertyOp7
 70
     1
102
RTVSPropertyOp8
 70
     1
102
RTVSPropertyOp9
 70
     1
102
RTVSPropertyOp10
 70
     1
102
RTVSPropertyOp11
 70
     1
102
RTVSPropertyOp12
 70
     1
102
RTVSPropertyOp13
 70
     1
102
RTVSPropertyOp14
 70
     1
102
RTVSPropertyOp15
 70
     1
102
RTVSPropertyOp16
 70
     1
102
RTVSPropertyOp17
 70
     1
102
RTVSPropertyOp18
 70
     1
102
RTVSPropertyOp19
 70
     1
102
RTVSPropertyOp20
 70
     1
102
RTVSPropertyOp21
 70
     1
102
RTVSPropertyOp22
 70
     1
102
RTVSPropertyOp23
 70
     1
102
RTVSPropertyOp24
 70
     1
102
RTVSPropertyOp25
 70
     1
102
RTVSPropertyOp26
 70
     1
102
RTVSPropertyOp27
 70
     1
102
RTVSPropertyOp28
 70
     1
102
RTVSPropertyOp29
 70
     1
102
RTVSPropertyOp30
 70
     1
102
RTVSPropertyOp31
 70
     1
102
RTVSPropertyOp32
 70
     1
102
RTVSPropertyOp33
 70
     1
102
RTVSPropertyOp34
 70
     1
102
RTVSPropertyOp35
 70
     1
102
RTVSPropertyOp36
 70
     1
102
RTVSPropertyOp37
 70
     1
102
RTVSPropertyOp38
 70
     1
102
RTVSPropertyOp39
 70
     1
102
RTVSPropertyOp40
 70
     1
102
RTVSPropertyOp41
 70
     1
102
RTVSPropertyOp42
 70
     1
102
RTVSPropertyOp43
 70
     1
102
RTVSPropertyOp44
 70
     1
102
RTVSPropertyOp45
 70
     1
102
RTVSPropertyOp46
 70
     1
102
RTVSPropertyOp47
 70
     1
102
RTVSPropertyOp48
 70
     1
102
RTVSPropertyOp49
 70
     1
102
RTVSPropertyOp50
 70
     1
102
RTVSPropertyOp51
 70
     0
102
RTVSPropertyOp52
 70
     0
102
RTVSPropertyOp53
 70
     1
102
RTVSPropertyOp54
 70
     1
102
RTVSPropertyOp55
 70
     1
102
RTVSPropertyOp56
 70
     1
102
RTVSPropertyOp57
 70
     1
102
RTVSPost2010Prop28
280
     0
102
RTVSPost2010PropOp28
 70
     1
102
RTVSPost2010Prop29
280
     1
102
RTVSPost2010PropOp29
 70
     1
102
RTVSPost2010Prop30
280
     1
102
RTVSPost2010PropOp30
 70
     1
102
RTVSPost2010Prop31
280
     0
102
RTVSPost2010PropOp31
 70
     1
102
RTVSPost2010Prop32
280
     0
102
RTVSPost2010PropOp32
 70
     1
102
RTVSPost2010Prop33
280
     0
102
RTVSPost2010PropOp33
 70
     1
102
RTVSPost2010Prop34
280
     0
102
RTVSPost2010PropOp34
 70
     1
102
RTVSPost2010Prop35
280
     0
102
RTVSPost2010PropOp35
 70
     1
102
RTVSPost2010Prop36
280
     0
102
RTVSPost2010PropOp36
 70
     1
102
RTVSPost2010Prop37
 90
       50
102
RTVSPost2010PropOp37
 70
     1
102
RTVSPost2010Prop38
140
0.0
102
RTVSPost2010PropOp38
 70
     1
102
RTVSPost2010Prop39
140
1.0
102
RTVSPost2010PropOp39
 70
     1
102
RTVSPost2010Prop40
 90
        0
102
RTVSPost2010PropOp40
 70
     1
102
RTVSPost2010Prop41ColorIndex
 90
       18
102
RTVSPost2010Prop41ColorRGB
 90
        0
102
RTVSPost2010PropOp41
 70
     1
102
RTVSPost2010Prop42
 90
       50
102
RTVSPost2010PropOp42
 70
     1
102
RTVSPost2010Prop43
 90
        3
102
RTVSPost2010PropOp43
 70
     1
102
RTVSPost2010Prop44ColorIndex
 90
        5
102
RTVSPost2010Prop44ColorRGB
 90
      255
102
RTVSPost2010PropOp44
 70
     1
102
RTVSPost2010Prop45
280
     0
102
RTVSPost2010PropOp45
 70
     1
102
RTVSPost2010Prop46
 90
       50
102
RTVSPost2010PropOp46
 70
     1
102
RTVSPost2010Prop47
 90
       50
102
RTVSPost2010PropOp47
 70
     1
102
RTVSPost2010Prop48
 90
       50
102
RTVSPost2010PropOp48
 70
     1
102
RTVSPost2010Prop49
280
     0
102
RTVSPost2010PropOp49
 70
     1
102
RTVSPost2010Prop50
 90
       50
102
RTVSPost2010PropOp50
 70
     1
102
RTVSPost2010Prop51ColorIndex
 90
      256
102
RTVSPost2010Prop51ColorRGB
 90
-16777216
102
RTVSPost2010PropOp51
 70
     0
102
RTVSPost2010Prop52
140
1.0
102
RTVSPost2010PropOp52
 70
     0
102
RTVSPost2010Prop53
 90
        2
102
RTVSPost2010PropOp53
 70
     1
102
RTVSPost2010Prop54
  1
strokes_ogs.tif
102
RTVSPost2010PropOp54
 70
     1
102
RTVSPost2010Prop55
280
     0
102
RTVSPost2010PropOp55
 70
     1
102
RTVSPost2010Prop56
140
1.0
102
RTVSPost2010PropOp56
 70
     1
102
RTVSPost2010Prop57
140
1.0
102
RTVSPost2010PropOp57
 70
     1
  0
XRECORD
  5
D9
102
{ACAD_REACTORS
330
D8
102
}
330
D8
100
AcDbXrecord
280
     1
102
RTVSPropertyOp0
 70
     1
102
RTVSPropertyOp1
 70
     1
102
RTVSPropertyOp2
 70
     1
102
RTVSPropertyOp3
 70
     1
102
RTVSPropertyOp4
 70
     1
102
RTVSPropertyOp5
 70
     1
102
RTVSPropertyOp6
 70
     1
102
RTVSPropertyOp7
 70
     1
102
RTVSPropertyOp8
 70
     1
102
RTVSPropertyOp9
 70
     1
102
RTVSPropertyOp10
 70
     1
102
RTVSPropertyOp11
 70
     1
102
RTVSPropertyOp12
 70
     1
102
RTVSPropertyOp13
 70
     1
102
RTVSPropertyOp14
 70
     1
102
RTVSPropertyOp15
 70
     1
102
RTVSPropertyOp16
 70
     1
102
RTVSPropertyOp17
 70
     1
102
RTVSPropertyOp18
 70
     1
102
RTVSPropertyOp19
 70
     1
102
RTVSPropertyOp20
 70
     1
102
RTVSPropertyOp21
 70
     1
102
RTVSPropertyOp22
 70
     1
102
RTVSPropertyOp23
 70
     1
102
RTVSPropertyOp24
 70
     1
102
RTVSPropertyOp25
 70
     1
102
RTVSPropertyOp26
 70
     1
102
RTVSPropertyOp27
 70
     1
102
RTVSPropertyOp28
 70
     1
102
RTVSPropertyOp29
 70
     1
102
RTVSPropertyOp30
 70
     1
102
RTVSPropertyOp31
 70
     1
102
RTVSPropertyOp32
 70
     1
102
RTVSPropertyOp33
 70
     1
102
RTVSPropertyOp34
 70
     1
102
RTVSPropertyOp35
 70
     1
102
RTVSPropertyOp36
 70
     1
102
RTVSPropertyOp37
 70
     1
102
RTVSPropertyOp38
 70
     1
102
RTVSPropertyOp39
 70
     1
102
RTVSPropertyOp40
 70
     1
102
RTVSPropertyOp41
 70
     1
102
RTVSPropertyOp42
 70
     1
102
RTVSPropertyOp43
 70
     1
102
RTVSPropertyOp44
 70
     1
102
RTVSPropertyOp45
 70
     1
102
RTVSPropertyOp46
 70
     1
102
RTVSPropertyOp47
 70
     1
102
RTVSPropertyOp48
 70
     1
102
RTVSPropertyOp49
 70
     1
102
RTVSPropertyOp50
 70
     1
102
RTVSPropertyOp51
 70
     0
102
RTVSPropertyOp52
 70
     0
102
RTVSPropertyOp53
 70
     1
102
RTVSPropertyOp54
 70
     1
102
RTVSPropertyOp55
 70
     1
102
RTVSPropertyOp56
 70
     1
102
RTVSPropertyOp57
 70
     1
102
RTVSPost2010Prop28
280
     0
102
RTVSPost2010PropOp28
 70
     1
102
RTVSPost2010Prop29
280
     1
102
RTVSPost2010PropOp29
 70
     1
102
RTVSPost2010Prop30
280
     1
102
RTVSPost2010PropOp30
 70
     1
102
RTVSPost2010Prop31
280
     0
102
RTVSPost2010PropOp31
 70
     1
102
RTVSPost2010Prop32
280
     0
102
RTVSPost2010PropOp32
 70
     1
102
RTVSPost2010Prop33
280
     0
102
RTVSPost2010PropOp33
 70
     1
102
RTVSPost2010Prop34
280
     0
102
RTVSPost2010PropOp34
 70
     1
102
RTVSPost2010Prop35
280
     0
102
RTVSPost2010PropOp35
 70
     1
102
RTVSPost2010Prop36
280
     0
102
RTVSPost2010PropOp36
 70
     1
102
RTVSPost2010Prop37
 90
       50
102
RTVSPost2010PropOp37
 70
     1
102
RTVSPost2010Prop38
140
0.0
102
RTVSPost2010PropOp38
 70
     1
102
RTVSPost2010Prop39
140
1.0
102
RTVSPost2010PropOp39
 70
     1
102
RTVSPost2010Prop40
 90
        0
102
RTVSPost2010PropOp40
 70
     1
102
RTVSPost2010Prop41ColorIndex
 90
       18
102
RTVSPost2010Prop41ColorRGB
 90
        0
102
RTVSPost2010PropOp41
 70
     1
102
RTVSPost2010Prop42
 90
       50
102
RTVSPost2010PropOp42
 70
     1
102
RTVSPost2010Prop43
 90
        3
102
RTVSPost2010PropOp43
 70
     1
102
RTVSPost2010Prop44ColorIndex
 90
        5
102
RTVSPost2010Prop44ColorRGB
 90
      255
102
RTVSPost2010PropOp44
 70
     1
102
RTVSPost2010Prop45
280
     0
102
RTVSPost2010PropOp45
 70
     1
102
RTVSPost2010Prop46
 90
       50
102
RTVSPost2010PropOp46
 70
     1
102
RTVSPost2010Prop47
 90
       50
102
RTVSPost2010PropOp47
 70
     1
102
RTVSPost2010Prop48
 90
       50
102
RTVSPost2010PropOp48
 70
     1
102
RTVSPost2010Prop49
280
     0
102
RTVSPost2010PropOp49
 70
     1
102
RTVSPost2010Prop50
 90
       50
102
RTVSPost2010PropOp50
 70
     1
102
RTVSPost2010Prop51ColorIndex
 90
      256
102
RTVSPost2010Prop51ColorRGB
 90
-16777216
102
RTVSPost2010PropOp51
 70
     0
102
RTVSPost2010Prop52
140
1.0
102
RTVSPost2010PropOp52
 70
     0
102
RTVSPost2010Prop53
 90
        2
102
RTVSPost2010PropOp53
 70
     1
102
RTVSPost2010Prop54
  1
strokes_ogs.tif
102
RTVSPost2010PropOp54
 70
     1
102
RTVSPost2010Prop55
280
     0
102
RTVSPost2010PropOp55
 70
     1
102
RTVSPost2010Prop56
140
1.0
102
RTVSPost2010PropOp56
 70
     1
102
RTVSPost2010Prop57
140
1.0
102
RTVSPost2010PropOp57
 70
     1
  0
XRECORD
  5
D3
102
{ACAD_REACTORS
330
D2
102
}
330
D2
100
AcDbXrecord
280
     1
102
RTVSPropertyOp0
 70
     1
102
RTVSPropertyOp1
 70
     1
102
RTVSPropertyOp2
 70
     1
102
RTVSPropertyOp3
 70
     1
102
RTVSPropertyOp4
 70
     1
102
RTVSPropertyOp5
 70
     1
102
RTVSPropertyOp6
 70
     1
102
RTVSPropertyOp7
 70
     1
102
RTVSPropertyOp8
 70
     1
102
RTVSPropertyOp9
 70
     1
102
RTVSPropertyOp10
 70
     1
102
RTVSPropertyOp11
 70
     1
102
RTVSPropertyOp12
 70
     1
102
RTVSPropertyOp13
 70
     1
102
RTVSPropertyOp14
 70
     1
102
RTVSPropertyOp15
 70
     1
102
RTVSPropertyOp16
 70
     1
102
RTVSPropertyOp17
 70
     1
102
RTVSPropertyOp18
 70
     1
102
RTVSPropertyOp19
 70
     1
102
RTVSPropertyOp20
 70
     1
102
RTVSPropertyOp21
 70
     1
102
RTVSPropertyOp22
 70
     1
102
RTVSPropertyOp23
 70
     1
102
RTVSPropertyOp24
 70
     1
102
RTVSPropertyOp25
 70
     1
102
RTVSPropertyOp26
 70
     1
102
RTVSPropertyOp27
 70
     1
102
RTVSPropertyOp28
 70
     1
102
RTVSPropertyOp29
 70
     1
102
RTVSPropertyOp30
 70
     1
102
RTVSPropertyOp31
 70
     1
102
RTVSPropertyOp32
 70
     1
102
RTVSPropertyOp33
 70
     1
102
RTVSPropertyOp34
 70
     1
102
RTVSPropertyOp35
 70
     1
102
RTVSPropertyOp36
 70
     1
102
RTVSPropertyOp37
 70
     1
102
RTVSPropertyOp38
 70
     1
102
RTVSPropertyOp39
 70
     1
102
RTVSPropertyOp40
 70
     1
102
RTVSPropertyOp41
 70
     1
102
RTVSPropertyOp42
 70
     1
102
RTVSPropertyOp43
 70
     1
102
RTVSPropertyOp44
 70
     1
102
RTVSPropertyOp45
 70
     1
102
RTVSPropertyOp46
 70
     1
102
RTVSPropertyOp47
 70
     1
102
RTVSPropertyOp48
 70
     1
102
RTVSPropertyOp49
 70
     1
102
RTVSPropertyOp50
 70
     1
102
RTVSPropertyOp51
 70
     0
102
RTVSPropertyOp52
 70
     0
102
RTVSPropertyOp53
 70
     1
102
RTVSPropertyOp54
 70
     1
102
RTVSPropertyOp55
 70
     1
102
RTVSPropertyOp56
 70
     1
102
RTVSPropertyOp57
 70
     1
102
RTVSPost2010Prop28
280
     0
102
RTVSPost2010PropOp28
 70
     1
102
RTVSPost2010Prop29
280
     1
102
RTVSPost2010PropOp29
 70
     1
102
RTVSPost2010Prop30
280
     1
102
RTVSPost2010PropOp30
 70
     1
102
RTVSPost2010Prop31
280
     0
102
RTVSPost2010PropOp31
 70
     1
102
RTVSPost2010Prop32
280
     0
102
RTVSPost2010PropOp32
 70
     1
102
RTVSPost2010Prop33
280
     0
102
RTVSPost2010PropOp33
 70
     1
102
RTVSPost2010Prop34
280
     0
102
RTVSPost2010PropOp34
 70
     1
102
RTVSPost2010Prop35
280
     0
102
RTVSPost2010PropOp35
 70
     1
102
RTVSPost2010Prop36
280
     0
102
RTVSPost2010PropOp36
 70
     1
102
RTVSPost2010Prop37
 90
       50
102
RTVSPost2010PropOp37
 70
     1
102
RTVSPost2010Prop38
140
0.0
102
RTVSPost2010PropOp38
 70
     1
102
RTVSPost2010Prop39
140
1.0
102
RTVSPost2010PropOp39
 70
     1
102
RTVSPost2010Prop40
 90
        0
102
RTVSPost2010PropOp40
 70
     1
102
RTVSPost2010Prop41ColorIndex
 90
       18
102
RTVSPost2010Prop41ColorRGB
 90
        0
102
RTVSPost2010PropOp41
 70
     1
102
RTVSPost2010Prop42
 90
       50
102
RTVSPost2010PropOp42
 70
     1
102
RTVSPost2010Prop43
 90
        3
102
RTVSPost2010PropOp43
 70
     1
102
RTVSPost2010Prop44ColorIndex
 90
        5
102
RTVSPost2010Prop44ColorRGB
 90
      255
102
RTVSPost2010PropOp44
 70
     1
102
RTVSPost2010Prop45
280
     0
102
RTVSPost2010PropOp45
 70
     1
102
RTVSPost2010Prop46
 90
       50
102
RTVSPost2010PropOp46
 70
     1
102
RTVSPost2010Prop47
 90
       50
102
RTVSPost2010PropOp47
 70
     1
102
RTVSPost2010Prop48
 90
       50
102
RTVSPost2010PropOp48
 70
     1
102
RTVSPost2010Prop49
280
     0
102
RTVSPost2010PropOp49
 70
     1
102
RTVSPost2010Prop50
 90
       50
102
RTVSPost2010PropOp50
 70
     1
102
RTVSPost2010Prop51ColorIndex
 90
      256
102
RTVSPost2010Prop51ColorRGB
 90
-16777216
102
RTVSPost2010PropOp51
 70
     0
102
RTVSPost2010Prop52
140
1.0
102
RTVSPost2010PropOp52
 70
     0
102
RTVSPost2010Prop53
 90
        2
102
RTVSPost2010PropOp53
 70
     1
102
RTVSPost2010Prop54
  1
strokes_ogs.tif
102
RTVSPost2010PropOp54
 70
     1
102
RTVSPost2010Prop55
280
     0
102
RTVSPost2010PropOp55
 70
     1
102
RTVSPost2010Prop56
140
1.0
102
RTVSPost2010PropOp56
 70
     1
102
RTVSPost2010Prop57
140
1.0
102
RTVSPost2010PropOp57
 70
     1
  0
XRECORD
  5
D5
102
{ACAD_REACTORS
330
D4
102
}
330
D4
100
AcDbXrecord
280
     1
102
RTVSPropertyOp0
 70
     1
102
RTVSPropertyOp1
 70
     1
102
RTVSPropertyOp2
 70
     1
102
RTVSPropertyOp3
 70
     1
102
RTVSPropertyOp4
 70
     1
102
RTVSPropertyOp5
 70
     1
102
RTVSPropertyOp6
 70
     1
102
RTVSPropertyOp7
 70
     1
102
RTVSPropertyOp8
 70
     1
102
RTVSPropertyOp9
 70
     1
102
RTVSPropertyOp10
 70
     1
102
RTVSPropertyOp11
 70
     1
102
RTVSPropertyOp12
 70
     1
102
RTVSPropertyOp13
 70
     1
102
RTVSPropertyOp14
 70
     1
102
RTVSPropertyOp15
 70
     1
102
RTVSPropertyOp16
 70
     1
102
RTVSPropertyOp17
 70
     1
102
RTVSPropertyOp18
 70
     1
102
RTVSPropertyOp19
 70
     1
102
RTVSPropertyOp20
 70
     1
102
RTVSPropertyOp21
 70
     1
102
RTVSPropertyOp22
 70
     1
102
RTVSPropertyOp23
 70
     1
102
RTVSPropertyOp24
 70
     1
102
RTVSPropertyOp25
 70
     1
102
RTVSPropertyOp26
 70
     1
102
RTVSPropertyOp27
 70
     1
102
RTVSPropertyOp28
 70
     1
102
RTVSPropertyOp29
 70
     1
102
RTVSPropertyOp30
 70
     1
102
RTVSPropertyOp31
 70
     1
102
RTVSPropertyOp32
 70
     1
102
RTVSPropertyOp33
 70
     1
102
RTVSPropertyOp34
 70
     1
102
RTVSPropertyOp35
 70
     1
102
RTVSPropertyOp36
 70
     1
102
RTVSPropertyOp37
 70
     1
102
RTVSPropertyOp38
 70
     1
102
RTVSPropertyOp39
 70
     1
102
RTVSPropertyOp40
 70
     1
102
RTVSPropertyOp41
 70
     1
102
RTVSPropertyOp42
 70
     1
102
RTVSPropertyOp43
 70
     1
102
RTVSPropertyOp44
 70
     1
102
RTVSPropertyOp45
 70
     1
102
RTVSPropertyOp46
 70
     1
102
RTVSPropertyOp47
 70
     1
102
RTVSPropertyOp48
 70
     1
102
RTVSPropertyOp49
 70
     1
102
RTVSPropertyOp50
 70
     1
102
RTVSPropertyOp51
 70
     0
102
RTVSPropertyOp52
 70
     0
102
RTVSPropertyOp53
 70
     1
102
RTVSPropertyOp54
 70
     1
102
RTVSPropertyOp55
 70
     1
102
RTVSPropertyOp56
 70
     1
102
RTVSPropertyOp57
 70
     1
102
RTVSPost2010Prop28
280
     0
102
RTVSPost2010PropOp28
 70
     1
102
RTVSPost2010Prop29
280
     1
102
RTVSPost2010PropOp29
 70
     1
102
RTVSPost2010Prop30
280
     1
102
RTVSPost2010PropOp30
 70
     1
102
RTVSPost2010Prop31
280
     0
102
RTVSPost2010PropOp31
 70
     1
102
RTVSPost2010Prop32
280
     0
102
RTVSPost2010PropOp32
 70
     1
102
RTVSPost2010Prop33
280
     0
102
RTVSPost2010PropOp33
 70
     1
102
RTVSPost2010Prop34
280
     0
102
RTVSPost2010PropOp34
 70
     1
102
RTVSPost2010Prop35
280
     0
102
RTVSPost2010PropOp35
 70
     1
102
RTVSPost2010Prop36
280
     0
102
RTVSPost2010PropOp36
 70
     1
102
RTVSPost2010Prop37
 90
       50
102
RTVSPost2010PropOp37
 70
     1
102
RTVSPost2010Prop38
140
0.0
102
RTVSPost2010PropOp38
 70
     1
102
RTVSPost2010Prop39
140
1.0
102
RTVSPost2010PropOp39
 70
     1
102
RTVSPost2010Prop40
 90
        0
102
RTVSPost2010PropOp40
 70
     1
102
RTVSPost2010Prop41ColorIndex
 90
       18
102
RTVSPost2010Prop41ColorRGB
 90
        0
102
RTVSPost2010PropOp41
 70
     1
102
RTVSPost2010Prop42
 90
       50
102
RTVSPost2010PropOp42
 70
     1
102
RTVSPost2010Prop43
 90
        3
102
RTVSPost2010PropOp43
 70
     1
102
RTVSPost2010Prop44ColorIndex
 90
        5
102
RTVSPost2010Prop44ColorRGB
 90
      255
102
RTVSPost2010PropOp44
 70
     1
102
RTVSPost2010Prop45
280
     0
102
RTVSPost2010PropOp45
 70
     1
102
RTVSPost2010Prop46
 90
       50
102
RTVSPost2010PropOp46
 70
     1
102
RTVSPost2010Prop47
 90
       50
102
RTVSPost2010PropOp47
 70
     1
102
RTVSPost2010Prop48
 90
       50
102
RTVSPost2010PropOp48
 70
     1
102
RTVSPost2010Prop49
280
     0
102
RTVSPost2010PropOp49
 70
     1
102
RTVSPost2010Prop50
 90
       50
102
RTVSPost2010PropOp50
 70
     1
102
RTVSPost2010Prop51ColorIndex
 90
      256
102
RTVSPost2010Prop51ColorRGB
 90
-16777216
102
RTVSPost2010PropOp51
 70
     0
102
RTVSPost2010Prop52
140
1.0
102
RTVSPost2010PropOp52
 70
     0
102
RTVSPost2010Prop53
 90
        2
102
RTVSPost2010PropOp53
 70
     1
102
RTVSPost2010Prop54
  1
strokes_ogs.tif
102
RTVSPost2010PropOp54
 70
     1
102
RTVSPost2010Prop55
280
     0
102
RTVSPost2010PropOp55
 70
     1
102
RTVSPost2010Prop56
140
1.0
102
RTVSPost2010PropOp56
 70
     1
102
RTVSPost2010Prop57
140
1.0
102
RTVSPost2010PropOp57
 70
     1
  0
XRECORD
  5
C5
102
{ACAD_REACTORS
330
C4
102
}
330
C4
100
AcDbXrecord
280
     1
102
RTVSPropertyOp0
 70
     1
102
RTVSPropertyOp1
 70
     1
102
RTVSPropertyOp2
 70
     1
102
RTVSPropertyOp3
 70
     1
102
RTVSPropertyOp4
 70
     1
102
RTVSPropertyOp5
 70
     1
102
RTVSPropertyOp6
 70
     1
102
RTVSPropertyOp7
 70
     1
102
RTVSPropertyOp8
 70
     1
102
RTVSPropertyOp9
 70
     1
102
RTVSPropertyOp10
 70
     1
102
RTVSPropertyOp11
 70
     1
102
RTVSPropertyOp12
 70
     1
102
RTVSPropertyOp13
 70
     1
102
RTVSPropertyOp14
 70
     1
102
RTVSPropertyOp15
 70
     1
102
RTVSPropertyOp16
 70
     1
102
RTVSPropertyOp17
 70
     1
102
RTVSPropertyOp18
 70
     1
102
RTVSPropertyOp19
 70
     1
102
RTVSPropertyOp20
 70
     1
102
RTVSPropertyOp21
 70
     1
102
RTVSPropertyOp22
 70
     1
102
RTVSPropertyOp23
 70
     1
102
RTVSPropertyOp24
 70
     1
102
RTVSPropertyOp25
 70
     1
102
RTVSPropertyOp26
 70
     1
102
RTVSPropertyOp27
 70
     1
102
RTVSPropertyOp28
 70
     1
102
RTVSPropertyOp29
 70
     1
102
RTVSPropertyOp30
 70
     1
102
RTVSPropertyOp31
 70
     1
102
RTVSPropertyOp32
 70
     1
102
RTVSPropertyOp33
 70
     1
102
RTVSPropertyOp34
 70
     1
102
RTVSPropertyOp35
 70
     1
102
RTVSPropertyOp36
 70
     1
102
RTVSPropertyOp37
 70
     1
102
RTVSPropertyOp38
 70
     1
102
RTVSPropertyOp39
 70
     1
102
RTVSPropertyOp40
 70
     1
102
RTVSPropertyOp41
 70
     1
102
RTVSPropertyOp42
 70
     1
102
RTVSPropertyOp43
 70
     1
102
RTVSPropertyOp44
 70
     1
102
RTVSPropertyOp45
 70
     1
102
RTVSPropertyOp46
 70
     1
102
RTVSPropertyOp47
 70
     1
102
RTVSPropertyOp48
 70
     1
102
RTVSPropertyOp49
 70
     1
102
RTVSPropertyOp50
 70
     1
102
RTVSPropertyOp51
 70
     0
102
RTVSPropertyOp52
 70
     0
102
RTVSPropertyOp53
 70
     1
102
RTVSPropertyOp54
 70
     1
102
RTVSPropertyOp55
 70
     1
102
RTVSPropertyOp56
 70
     1
102
RTVSPropertyOp57
 70
     1
102
RTVSPost2010Prop28
280
     0
102
RTVSPost2010PropOp28
 70
     1
102
RTVSPost2010Prop29
280
     1
102
RTVSPost2010PropOp29
 70
     1
102
RTVSPost2010Prop30
280
     1
102
RTVSPost2010PropOp30
 70
     1
102
RTVSPost2010Prop31
280
     0
102
RTVSPost2010PropOp31
 70
     1
102
RTVSPost2010Prop32
280
     0
102
RTVSPost2010PropOp32
 70
     1
102
RTVSPost2010Prop33
280
     0
102
RTVSPost2010PropOp33
 70
     1
102
RTVSPost2010Prop34
280
     0
102
RTVSPost2010PropOp34
 70
     1
102
RTVSPost2010Prop35
280
     0
102
RTVSPost2010PropOp35
 70
     1
102
RTVSPost2010Prop36
280
     0
102
RTVSPost2010PropOp36
 70
     1
102
RTVSPost2010Prop37
 90
       50
102
RTVSPost2010PropOp37
 70
     1
102
RTVSPost2010Prop38
140
0.0
102
RTVSPost2010PropOp38
 70
     1
102
RTVSPost2010Prop39
140
1.0
102
RTVSPost2010PropOp39
 70
     1
102
RTVSPost2010Prop40
 90
        0
102
RTVSPost2010PropOp40
 70
     1
102
RTVSPost2010Prop41ColorIndex
 90
       18
102
RTVSPost2010Prop41ColorRGB
 90
        0
102
RTVSPost2010PropOp41
 70
     1
102
RTVSPost2010Prop42
 90
       50
102
RTVSPost2010PropOp42
 70
     1
102
RTVSPost2010Prop43
 90
        3
102
RTVSPost2010PropOp43
 70
     1
102
RTVSPost2010Prop44ColorIndex
 90
        5
102
RTVSPost2010Prop44ColorRGB
 90
      255
102
RTVSPost2010PropOp44
 70
     1
102
RTVSPost2010Prop45
280
     0
102
RTVSPost2010PropOp45
 70
     1
102
RTVSPost2010Prop46
 90
       50
102
RTVSPost2010PropOp46
 70
     1
102
RTVSPost2010Prop47
 90
       50
102
RTVSPost2010PropOp47
 70
     1
102
RTVSPost2010Prop48
 90
       50
102
RTVSPost2010PropOp48
 70
     1
102
RTVSPost2010Prop49
280
     0
102
RTVSPost2010PropOp49
 70
     1
102
RTVSPost2010Prop50
 90
       50
102
RTVSPost2010PropOp50
 70
     1
102
RTVSPost2010Prop51ColorIndex
 90
      256
102
RTVSPost2010Prop51ColorRGB
 90
-16777216
102
RTVSPost2010PropOp51
 70
     0
102
RTVSPost2010Prop52
140
1.0
102
RTVSPost2010PropOp52
 70
     0
102
RTVSPost2010Prop53
 90
        2
102
RTVSPost2010PropOp53
 70
     1
102
RTVSPost2010Prop54
  1
strokes_ogs.tif
102
RTVSPost2010PropOp54
 70
     1
102
RTVSPost2010Prop55
280
     0
102
RTVSPost2010PropOp55
 70
     1
102
RTVSPost2010Prop56
140
1.0
102
RTVSPost2010PropOp56
 70
     1
102
RTVSPost2010Prop57
140
1.0
102
RTVSPost2010PropOp57
 70
     1
  0
XRECORD
  5
B7
102
{ACAD_REACTORS
330
B6
102
}
330
B6
100
AcDbXrecord
280
     1
102
RTVSPropertyOp0
 70
     1
102
RTVSPropertyOp1
 70
     1
102
RTVSPropertyOp2
 70
     1
102
RTVSPropertyOp3
 70
     1
102
RTVSPropertyOp4
 70
     1
102
RTVSPropertyOp5
 70
     1
102
RTVSPropertyOp6
 70
     1
102
RTVSPropertyOp7
 70
     1
102
RTVSPropertyOp8
 70
     1
102
RTVSPropertyOp9
 70
     1
102
RTVSPropertyOp10
 70
     1
102
RTVSPropertyOp11
 70
     1
102
RTVSPropertyOp12
 70
     1
102
RTVSPropertyOp13
 70
     1
102
RTVSPropertyOp14
 70
     1
102
RTVSPropertyOp15
 70
     1
102
RTVSPropertyOp16
 70
     1
102
RTVSPropertyOp17
 70
     1
102
RTVSPropertyOp18
 70
     1
102
RTVSPropertyOp19
 70
     1
102
RTVSPropertyOp20
 70
     1
102
RTVSPropertyOp21
 70
     1
102
RTVSPropertyOp22
 70
     1
102
RTVSPropertyOp23
 70
     1
102
RTVSPropertyOp24
 70
     1
102
RTVSPropertyOp25
 70
     1
102
RTVSPropertyOp26
 70
     1
102
RTVSPropertyOp27
 70
     1
102
RTVSPropertyOp28
 70
     1
102
RTVSPropertyOp29
 70
     1
102
RTVSPropertyOp30
 70
     1
102
RTVSPropertyOp31
 70
     1
102
RTVSPropertyOp32
 70
     1
102
RTVSPropertyOp33
 70
     1
102
RTVSPropertyOp34
 70
     1
102
RTVSPropertyOp35
 70
     1
102
RTVSPropertyOp36
 70
     1
102
RTVSPropertyOp37
 70
     1
102
RTVSPropertyOp38
 70
     1
102
RTVSPropertyOp39
 70
     1
102
RTVSPropertyOp40
 70
     1
102
RTVSPropertyOp41
 70
     1
102
RTVSPropertyOp42
 70
     1
102
RTVSPropertyOp43
 70
     1
102
RTVSPropertyOp44
 70
     1
102
RTVSPropertyOp45
 70
     1
102
RTVSPropertyOp46
 70
     1
102
RTVSPropertyOp47
 70
     1
102
RTVSPropertyOp48
 70
     1
102
RTVSPropertyOp49
 70
     1
102
RTVSPropertyOp50
 70
     1
102
RTVSPropertyOp51
 70
     0
102
RTVSPropertyOp52
 70
     0
102
RTVSPropertyOp53
 70
     1
102
RTVSPropertyOp54
 70
     1
102
RTVSPropertyOp55
 70
     1
102
RTVSPropertyOp56
 70
     1
102
RTVSPropertyOp57
 70
     1
102
RTVSPost2010Prop28
280
     0
102
RTVSPost2010PropOp28
 70
     1
102
RTVSPost2010Prop29
280
     1
102
RTVSPost2010PropOp29
 70
     1
102
RTVSPost2010Prop30
280
     1
102
RTVSPost2010PropOp30
 70
     1
102
RTVSPost2010Prop31
280
     0
102
RTVSPost2010PropOp31
 70
     1
102
RTVSPost2010Prop32
280
     0
102
RTVSPost2010PropOp32
 70
     1
102
RTVSPost2010Prop33
280
     0
102
RTVSPost2010PropOp33
 70
     1
102
RTVSPost2010Prop34
280
     0
102
RTVSPost2010PropOp34
 70
     1
102
RTVSPost2010Prop35
280
     0
102
RTVSPost2010PropOp35
 70
     1
102
RTVSPost2010Prop36
280
     0
102
RTVSPost2010PropOp36
 70
     1
102
RTVSPost2010Prop37
 90
       50
102
RTVSPost2010PropOp37
 70
     1
102
RTVSPost2010Prop38
140
0.0
102
RTVSPost2010PropOp38
 70
     1
102
RTVSPost2010Prop39
140
1.0
102
RTVSPost2010PropOp39
 70
     1
102
RTVSPost2010Prop40
 90
        0
102
RTVSPost2010PropOp40
 70
     1
102
RTVSPost2010Prop41ColorIndex
 90
       18
102
RTVSPost2010Prop41ColorRGB
 90
        0
102
RTVSPost2010PropOp41
 70
     1
102
RTVSPost2010Prop42
 90
       50
102
RTVSPost2010PropOp42
 70
     1
102
RTVSPost2010Prop43
 90
        3
102
RTVSPost2010PropOp43
 70
     1
102
RTVSPost2010Prop44ColorIndex
 90
        5
102
RTVSPost2010Prop44ColorRGB
 90
      255
102
RTVSPost2010PropOp44
 70
     1
102
RTVSPost2010Prop45
280
     0
102
RTVSPost2010PropOp45
 70
     1
102
RTVSPost2010Prop46
 90
       50
102
RTVSPost2010PropOp46
 70
     1
102
RTVSPost2010Prop47
 90
       50
102
RTVSPost2010PropOp47
 70
     1
102
RTVSPost2010Prop48
 90
       50
102
RTVSPost2010PropOp48
 70
     1
102
RTVSPost2010Prop49
280
     0
102
RTVSPost2010PropOp49
 70
     1
102
RTVSPost2010Prop50
 90
       50
102
RTVSPost2010PropOp50
 70
     1
102
RTVSPost2010Prop51ColorIndex
 90
      256
102
RTVSPost2010Prop51ColorRGB
 90
-16777216
102
RTVSPost2010PropOp51
 70
     0
102
RTVSPost2010Prop52
140
1.0
102
RTVSPost2010PropOp52
 70
     0
102
RTVSPost2010Prop53
 90
        2
102
RTVSPost2010PropOp53
 70
     1
102
RTVSPost2010Prop54
  1
strokes_ogs.tif
102
RTVSPost2010PropOp54
 70
     1
102
RTVSPost2010Prop55
280
     0
102
RTVSPost2010PropOp55
 70
     1
102
RTVSPost2010Prop56
140
1.0
102
RTVSPost2010PropOp56
 70
     1
102
RTVSPost2010Prop57
140
1.0
102
RTVSPost2010PropOp57
 70
     1
  0
XRECORD
  5
D7
102
{ACAD_REACTORS
330
D6
102
}
330
D6
100
AcDbXrecord
280
     1
102
RTVSPropertyOp0
 70
     1
102
RTVSPropertyOp1
 70
     1
102
RTVSPropertyOp2
 70
     1
102
RTVSPropertyOp3
 70
     1
102
RTVSPropertyOp4
 70
     1
102
RTVSPropertyOp5
 70
     1
102
RTVSPropertyOp6
 70
     1
102
RTVSPropertyOp7
 70
     1
102
RTVSPropertyOp8
 70
     1
102
RTVSPropertyOp9
 70
     1
102
RTVSPropertyOp10
 70
     1
102
RTVSPropertyOp11
 70
     1
102
RTVSPropertyOp12
 70
     1
102
RTVSPropertyOp13
 70
     1
102
RTVSPropertyOp14
 70
     1
102
RTVSPropertyOp15
 70
     1
102
RTVSPropertyOp16
 70
     1
102
RTVSPropertyOp17
 70
     1
102
RTVSPropertyOp18
 70
     1
102
RTVSPropertyOp19
 70
     1
102
RTVSPropertyOp20
 70
     1
102
RTVSPropertyOp21
 70
     1
102
RTVSPropertyOp22
 70
     1
102
RTVSPropertyOp23
 70
     1
102
RTVSPropertyOp24
 70
     1
102
RTVSPropertyOp25
 70
     1
102
RTVSPropertyOp26
 70
     1
102
RTVSPropertyOp27
 70
     1
102
RTVSPropertyOp28
 70
     1
102
RTVSPropertyOp29
 70
     1
102
RTVSPropertyOp30
 70
     1
102
RTVSPropertyOp31
 70
     1
102
RTVSPropertyOp32
 70
     1
102
RTVSPropertyOp33
 70
     1
102
RTVSPropertyOp34
 70
     1
102
RTVSPropertyOp35
 70
     1
102
RTVSPropertyOp36
 70
     1
102
RTVSPropertyOp37
 70
     1
102
RTVSPropertyOp38
 70
     1
102
RTVSPropertyOp39
 70
     1
102
RTVSPropertyOp40
 70
     1
102
RTVSPropertyOp41
 70
     1
102
RTVSPropertyOp42
 70
     1
102
RTVSPropertyOp43
 70
     1
102
RTVSPropertyOp44
 70
     1
102
RTVSPropertyOp45
 70
     1
102
RTVSPropertyOp46
 70
     1
102
RTVSPropertyOp47
 70
     1
102
RTVSPropertyOp48
 70
     1
102
RTVSPropertyOp49
 70
     1
102
RTVSPropertyOp50
 70
     1
102
RTVSPropertyOp51
 70
     0
102
RTVSPropertyOp52
 70
     0
102
RTVSPropertyOp53
 70
     1
102
RTVSPropertyOp54
 70
     1
102
RTVSPropertyOp55
 70
     1
102
RTVSPropertyOp56
 70
     1
102
RTVSPropertyOp57
 70
     1
102
RTVSPost2010Prop28
280
     0
102
RTVSPost2010PropOp28
 70
     1
102
RTVSPost2010Prop29
280
     1
102
RTVSPost2010PropOp29
 70
     1
102
RTVSPost2010Prop30
280
     1
102
RTVSPost2010PropOp30
 70
     1
102
RTVSPost2010Prop31
280
     0
102
RTVSPost2010PropOp31
 70
     1
102
RTVSPost2010Prop32
280
     0
102
RTVSPost2010PropOp32
 70
     1
102
RTVSPost2010Prop33
280
     0
102
RTVSPost2010PropOp33
 70
     1
102
RTVSPost2010Prop34
280
     0
102
RTVSPost2010PropOp34
 70
     1
102
RTVSPost2010Prop35
280
     0
102
RTVSPost2010PropOp35
 70
     1
102
RTVSPost2010Prop36
280
     0
102
RTVSPost2010PropOp36
 70
     1
102
RTVSPost2010Prop37
 90
       50
102
RTVSPost2010PropOp37
 70
     1
102
RTVSPost2010Prop38
140
0.0
102
RTVSPost2010PropOp38
 70
     1
102
RTVSPost2010Prop39
140
1.0
102
RTVSPost2010PropOp39
 70
     1
102
RTVSPost2010Prop40
 90
        0
102
RTVSPost2010PropOp40
 70
     1
102
RTVSPost2010Prop41ColorIndex
 90
       18
102
RTVSPost2010Prop41ColorRGB
 90
        0
102
RTVSPost2010PropOp41
 70
     1
102
RTVSPost2010Prop42
 90
       50
102
RTVSPost2010PropOp42
 70
     1
102
RTVSPost2010Prop43
 90
        3
102
RTVSPost2010PropOp43
 70
     1
102
RTVSPost2010Prop44ColorIndex
 90
        5
102
RTVSPost2010Prop44ColorRGB
 90
      255
102
RTVSPost2010PropOp44
 70
     1
102
RTVSPost2010Prop45
280
     0
102
RTVSPost2010PropOp45
 70
     1
102
RTVSPost2010Prop46
 90
       50
102
RTVSPost2010PropOp46
 70
     1
102
RTVSPost2010Prop47
 90
       50
102
RTVSPost2010PropOp47
 70
     1
102
RTVSPost2010Prop48
 90
       50
102
RTVSPost2010PropOp48
 70
     1
102
RTVSPost2010Prop49
280
     0
102
RTVSPost2010PropOp49
 70
     1
102
RTVSPost2010Prop50
 90
       50
102
RTVSPost2010PropOp50
 70
     1
102
RTVSPost2010Prop51ColorIndex
 90
      256
102
RTVSPost2010Prop51ColorRGB
 90
-16777216
102
RTVSPost2010PropOp51
 70
     0
102
RTVSPost2010Prop52
140
1.0
102
RTVSPost2010PropOp52
 70
     0
102
RTVSPost2010Prop53
 90
        2
102
RTVSPost2010PropOp53
 70
     1
102
RTVSPost2010Prop54
  1
strokes_ogs.tif
102
RTVSPost2010PropOp54
 70
     1
102
RTVSPost2010Prop55
280
     0
102
RTVSPost2010PropOp55
 70
     1
102
RTVSPost2010Prop56
140
1.0
102
RTVSPost2010PropOp56
 70
     1
102
RTVSPost2010Prop57
140
1.0
102
RTVSPost2010PropOp57
 70
     1
  0
ENDSEC
  0
EOF
