  0
SECTION
  2
HEADER
  9
$ACADVER
  1
AC1015
  9
$ACADMAINTVER
 70
     6
  9
$DWGCODEPAGE
  3
ANSI_1252
  9
$INSBASE
 10
160.7616492846822
 20
544.0472702083754
 30
0.0
  9
$EXTMIN
 10
144.8871963398415
 20
533.7162865171922
 30
0.0
  9
$EXTMAX
 10
176.0243955532497
 20
552.3656860460687
 30
0.0
  9
$LIMMIN
 10
0.0
 20
0.0
  9
$LIMMAX
 10
12.0
 20
9.0
  9
$ORTHOMODE
 70
     0
  9
$REGENMODE
 70
     1
  9
$FILLMODE
 70
     1
  9
$QTEXTMODE
 70
     0
  9
$MIRRTEXT
 70
     1
  9
$LTSCALE
 40
1.0
  9
$ATTMODE
 70
     1
  9
$TEXTSIZE
 40
0.2
  9
$TRACEWID
 40
0.05
  9
$TEXTSTYLE
  7
Standard
  9
$CLAYER
  8
0
  9
$CELTYPE
  6
ByLayer
  9
$CECOLOR
 62
   256
  9
$CELTSCALE
 40
1.0
  9
$DISPSILH
 70
     0
  9
$DIMSCALE
 40
1.0
  9
$DIMASZ
 40
0.18
  9
$DIMEXO
 40
0.0625
  9
$DIMDLI
 40
0.38
  9
$DIMRND
 40
0.0
  9
$DIMDLE
 40
0.0
  9
$DIMEXE
 40
0.18
  9
$DIMTP
 40
0.0
  9
$DIMTM
 40
0.0
  9
$DIMTXT
 40
0.18
  9
$DIMCEN
 40
0.09
  9
$DIMTSZ
 40
0.0
  9
$DIMTOL
 70
     0
  9
$DIMLIM
 70
     0
  9
$DIMTIH
 70
     1
  9
$DIMTOH
 70
     1
  9
$DIMSE1
 70
     0
  9
$DIMSE2
 70
     0
  9
$DIMTAD
 70
     0
  9
$DIMZIN
 70
     0
  9
$DIMBLK
  1

  9
$DIMASO
 70
     1
  9
$DIMSHO
 70
     1
  9
$DIMPOST
  1

  9
$DIMAPOST
  1

  9
$DIMALT
 70
     0
  9
$DIMALTD
 70
     2
  9
$DIMALTF
 40
25.4
  9
$DIMLFAC
 40
1.0
  9
$DIMTOFL
 70
     0
  9
$DIMTVP
 40
0.0
  9
$DIMTIX
 70
     0
  9
$DIMSOXD
 70
     0
  9
$DIMSAH
 70
     0
  9
$DIMBLK1
  1

  9
$DIMBLK2
  1

  9
$DIMSTYLE
  2
Standard
  9
$DIMCLRD
 70
     0
  9
$DIMCLRE
 70
     0
  9
$DIMCLRT
 70
     0
  9
$DIMTFAC
 40
1.0
  9
$DIMGAP
 40
0.09
  9
$DIMJUST
 70
     0
  9
$DIMSD1
 70
     0
  9
$DIMSD2
 70
     0
  9
$DIMTOLJ
 70
     1
  9
$DIMTZIN
 70
     0
  9
$DIMALTZ
 70
     0
  9
$DIMALTTZ
 70
     0
  9
$DIMUPT
 70
     0
  9
$DIMDEC
 70
     4
  9
$DIMTDEC
 70
     4
  9
$DIMALTU
 70
     2
  9
$DIMALTTD
 70
     2
  9
$DIMTXSTY
  7
Standard
  9
$DIMAUNIT
 70
     0
  9
$DIMADEC
 70
     0
  9
$DIMALTRND
 40
0.0
  9
$DIMAZIN
 70
     0
  9
$DIMDSEP
 70
    46
  9
$DIMATFIT
 70
     3
  9
$DIMFRAC
 70
     0
  9
$DIMLDRBLK
  1

  9
$DIMLUNIT
 70
     2
  9
$DIMLWD
 70
    -2
  9
$DIMLWE
 70
    -2
  9
$DIMTMOVE
 70
     0
  9
$LUNITS
 70
     2
  9
$LUPREC
 70
     4
  9
$SKETCHINC
 40
0.1
  9
$FILLETRAD
 40
0.5
  9
$AUNITS
 70
     0
  9
$AUPREC
 70
     0
  9
$MENU
  1
.
  9
$ELEVATION
 40
0.0
  9
$PELEVATION
 40
0.0
  9
$THICKNESS
 40
0.0
  9
$LIMCHECK
 70
     0
  9
$CHAMFERA
 40
0.5
  9
$CHAMFERB
 40
0.5
  9
$CHAMFERC
 40
1.0
  9
$CHAMFERD
 40
0.0
  9
$SKPOLY
 70
     0
  9
$TDCREATE
 40
2458676.485268229
  9
$TDUCREATE
 40
2458676.651934896
  9
$TDUPDATE
 40
2458708.506857778
  9
$TDUUPDATE
 40
2458708.673524444
  9
$TDINDWG
 40
0.0332955324
  9
$TDUSRTIMER
 40
0.0332955324
  9
$USRTIMER
 70
     1
  9
$ANGBASE
 50
0.0
  9
$ANGDIR
 70
     0
  9
$PDMODE
 70
     0
  9
$PDSIZE
 40
0.0
  9
$PLINEWID
 40
0.0
  9
$SPLFRAME
 70
     0
  9
$SPLINETYPE
 70
     6
  9
$SPLINESEGS
 70
     8
  9
$HANDSEED
  5
EB
  9
$SURFTAB1
 70
     6
  9
$SURFTAB2
 70
     6
  9
$SURFTYPE
 70
     6
  9
$SURFU
 70
     6
  9
$SURFV
 70
     6
  9
$UCSBASE
  2

  9
$UCSNAME
  2

  9
$UCSORG
 10
0.0
 20
0.0
 30
0.0
  9
$UCSXDIR
 10
1.0
 20
0.0
 30
0.0
  9
$UCSYDIR
 10
0.0
 20
1.0
 30
0.0
  9
$UCSORTHOREF
  2

  9
$UCSORTHOVIEW
 70
     0
  9
$UCSORGTOP
 10
0.0
 20
0.0
 30
0.0
  9
$UCSORGBOTTOM
 10
0.0
 20
0.0
 30
0.0
  9
$UCSORGLEFT
 10
0.0
 20
0.0
 30
0.0
  9
$UCSORGRIGHT
 10
0.0
 20
0.0
 30
0.0
  9
$UCSORGFRONT
 10
0.0
 20
0.0
 30
0.0
  9
$UCSORGBACK
 10
0.0
 20
0.0
 30
0.0
  9
$PUCSBASE
  2

  9
$PUCSNAME
  2

  9
$PUCSORG
 10
0.0
 20
0.0
 30
0.0
  9
$PUCSXDIR
 10
1.0
 20
0.0
 30
0.0
  9
$PUCSYDIR
 10
0.0
 20
1.0
 30
0.0
  9
$PUCSORTHOREF
  2

  9
$PUCSORTHOVIEW
 70
     0
  9
$PUCSORGTOP
 10
0.0
 20
0.0
 30
0.0
  9
$PUCSORGBOTTOM
 10
0.0
 20
0.0
 30
0.0
  9
$PUCSORGLEFT
 10
0.0
 20
0.0
 30
0.0
  9
$PUCSORGRIGHT
 10
0.0
 20
0.0
 30
0.0
  9
$PUCSORGFRONT
 10
0.0
 20
0.0
 30
0.0
  9
$PUCSORGBACK
 10
0.0
 20
0.0
 30
0.0
  9
$USERI1
 70
     0
  9
$USERI2
 70
     0
  9
$USERI3
 70
     0
  9
$USERI4
 70
     0
  9
$USERI5
 70
     0
  9
$USERR1
 40
0.0
  9
$USERR2
 40
0.0
  9
$USERR3
 40
0.0
  9
$USERR4
 40
0.0
  9
$USERR5
 40
0.0
  9
$WORLDVIEW
 70
     1
  9
$SHADEDGE
 70
     3
  9
$SHADEDIF
 70
    70
  9
$TILEMODE
 70
     1
  9
$MAXACTVP
 70
    64
  9
$PINSBASE
 10
0.0
 20
0.0
 30
0.0
  9
$PLIMCHECK
 70
     0
  9
$PEXTMIN
 10
1.000000000000000E+20
 20
1.000000000000000E+20
 30
1.000000000000000E+20
  9
$PEXTMAX
 10
-1.000000000000000E+20
 20
-1.000000000000000E+20
 30
-1.000000000000000E+20
  9
$PLIMMIN
 10
-0.25
 20
-0.25
  9
$PLIMMAX
 10
10.75
 20
8.25
  9
$UNITMODE
 70
     0
  9
$VISRETAIN
 70
     1
  9
$PLINEGEN
 70
     0
  9
$PSLTSCALE
 70
     1
  9
$TREEDEPTH
 70
  3020
  9
$CMLSTYLE
  2
Standard
  9
$CMLJUST
 70
     0
  9
$CMLSCALE
 40
1.0
  9
$PROXYGRAPHICS
 70
     1
  9
$MEASUREMENT
 70
     0
  9
$CELWEIGHT
370
    -1
  9
$ENDCAPS
280
     0
  9
$JOINSTYLE
280
     0
  9
$LWDISPLAY
290
     1
  9
$INSUNITS
 70
     1
  9
$HYPERLINKBASE
  1

  9
$STYLESHEET
  1

  9
$XEDIT
290
     1
  9
$CEPSNTYPE
380
     0
  9
$PSTYLEMODE
290
     1
  9
$FINGERPRINTGUID
  2
{3FF96223-F9C2-48F7-A4C5-C732E40B2087}
  9
$VERSIONGUID
  2
{FAEB1C32-E019-11D5-929B-00C0DF256EC4}
  9
$EXTNAMES
290
     1
  9
$PSVPSCALE
 40
0.0
  9
$OLESTARTUP
290
     0
  0
ENDSEC
  0
SECTION
  2
CLASSES
  0
CLASS
  1
ACDBDICTIONARYWDFLT
  2
AcDbDictionaryWithDefault
  3
ObjectDBX Classes
 90
        0
280
     0
281
     0
  0
CLASS
  1
MATERIAL
  2
AcDbMaterial
  3
ObjectDBX Classes
 90
     1153
280
     0
281
     0
  0
CLASS
  1
VISUALSTYLE
  2
AcDbVisualStyle
  3
ObjectDBX Classes
 90
     4095
280
     0
281
     0
  0
CLASS
  1
SUN
  2
AcDbSun
  3
SCENEOE
 90
     1153
280
     0
281
     0
  0
CLASS
  1
SCALE
  2
AcDbScale
  3
ObjectDBX Classes
 90
     1153
280
     0
281
     0
  0
CLASS
  1
DICTIONARYVAR
  2
AcDbDictionaryVar
  3
ObjectDBX Classes
 90
        0
280
     0
281
     0
  0
CLASS
  1
MLEADERSTYLE
  2
AcDbMLeaderStyle
  3
ACDB_MLEADERSTYLE_CLASS
 90
     4095
280
     0
281
     0
  0
CLASS
  1
TABLESTYLE
  2
AcDbTableStyle
  3
ObjectDBX Classes
 90
     4095
280
     0
281
     0
  0
CLASS
  1
ACDBPLACEHOLDER
  2
AcDbPlaceHolder
  3
ObjectDBX Classes
 90
        0
280
     0
281
     0
  0
CLASS
  1
LAYOUT
  2
AcDbLayout
  3
ObjectDBX Classes
 90
        0
280
     0
281
     0
  0
ENDSEC
  0
SECTION
  2
TABLES
  0
TABLE
  2
VPORT
  5
1F
102
{ACAD_XDICTIONARY
360
AF
102
}
330
0
100
AcDbSymbolTable
 70
     1
  0
VPORT
  5
25
330
1F
100
AcDbSymbolTableRecord
100
AcDbViewportTableRecord
  2
*Active
 70
     0
 10
0.0
 20
0.0
 11
1.0
 21
1.0
 12
160.4557959465455
 22
543.0409862816305
 13
0.0
 23
0.0
 14
0.5
 24
0.5
 15
0.5
 25
0.5
 16
0.0
 26
0.0
 36
1.0
 17
0.0
 27
0.0
 37
0.0
 40
19.02238751945406
 41
1.669608673737494
 42
50.0
 43
0.0
 44
0.0
 50
0.0
 51
0.0
 71
    16
 72
   100
 73
     1
 74
     3
 75
     0
 76
     0
 77
     0
 78
     0
281
     0
 65
     1
110
0.0
120
0.0
130
0.0
111
1.0
121
0.0
131
0.0
112
0.0
122
1.0
132
0.0
 79
     0
146
0.0
  0
ENDTAB
  0
TABLE
  2
LTYPE
  5
9
330
0
100
AcDbSymbolTable
 70
     1
  0
LTYPE
  5
A
330
9
100
AcDbSymbolTableRecord
100
AcDbLinetypeTableRecord
  2
ByBlock
 70
     0
  3

 72
    65
 73
     0
 40
0.0
  0
LTYPE
  5
B
330
9
100
AcDbSymbolTableRecord
100
AcDbLinetypeTableRecord
  2
ByLayer
 70
     0
  3

 72
    65
 73
     0
 40
0.0
  0
LTYPE
  5
8
330
9
100
AcDbSymbolTableRecord
100
AcDbLinetypeTableRecord
  2
Continuous
 70
     0
  3
Solid line
 72
    65
 73
     0
 40
0.0
  0
ENDTAB
  0
TABLE
  2
LAYER
  5
2
330
0
100
AcDbSymbolTable
 70
     2
  0
LAYER
  5
1
330
2
100
AcDbSymbolTableRecord
100
AcDbLayerTableRecord
  2
0
 70
     0
 62
     7
  6
Continuous
370
    -3
390
3
  0
LAYER
  5
4E
330
2
100
AcDbSymbolTableRecord
100
AcDbLayerTableRecord
  2
Layer 1
 70
     0
 62
     7
  6
Continuous
370
    -3
390
3
  0
ENDTAB
  0
TABLE
  2
STYLE
  5
D
330
0
100
AcDbSymbolTable
 70
     1
  0
STYLE
  5
C
330
D
100
AcDbSymbolTableRecord
100
AcDbTextStyleTableRecord
  2
Standard
 70
     0
 40
0.0
 41
1.0
 50
0.0
 71
     0
 42
0.2
  3
txt
  4

  0
ENDTAB
  0
TABLE
  2
VIEW
  5
1D
330
0
100
AcDbSymbolTable
 70
     0
  0
ENDTAB
  0
TABLE
  2
UCS
  5
1E
330
0
100
AcDbSymbolTable
 70
     0
  0
ENDTAB
  0
TABLE
  2
APPID
  5
20
330
0
100
AcDbSymbolTable
 70
     2
  0
APPID
  5
24
330
20
100
AcDbSymbolTableRecord
100
AcDbRegAppTableRecord
  2
ACAD
 70
     0
  0
APPID
  5
E8
330
20
100
AcDbSymbolTableRecord
100
AcDbRegAppTableRecord
  2
ACAD_MLEADERVER
 70
     0
  0
ENDTAB
  0
TABLE
  2
DIMSTYLE
  5
10
330
0
100
AcDbSymbolTable
 70
     1
100
AcDbDimStyleTable
  0
DIMSTYLE
105
F
330
10
100
AcDbSymbolTableRecord
100
AcDbDimStyleTableRecord
  2
Standard
 70
     0
178
     0
340
C
  0
ENDTAB
  0
TABLE
  2
BLOCK_RECORD
  5
13
330
0
100
AcDbSymbolTable
 70
     0
  0
BLOCK_RECORD
  5
14
330
13
100
AcDbSymbolTableRecord
100
AcDbBlockTableRecord
  2
*Model_Space
340
17
  0
BLOCK_RECORD
  5
19
330
13
100
AcDbSymbolTableRecord
100
AcDbBlockTableRecord
  2
*Paper_Space
340
1C
  0
ENDTAB
  0
ENDSEC
  0
SECTION
  2
BLOCKS
  0
BLOCK
  5
15
330
14
100
AcDbEntity
  8
0
100
AcDbBlockBegin
  2
*Model_Space
 70
     0
 10
0.0
 20
0.0
 30
0.0
  3
*Model_Space
  1

  0
ENDBLK
  5
16
330
14
100
AcDbEntity
  8
0
100
AcDbBlockEnd
  0
BLOCK
  5
1A
330
19
100
AcDbEntity
 67
     1
  8
0
100
AcDbBlockBegin
  2
*Paper_Space
 70
     0
 10
0.0
 20
0.0
 30
0.0
  3
*Paper_Space
  1

  0
ENDBLK
  5
1B
330
19
100
AcDbEntity
 67
     1
  8
0
100
AcDbBlockEnd
  0
ENDSEC
  0
SECTION
  2
ENTITIES
  0
SPLINE
  5
4D
330
14
100
AcDbEntity
  8
Layer 1
370
     0
100
AcDbSpline
210
0.0
220
0.0
230
1.0
 70
    11
 71
     3
 72
    17
 73
    13
 74
     0
 42
0.000000001
 43
0.0000000001
 40
0.0
 40
0.0
 40
0.0
 40
0.0
 40
1.0
 40
1.0
 40
1.0
 40
2.0
 40
2.0
 40
2.0
 40
3.0
 40
3.0
 40
3.0
 40
4.0
 40
4.0
 40
4.0
 40
4.0
 10
149.3378962274073
 20
540.0868863562573
 30
0.0
 10
149.4564962244112
 20
539.9682863592534
 30
0.0
 10
149.4564962244112
 20
539.7758863641138
 30
0.0
 10
149.3378962274073
 20
539.6571863671124
 30
0.0
 10
149.2191962304059
 20
539.5385863701085
 30
0.0
 10
149.0268962352638
 20
539.5385863701085
 30
0.0
 10
148.9076962382751
 20
539.6571863671124
 30
0.0
 10
148.7895962412586
 20
539.7758863641138
 30
0.0
 10
148.7895962412586
 20
539.9682863592534
 30
0.0
 10
148.9076962382751
 20
540.0868863562573
 30
0.0
 10
149.0268962352638
 20
540.2055863532587
 30
0.0
 10
149.2191962304059
 20
540.2055863532587
 30
0.0
 10
149.3378962274073
 20
540.0868863562573
 30
0.0
  0
SPLINE
  5
4F
330
14
100
AcDbEntity
  8
Layer 1
370
     0
100
AcDbSpline
210
0.0
220
0.0
230
1.0
 70
    11
 71
     3
 72
    20
 73
    16
 74
     0
 42
0.000000001
 43
0.0000000001
 40
0.0
 40
0.0
 40
0.0
 40
0.0
 40
1.0
 40
1.0
 40
1.0
 40
2.0
 40
2.0
 40
2.0
 40
3.0
 40
3.0
 40
3.0
 40
4.0
 40
4.0
 40
4.0
 40
5.0
 40
5.0
 40
5.0
 40
5.0
 10
150.4057962004299
 20
540.2250863527661
 30
0.0
 10
150.4057962004299
 20
540.0575863569975
 30
0.0
 10
150.2690000000002
 20
539.9208863604508
 30
0.0
 10
150.1015962081146
 20
539.9208863604508
 30
0.0
 10
149.9330962123713
 20
539.9208863604508
 30
0.0
 10
149.7973962157994
 20
540.0575863569975
 30
0.0
 10
149.7973962157994
 20
540.2250863527661
 30
0.0
 10
149.7973962157994
 20
540.3925863485347
 30
0.0
 10
149.9330962123713
 20
540.528786345094
 30
0.0
 10
150.1015962081146
 20
540.528786345094
 30
0.0
 10
150.2690000000002
 20
540.528786345094
 30
0.0
 10
150.4057962004299
 20
540.3925863485347
 30
0.0
 10
150.4057962004299
 20
540.2250863527661
 30
0.0
 10
150.4057962004299
 20
540.2250863527661
 30
0.0
 10
150.4057962004299
 20
540.2250863527661
 30
0.0
 10
150.4057962004299
 20
540.2250863527661
 30
0.0
  0
SPLINE
  5
50
330
14
100
AcDbEntity
  8
Layer 1
370
     0
100
AcDbSpline
210
0.0
220
0.0
230
1.0
 70
    11
 71
     3
 72
    20
 73
    16
 74
     0
 42
0.000000001
 43
0.0000000001
 40
0.0
 40
0.0
 40
0.0
 40
0.0
 40
1.0
 40
1.0
 40
1.0
 40
2.0
 40
2.0
 40
2.0
 40
3.0
 40
3.0
 40
3.0
 40
4.0
 40
4.0
 40
4.0
 40
5.0
 40
5.0
 40
5.0
 40
5.0
 10
151.2577961789066
 20
539.5678863693684
 30
0.0
 10
151.1391961819027
 20
539.4496863723543
 30
0.0
 10
150.9462961867757
 20
539.4496863723543
 30
0.0
 10
150.8275961897743
 20
539.5678863693684
 30
0.0
 10
150.7094961927578
 20
539.6864863663723
 30
0.0
 10
150.7094961927578
 20
539.8793863614992
 30
0.0
 10
150.8275961897743
 20
539.9979999999996
 30
0.0
 10
150.9462961867757
 20
540.1166863555045
 30
0.0
 10
151.1391961819027
 20
540.1166863555045
 30
0.0
 10
151.2577961789066
 20
539.9979999999996
 30
0.0
 10
151.376496175908
 20
539.8793863614992
 30
0.0
 10
151.376496175908
 20
539.6864863663723
 30
0.0
 10
151.2577961789066
 20
539.5678863693684
 30
0.0
 10
151.2577961789066
 20
539.5678863693684
 30
0.0
 10
151.2577961789066
 20
539.5678863693684
 30
0.0
 10
151.2577961789066
 20
539.5678863693684
 30
0.0
  0
SPLINE
  5
51
330
14
100
AcDbEntity
  8
Layer 1
370
     0
100
AcDbSpline
210
0.0
220
0.0
230
1.0
 70
    11
 71
     3
 72
    20
 73
    16
 74
     0
 42
0.000000001
 43
0.0000000001
 40
0.0
 40
0.0
 40
0.0
 40
0.0
 40
1.0
 40
1.0
 40
1.0
 40
2.0
 40
2.0
 40
2.0
 40
3.0
 40
3.0
 40
3.0
 40
4.0
 40
4.0
 40
4.0
 40
5.0
 40
5.0
 40
5.0
 40
5.0
 10
151.3959999999997
 20
538.5020000000004
 30
0.0
 10
151.2280000000001
 20
538.5020000000004
 30
0.0
 10
151.0922961830875
 20
538.6366863928924
 30
0.0
 10
151.0922961830875
 20
538.8051863886358
 30
0.0
 10
151.0922961830875
 20
538.9730863843943
 30
0.0
 10
151.2280000000001
 20
539.109386380951
 30
0.0
 10
151.3959999999997
 20
539.109386380951
 30
0.0
 10
151.5634961711839
 20
539.109386380951
 30
0.0
 10
151.6996961677432
 20
538.9730863843943
 30
0.0
 10
151.6996961677432
 20
538.8051863886358
 30
0.0
 10
151.6996961677432
 20
538.6366863928924
 30
0.0
 10
151.5634961711839
 20
538.5020000000004
 30
0.0
 10
151.3959999999997
 20
538.5020000000004
 30
0.0
 10
151.3959999999997
 20
538.5020000000004
 30
0.0
 10
151.3959999999997
 20
538.5020000000004
 30
0.0
 10
151.3959999999997
 20
538.5020000000004
 30
0.0
  0
SPLINE
  5
52
330
14
100
AcDbEntity
  8
Layer 1
370
     0
100
AcDbSpline
210
0.0
220
0.0
230
1.0
 70
    11
 71
     3
 72
    20
 73
    16
 74
     0
 42
0.000000001
 43
0.0000000001
 40
0.0
 40
0.0
 40
0.0
 40
0.0
 40
1.0
 40
1.0
 40
1.0
 40
2.0
 40
2.0
 40
2.0
 40
3.0
 40
3.0
 40
3.0
 40
4.0
 40
4.0
 40
4.0
 40
5.0
 40
5.0
 40
5.0
 40
5.0
 10
150.7387961920176
 20
537.6488864178464
 30
0.0
 10
150.6200961950162
 20
537.7680864148351
 30
0.0
 10
150.6200961950162
 20
537.96
 30
0.0
 10
150.7387961920176
 20
538.0790864069786
 30
0.0
 10
150.8578961890089
 20
538.19778640398
 30
0.0
 10
151.0502961841485
 20
538.19778640398
 30
0.0
 10
151.1688961811524
 20
538.0790864069786
 30
0.0
 10
151.2875961781538
 20
537.96
 30
0.0
 10
151.2875961781538
 20
537.7680864148351
 30
0.0
 10
151.1688961811524
 20
537.6488864178464
 30
0.0
 10
151.0502961841485
 20
537.5307864208298
 30
0.0
 10
150.8578961890089
 20
537.5307864208298
 30
0.0
 10
150.7387961920176
 20
537.6488864178464
 30
0.0
 10
150.7387961920176
 20
537.6488864178464
 30
0.0
 10
150.7387961920176
 20
537.6488864178464
 30
0.0
 10
150.7387961920176
 20
537.6488864178464
 30
0.0
  0
SPLINE
  5
53
330
14
100
AcDbEntity
  8
Layer 1
370
     0
100
AcDbSpline
210
0.0
220
0.0
230
1.0
 70
    11
 71
     3
 72
    20
 73
    16
 74
     0
 42
0.000000001
 43
0.0000000001
 40
0.0
 40
0.0
 40
0.0
 40
0.0
 40
1.0
 40
1.0
 40
1.0
 40
2.0
 40
2.0
 40
2.0
 40
3.0
 40
3.0
 40
3.0
 40
4.0
 40
4.0
 40
4.0
 40
5.0
 40
5.0
 40
5.0
 40
5.0
 10
149.6728962189445
 20
537.5106864213376
 30
0.0
 10
149.6728962189445
 20
537.6781864171062
 30
0.0
 10
149.8080962155291
 20
537.8140000000003
 30
0.0
 10
149.9765962112724
 20
537.8140000000003
 30
0.0
 10
150.1440000000002
 20
537.8140000000003
 30
0.0
 10
150.2807962035877
 20
537.6781864171062
 30
0.0
 10
150.2807962035877
 20
537.5106864213376
 30
0.0
 10
150.2807962035877
 20
537.3422864255917
 30
0.0
 10
150.1440000000002
 20
537.2064864290223
 30
0.0
 10
149.9765962112724
 20
537.2064864290223
 30
0.0
 10
149.8080962155291
 20
537.2064864290223
 30
0.0
 10
149.6728962189445
 20
537.3422864255917
 30
0.0
 10
149.6728962189445
 20
537.5106864213376
 30
0.0
 10
149.6728962189445
 20
537.5106864213376
 30
0.0
 10
149.6728962189445
 20
537.5106864213376
 30
0.0
 10
149.6728962189445
 20
537.5106864213376
 30
0.0
  0
SPLINE
  5
54
330
14
100
AcDbEntity
  8
Layer 1
370
     0
100
AcDbSpline
210
0.0
220
0.0
230
1.0
 70
    11
 71
     3
 72
    20
 73
    16
 74
     0
 42
0.000000001
 43
0.0000000001
 40
0.0
 40
0.0
 40
0.0
 40
0.0
 40
1.0
 40
1.0
 40
1.0
 40
2.0
 40
2.0
 40
2.0
 40
3.0
 40
3.0
 40
3.0
 40
4.0
 40
4.0
 40
4.0
 40
5.0
 40
5.0
 40
5.0
 40
5.0
 10
148.8197962404956
 20
538.1674864047454
 30
0.0
 10
148.938496237497
 20
538.285586401762
 30
0.0
 10
149.1303962326492
 20
538.285586401762
 30
0.0
 10
149.25
 20
538.1674864047454
 30
0.0
 10
149.3686962266293
 20
538.048786407744
 30
0.0
 10
149.3686962266293
 20
537.8559999999998
 30
0.0
 10
149.25
 20
537.7372864156132
 30
0.0
 10
149.1303962326492
 20
537.6186864186093
 30
0.0
 10
148.938496237497
 20
537.6186864186093
 30
0.0
 10
148.8197962404956
 20
537.7372864156132
 30
0.0
 10
148.7016962434791
 20
537.8559999999998
 30
0.0
 10
148.7016962434791
 20
538.048786407744
 30
0.0
 10
148.8197962404956
 20
538.1674864047454
 30
0.0
 10
148.8197962404956
 20
538.1674864047454
 30
0.0
 10
148.8197962404956
 20
538.1674864047454
 30
0.0
 10
148.8197962404956
 20
538.1674864047454
 30
0.0
  0
SPLINE
  5
55
330
14
100
AcDbEntity
  8
Layer 1
370
     0
100
AcDbSpline
210
0.0
220
0.0
230
1.0
 70
    11
 71
     3
 72
    20
 73
    16
 74
     0
 42
0.000000001
 43
0.0000000001
 40
0.0
 40
0.0
 40
0.0
 40
0.0
 40
1.0
 40
1.0
 40
1.0
 40
2.0
 40
2.0
 40
2.0
 40
3.0
 40
3.0
 40
3.0
 40
4.0
 40
4.0
 40
4.0
 40
5.0
 40
5.0
 40
5.0
 40
5.0
 10
170.1723957010836
 20
540.0868863562573
 30
0.0
 10
170.2910000000002
 20
539.9682863592534
 30
0.0
 10
170.2910000000002
 20
539.7758863641138
 30
0.0
 10
170.1723957010836
 20
539.6571863671124
 30
0.0
 10
170.0536957040822
 20
539.5385863701085
 30
0.0
 10
169.8612957089426
 20
539.5385863701085
 30
0.0
 10
169.7426957119387
 20
539.6571863671124
 30
0.0
 10
169.6239999999998
 20
539.7758863641138
 30
0.0
 10
169.6239999999998
 20
539.9682863592534
 30
0.0
 10
169.7426957119387
 20
540.0868863562573
 30
0.0
 10
169.8612957089426
 20
540.2055863532587
 30
0.0
 10
170.0536957040822
 20
540.2055863532587
 30
0.0
 10
170.1723957010836
 20
540.0868863562573
 30
0.0
 10
170.1723957010836
 20
540.0868863562573
 30
0.0
 10
170.1723957010836
 20
540.0868863562573
 30
0.0
 10
170.1723957010836
 20
540.0868863562573
 30
0.0
  0
SPLINE
  5
56
330
14
100
AcDbEntity
  8
Layer 1
370
     0
100
AcDbSpline
210
0.0
220
0.0
230
1.0
 70
    11
 71
     3
 72
    20
 73
    16
 74
     0
 42
0.000000001
 43
0.0000000001
 40
0.0
 40
0.0
 40
0.0
 40
0.0
 40
1.0
 40
1.0
 40
1.0
 40
2.0
 40
2.0
 40
2.0
 40
3.0
 40
3.0
 40
3.0
 40
4.0
 40
4.0
 40
4.0
 40
5.0
 40
5.0
 40
5.0
 40
5.0
 10
171.2387956741441
 20
540.2250863527661
 30
0.0
 10
171.2387956741441
 20
540.0575863569975
 30
0.0
 10
171.103495677562
 20
539.9208863604508
 30
0.0
 10
170.9350956818162
 20
539.9208863604508
 30
0.0
 10
170.7670956860602
 20
539.9208863604508
 30
0.0
 10
170.6308956895009
 20
540.0575863569975
 30
0.0
 10
170.6308956895009
 20
540.2250863527661
 30
0.0
 10
170.6308956895009
 20
540.3925863485347
 30
0.0
 10
170.7670956860602
 20
540.528786345094
 30
0.0
 10
170.9350956818162
 20
540.528786345094
 30
0.0
 10
171.103495677562
 20
540.528786345094
 30
0.0
 10
171.2387956741441
 20
540.3925863485347
 30
0.0
 10
171.2387956741441
 20
540.2250863527661
 30
0.0
 10
171.2387956741441
 20
540.2250863527661
 30
0.0
 10
171.2387956741441
 20
540.2250863527661
 30
0.0
 10
171.2387956741441
 20
540.2250863527661
 30
0.0
  0
SPLINE
  5
57
330
14
100
AcDbEntity
  8
Layer 1
370
     0
100
AcDbSpline
210
0.0
220
0.0
230
1.0
 70
    11
 71
     3
 72
    20
 73
    16
 74
     0
 42
0.000000001
 43
0.0000000001
 40
0.0
 40
0.0
 40
0.0
 40
0.0
 40
1.0
 40
1.0
 40
1.0
 40
2.0
 40
2.0
 40
2.0
 40
3.0
 40
3.0
 40
3.0
 40
4.0
 40
4.0
 40
4.0
 40
5.0
 40
5.0
 40
5.0
 40
5.0
 10
172.0912956526081
 20
539.5678863693684
 30
0.0
 10
171.9726956556042
 20
539.4496863723543
 30
0.0
 10
171.7812956604394
 20
539.4496863723543
 30
0.0
 10
171.6610956634759
 20
539.5678863693684
 30
0.0
 10
171.542495666472
 20
539.6864863663723
 30
0.0
 10
171.542495666472
 20
539.8793863614992
 30
0.0
 10
171.6610956634759
 20
539.9979999999996
 30
0.0
 10
171.7812956604394
 20
540.1166863555045
 30
0.0
 10
171.9726956556042
 20
540.1166863555045
 30
0.0
 10
172.0912956526081
 20
539.9979999999996
 30
0.0
 10
172.2094956496221
 20
539.8793863614992
 30
0.0
 10
172.2094956496221
 20
539.6864863663723
 30
0.0
 10
172.0912956526081
 20
539.5678863693684
 30
0.0
 10
172.0912956526081
 20
539.5678863693684
 30
0.0
 10
172.0912956526081
 20
539.5678863693684
 30
0.0
 10
172.0912956526081
 20
539.5678863693684
 30
0.0
  0
SPLINE
  5
58
330
14
100
AcDbEntity
  8
Layer 1
370
     0
100
AcDbSpline
210
0.0
220
0.0
230
1.0
 70
    11
 71
     3
 72
    20
 73
    16
 74
     0
 42
0.000000001
 43
0.0000000001
 40
0.0
 40
0.0
 40
0.0
 40
0.0
 40
1.0
 40
1.0
 40
1.0
 40
2.0
 40
2.0
 40
2.0
 40
3.0
 40
3.0
 40
3.0
 40
4.0
 40
4.0
 40
4.0
 40
5.0
 40
5.0
 40
5.0
 40
5.0
 10
172.2304956490916
 20
538.5020000000004
 30
0.0
 10
172.0614956533609
 20
538.5020000000004
 30
0.0
 10
171.9262956567763
 20
538.6366863928924
 30
0.0
 10
171.9262956567763
 20
538.8051863886358
 30
0.0
 10
171.9262956567763
 20
538.9730863843943
 30
0.0
 10
172.0614956533609
 20
539.109386380951
 30
0.0
 10
172.2304956490916
 20
539.109386380951
 30
0.0
 10
172.3978956448627
 20
539.109386380951
 30
0.0
 10
172.5336956414321
 20
538.9730863843943
 30
0.0
 10
172.5336956414321
 20
538.8051863886358
 30
0.0
 10
172.5336956414321
 20
538.6366863928924
 30
0.0
 10
172.3978956448627
 20
538.5020000000004
 30
0.0
 10
172.2304956490916
 20
538.5020000000004
 30
0.0
 10
172.2304956490916
 20
538.5020000000004
 30
0.0
 10
172.2304956490916
 20
538.5020000000004
 30
0.0
 10
172.2304956490916
 20
538.5020000000004
 30
0.0
  0
SPLINE
  5
59
330
14
100
AcDbEntity
  8
Layer 1
370
     0
100
AcDbSpline
210
0.0
220
0.0
230
1.0
 70
    11
 71
     3
 72
    20
 73
    16
 74
     0
 42
0.000000001
 43
0.0000000001
 40
0.0
 40
0.0
 40
0.0
 40
0.0
 40
1.0
 40
1.0
 40
1.0
 40
2.0
 40
2.0
 40
2.0
 40
3.0
 40
3.0
 40
3.0
 40
4.0
 40
4.0
 40
4.0
 40
5.0
 40
5.0
 40
5.0
 40
5.0
 10
171.5736956656838
 20
537.6488864178464
 30
0.0
 10
171.4545956686925
 20
537.7680864148351
 30
0.0
 10
171.4545956686925
 20
537.96
 30
0.0
 10
171.5736956656838
 20
538.0790864069786
 30
0.0
 10
171.6918956626978
 20
538.19778640398
 30
0.0
 10
171.8842956578374
 20
538.19778640398
 30
0.0
 10
172.0033956548286
 20
538.0790864069786
 30
0.0
 10
172.1215956518427
 20
537.96
 30
0.0
 10
172.1215956518427
 20
537.7680864148351
 30
0.0
 10
172.0033956548286
 20
537.6488864178464
 30
0.0
 10
171.8842956578374
 20
537.5307864208298
 30
0.0
 10
171.6918956626978
 20
537.5307864208298
 30
0.0
 10
171.5736956656838
 20
537.6488864178464
 30
0.0
 10
171.5736956656838
 20
537.6488864178464
 30
0.0
 10
171.5736956656838
 20
537.6488864178464
 30
0.0
 10
171.5736956656838
 20
537.6488864178464
 30
0.0
  0
SPLINE
  5
5A
330
14
100
AcDbEntity
  8
Layer 1
370
     0
100
AcDbSpline
210
0.0
220
0.0
230
1.0
 70
    11
 71
     3
 72
    20
 73
    16
 74
     0
 42
0.000000001
 43
0.0000000001
 40
0.0
 40
0.0
 40
0.0
 40
0.0
 40
1.0
 40
1.0
 40
1.0
 40
2.0
 40
2.0
 40
2.0
 40
3.0
 40
3.0
 40
3.0
 40
4.0
 40
4.0
 40
4.0
 40
5.0
 40
5.0
 40
5.0
 40
5.0
 10
170.5058956926587
 20
537.5106864213376
 30
0.0
 10
170.5058956926587
 20
537.6781864171062
 30
0.0
 10
170.642095689218
 20
537.8140000000003
 30
0.0
 10
170.8100956849739
 20
537.8140000000003
 30
0.0
 10
170.9774956807451
 20
537.8140000000003
 30
0.0
 10
171.1137956773018
 20
537.6781864171062
 30
0.0
 10
171.1137956773018
 20
537.5106864213376
 30
0.0
 10
171.1137956773018
 20
537.3422864255917
 30
0.0
 10
170.9774956807451
 20
537.2064864290223
 30
0.0
 10
170.8100956849739
 20
537.2064864290223
 30
0.0
 10
170.642095689218
 20
537.2064864290223
 30
0.0
 10
170.5058956926587
 20
537.3422864255917
 30
0.0
 10
170.5058956926587
 20
537.5106864213376
 30
0.0
 10
170.5058956926587
 20
537.5106864213376
 30
0.0
 10
170.5058956926587
 20
537.5106864213376
 30
0.0
 10
170.5058956926587
 20
537.5106864213376
 30
0.0
  0
SPLINE
  5
5B
330
14
100
AcDbEntity
  8
Layer 1
370
     0
100
AcDbSpline
210
0.0
220
0.0
230
1.0
 70
    11
 71
     3
 72
    20
 73
    16
 74
     0
 42
0.000000001
 43
0.0000000001
 40
0.0
 40
0.0
 40
0.0
 40
0.0
 40
1.0
 40
1.0
 40
1.0
 40
2.0
 40
2.0
 40
2.0
 40
3.0
 40
3.0
 40
3.0
 40
4.0
 40
4.0
 40
4.0
 40
5.0
 40
5.0
 40
5.0
 40
5.0
 10
169.6537957141845
 20
538.1674864047454
 30
0.0
 10
169.7719999999999
 20
538.285586401762
 30
0.0
 10
169.964795706328
 20
538.285586401762
 30
0.0
 10
170.0834957033294
 20
538.1674864047454
 30
0.0
 10
170.2020957003333
 20
538.048786407744
 30
0.0
 10
170.2020957003333
 20
537.8559999999998
 30
0.0
 10
170.0834957033294
 20
537.7372864156132
 30
0.0
 10
169.964795706328
 20
537.6186864186093
 30
0.0
 10
169.7719999999999
 20
537.6186864186093
 30
0.0
 10
169.6537957141845
 20
537.7372864156132
 30
0.0
 10
169.5351957171806
 20
537.8559999999998
 30
0.0
 10
169.5351957171806
 20
538.048786407744
 30
0.0
 10
169.6537957141845
 20
538.1674864047454
 30
0.0
 10
169.6537957141845
 20
538.1674864047454
 30
0.0
 10
169.6537957141845
 20
538.1674864047454
 30
0.0
 10
169.6537957141845
 20
538.1674864047454
 30
0.0
  0
SPLINE
  5
5C
330
14
100
AcDbEntity
  8
Layer 1
370
     0
100
AcDbSpline
210
0.0
220
0.0
230
1.0
 70
    11
 71
     3
 72
    20
 73
    16
 74
     0
 42
0.000000001
 43
0.0000000001
 40
0.0
 40
0.0
 40
0.0
 40
0.0
 40
1.0
 40
1.0
 40
1.0
 40
2.0
 40
2.0
 40
2.0
 40
3.0
 40
3.0
 40
3.0
 40
4.0
 40
4.0
 40
4.0
 40
5.0
 40
5.0
 40
5.0
 40
5.0
 10
169.5155957176758
 20
539.2343863777933
 30
0.0
 10
169.6835957134317
 20
539.2343863777933
 30
0.0
 10
169.8192957100036
 20
539.0980863812365
 30
0.0
 10
169.8192957100036
 20
538.9306863854654
 30
0.0
 10
169.8192957100036
 20
538.7626863897094
 30
0.0
 10
169.6835957134317
 20
538.6270000000004
 30
0.0
 10
169.5155957176758
 20
538.6270000000004
 30
0.0
 10
169.3476957219173
 20
538.6270000000004
 30
0.0
 10
169.2113957253605
 20
538.7626863897094
 30
0.0
 10
169.2113957253605
 20
538.9306863854654
 30
0.0
 10
169.2113957253605
 20
539.0980863812365
 30
0.0
 10
169.3476957219173
 20
539.2343863777933
 30
0.0
 10
169.5155957176758
 20
539.2343863777933
 30
0.0
 10
169.5155957176758
 20
539.2343863777933
 30
0.0
 10
169.5155957176758
 20
539.2343863777933
 30
0.0
 10
169.5155957176758
 20
539.2343863777933
 30
0.0
  0
POLYLINE
  5
5D
330
14
100
AcDbEntity
  8
Layer 1
370
     0
100
AcDb2dPolyline
 66
     1
 10
0.0
 20
0.0
 30
0.0
  0
VERTEX
  5
5E
330
5D
100
AcDbEntity
  8
Layer 1
370
     0
100
AcDbVertex
100
AcDb2dVertex
 10
163.2831958751194
 20
540.1830863538271
 30
0.0
  0
VERTEX
  5
5F
330
5D
100
AcDbEntity
  8
Layer 1
370
     0
100
AcDbVertex
100
AcDb2dVertex
 10
163.9916958572212
 20
542.8134862873776
 30
0.0
  0
VERTEX
  5
60
330
5D
100
AcDbEntity
  8
Layer 1
370
     0
100
AcDbVertex
100
AcDb2dVertex
 10
165.0941958293697
 20
542.9125862848741
 30
0.0
  0
VERTEX
  5
61
330
5D
100
AcDbEntity
  8
Layer 1
370
     0
100
AcDbVertex
100
AcDb2dVertex
 10
163.9584958580599
 20
539.815386363116
 30
0.0
  0
VERTEX
  5
62
330
5D
100
AcDbEntity
  8
Layer 1
370
     0
100
AcDbVertex
100
AcDb2dVertex
 10
163.2831958751194
 20
540.1830863538271
 30
0.0
  0
VERTEX
  5
63
330
5D
100
AcDbEntity
  8
Layer 1
370
     0
100
AcDbVertex
100
AcDb2dVertex
 10
163.2831958751194
 20
540.1830863538271
 30
0.0
  0
SEQEND
  5
64
330
5D
100
AcDbEntity
  8
Layer 1
370
     0
  0
POLYLINE
  5
65
330
14
100
AcDbEntity
  8
Layer 1
370
     0
100
AcDb2dPolyline
 66
     1
 10
0.0
 20
0.0
 30
0.0
  0
VERTEX
  5
66
330
65
100
AcDbEntity
  8
Layer 1
370
     0
100
AcDbVertex
100
AcDb2dVertex
 10
162.6308958915979
 20
539.3798863741176
 30
0.0
  0
VERTEX
  5
67
330
65
100
AcDbEntity
  8
Layer 1
370
     0
100
AcDbVertex
100
AcDb2dVertex
 10
160.1142959551726
 20
539.3798863741176
 30
0.0
  0
VERTEX
  5
68
330
65
100
AcDbEntity
  8
Layer 1
370
     0
100
AcDbVertex
100
AcDb2dVertex
 10
160.4892959456993
 20
540.5473863446241
 30
0.0
  0
VERTEX
  5
69
330
65
100
AcDbEntity
  8
Layer 1
370
     0
100
AcDbVertex
100
AcDb2dVertex
 10
162.6308958915979
 20
539.3798863741176
 30
0.0
  0
VERTEX
  5
6A
330
65
100
AcDbEntity
  8
Layer 1
370
     0
100
AcDbVertex
100
AcDb2dVertex
 10
162.6308958915979
 20
539.3798863741176
 30
0.0
  0
SEQEND
  5
6B
330
65
100
AcDbEntity
  8
Layer 1
370
     0
  0
POLYLINE
  5
6C
330
14
100
AcDbEntity
  8
Layer 1
370
     0
100
AcDb2dPolyline
 66
     1
 10
0.0
 20
0.0
 30
0.0
  0
VERTEX
  5
6D
330
6C
100
AcDbEntity
  8
Layer 1
370
     0
100
AcDbVertex
100
AcDb2dVertex
 10
149.5990962208089
 20
547.4330861706767
 30
0.0
  0
VERTEX
  5
6E
330
6C
100
AcDbEntity
  8
Layer 1
370
     0
100
AcDbVertex
100
AcDb2dVertex
 10
155.6928960668665
 20
544.7611862381746
 30
0.0
  0
VERTEX
  5
6F
330
6C
100
AcDbEntity
  8
Layer 1
370
     0
100
AcDbVertex
100
AcDb2dVertex
 10
155.5038960716411
 20
544.3275862491282
 30
0.0
  0
VERTEX
  5
70
330
6C
100
AcDbEntity
  8
Layer 1
370
     0
100
AcDbVertex
100
AcDb2dVertex
 10
156.6283960432338
 20
543.7910000000002
 30
0.0
  0
VERTEX
  5
71
330
6C
100
AcDbEntity
  8
Layer 1
370
     0
100
AcDbVertex
100
AcDb2dVertex
 10
158.6732959915753
 20
543.7910000000002
 30
0.0
  0
VERTEX
  5
72
330
6C
100
AcDbEntity
  8
Layer 1
370
     0
100
AcDbVertex
100
AcDb2dVertex
 10
158.6732959915753
 20
542.8944862853314
 30
0.0
  0
VERTEX
  5
73
330
6C
100
AcDbEntity
  8
Layer 1
370
     0
100
AcDbVertex
100
AcDb2dVertex
 10
156.5277960457752
 20
542.8944862853314
 30
0.0
  0
VERTEX
  5
74
330
6C
100
AcDbEntity
  8
Layer 1
370
     0
100
AcDbVertex
100
AcDb2dVertex
 10
156.4267960483267
 20
542.8944862853314
 30
0.0
  0
VERTEX
  5
75
330
6C
100
AcDbEntity
  8
Layer 1
370
     0
100
AcDbVertex
100
AcDb2dVertex
 10
156.335
 20
542.9390000000003
 30
0.0
  0
VERTEX
  5
76
330
6C
100
AcDbEntity
  8
Layer 1
370
     0
100
AcDbVertex
100
AcDb2dVertex
 10
155.1459999999997
 20
543.5053862698987
 30
0.0
  0
VERTEX
  5
77
330
6C
100
AcDbEntity
  8
Layer 1
370
     0
100
AcDbVertex
100
AcDb2dVertex
 10
154.9784960849138
 20
543.1220862795817
 30
0.0
  0
VERTEX
  5
78
330
6C
100
AcDbEntity
  8
Layer 1
370
     0
100
AcDbVertex
100
AcDb2dVertex
 10
148.7812962414682
 20
545.8402862109142
 30
0.0
  0
VERTEX
  5
79
330
6C
100
AcDbEntity
  8
Layer 1
370
     0
100
AcDbVertex
100
AcDb2dVertex
 10
148.3910962513255
 20
546.4780000000001
 30
0.0
  0
VERTEX
  5
7A
330
6C
100
AcDbEntity
  8
Layer 1
370
     0
100
AcDbVertex
100
AcDb2dVertex
 10
148.7728962416804
 20
547.3534861726876
 30
0.0
  0
VERTEX
  5
7B
330
6C
100
AcDbEntity
  8
Layer 1
370
     0
100
AcDbVertex
100
AcDb2dVertex
 10
149.5990962208089
 20
547.4330861706767
 30
0.0
  0
VERTEX
  5
7C
330
6C
100
AcDbEntity
  8
Layer 1
370
     0
100
AcDbVertex
100
AcDb2dVertex
 10
149.5990962208089
 20
547.4330861706767
 30
0.0
  0
SEQEND
  5
7D
330
6C
100
AcDbEntity
  8
Layer 1
370
     0
  0
POLYLINE
  5
7E
330
14
100
AcDbEntity
  8
Layer 1
370
     0
100
AcDb2dPolyline
 66
     1
 10
0.0
 20
0.0
 30
0.0
  0
VERTEX
  5
7F
330
7E
100
AcDbEntity
  8
Layer 1
370
     0
100
AcDbVertex
100
AcDb2dVertex
 10
169.1239999999998
 20
548.7290000000003
 30
0.0
  0
VERTEX
  5
80
330
7E
100
AcDbEntity
  8
Layer 1
370
     0
100
AcDbVertex
100
AcDb2dVertex
 10
170.5014956927698
 20
547.0272861809281
 30
0.0
  0
VERTEX
  5
81
330
7E
100
AcDbEntity
  8
Layer 1
370
     0
100
AcDbVertex
100
AcDb2dVertex
 10
166.0580958050195
 20
547.8114861611175
 30
0.0
  0
VERTEX
  5
82
330
7E
100
AcDbEntity
  8
Layer 1
370
     0
100
AcDbVertex
100
AcDb2dVertex
 10
165.8012958115069
 20
548.851086134855
 30
0.0
  0
VERTEX
  5
83
330
7E
100
AcDbEntity
  8
Layer 1
370
     0
100
AcDbVertex
100
AcDb2dVertex
 10
169.1239999999998
 20
548.7290000000003
 30
0.0
  0
VERTEX
  5
84
330
7E
100
AcDbEntity
  8
Layer 1
370
     0
100
AcDbVertex
100
AcDb2dVertex
 10
169.1239999999998
 20
548.7290000000003
 30
0.0
  0
SEQEND
  5
85
330
7E
100
AcDbEntity
  8
Layer 1
370
     0
  0
SPLINE
  5
86
330
14
100
AcDbEntity
  8
Layer 1
370
     0
100
AcDbSpline
210
0.0
220
0.0
230
1.0
 70
    11
 71
     3
 72
    32
 73
    28
 74
     0
 42
0.000000001
 43
0.0000000001
 40
0.0
 40
0.0
 40
0.0
 40
0.0
 40
1.0
 40
1.0
 40
1.0
 40
2.0
 40
2.0
 40
2.0
 40
3.0
 40
3.0
 40
3.0
 40
4.0
 40
4.0
 40
4.0
 40
5.0
 40
5.0
 40
5.0
 40
6.0
 40
6.0
 40
6.0
 40
7.0
 40
7.0
 40
7.0
 40
8.0
 40
8.0
 40
8.0
 40
9.0
 40
9.0
 40
9.0
 40
9.0
 10
151.3642961762162
 20
540.1933863535669
 30
0.0
 10
151.0253961847775
 20
540.5336863449702
 30
0.0
 10
150.5561961966305
 20
540.7426863396904
 30
0.0
 10
150.0385962097062
 20
540.7426863396904
 30
0.0
 10
149.5204962227945
 20
540.7426863396904
 30
0.0
 10
149.0517962346348
 20
540.5336863449702
 30
0.0
 10
148.7128962431962
 20
540.1933863535669
 30
0.0
 10
148.3734962517701
 20
539.8544863621282
 30
0.0
 10
148.1635962570726
 20
539.3856863739711
 30
0.0
 10
148.1635962570726
 20
538.8676863870569
 30
0.0
 10
148.1635962570726
 20
538.3500864001326
 30
0.0
 10
148.3734962517701
 20
537.8808864119856
 30
0.0
 10
148.7128962431962
 20
537.5414864205595
 30
0.0
 10
149.0517962346348
 20
537.2025864291209
 30
0.0
 10
149.5204962227945
 20
536.992186434436
 30
0.0
 10
150.0385962097062
 20
536.992186434436
 30
0.0
 10
150.5561961966305
 20
536.992186434436
 30
0.0
 10
151.0253961847775
 20
537.2025864291209
 30
0.0
 10
151.3642961762162
 20
537.5414864205595
 30
0.0
 10
151.7045961676195
 20
537.8808864119856
 30
0.0
 10
151.914096162327
 20
538.3500864001326
 30
0.0
 10
151.914096162327
 20
538.8676863870569
 30
0.0
 10
151.914096162327
 20
539.3856863739711
 30
0.0
 10
151.7045961676195
 20
539.8544863621282
 30
0.0
 10
151.3642961762162
 20
540.1933863535669
 30
0.0
 10
151.3642961762162
 20
540.1933863535669
 30
0.0
 10
151.3642961762162
 20
540.1933863535669
 30
0.0
 10
151.3642961762162
 20
540.1933863535669
 30
0.0
  0
SPLINE
  5
87
330
14
100
AcDbEntity
  8
Layer 1
370
     0
100
AcDbSpline
210
0.0
220
0.0
230
1.0
 70
    11
 71
     3
 72
    32
 73
    28
 74
     0
 42
0.000000001
 43
0.0000000001
 40
0.0
 40
0.0
 40
0.0
 40
0.0
 40
1.0
 40
1.0
 40
1.0
 40
2.0
 40
2.0
 40
2.0
 40
3.0
 40
3.0
 40
3.0
 40
4.0
 40
4.0
 40
4.0
 40
5.0
 40
5.0
 40
5.0
 40
6.0
 40
6.0
 40
6.0
 40
7.0
 40
7.0
 40
7.0
 40
8.0
 40
8.0
 40
8.0
 40
9.0
 40
9.0
 40
9.0
 40
9.0
 10
172.1986956498949
 20
540.1933863535669
 30
0.0
 10
172.538095641321
 20
539.8544863621282
 30
0.0
 10
172.7479999999996
 20
539.3856863739711
 30
0.0
 10
172.7479999999996
 20
538.8676863870569
 30
0.0
 10
172.7479999999996
 20
538.3500864001326
 30
0.0
 10
172.538095641321
 20
537.8808864119856
 30
0.0
 10
172.1986956498949
 20
537.5414864205595
 30
0.0
 10
171.8593956584664
 20
537.2025864291209
 30
0.0
 10
171.3910956702966
 20
536.992186434436
 30
0.0
 10
170.872595683395
 20
536.992186434436
 30
0.0
 10
170.3549999999996
 20
536.992186434436
 30
0.0
 10
169.8861957083136
 20
537.2025864291209
 30
0.0
 10
169.546895716885
 20
537.5414864205595
 30
0.0
 10
169.2070000000003
 20
537.8808864119856
 30
0.0
 10
168.9975957307615
 20
538.3500864001326
 30
0.0
 10
168.9975957307615
 20
538.8676863870569
 30
0.0
 10
168.9975957307615
 20
539.3856863739711
 30
0.0
 10
169.2070000000003
 20
539.8544863621282
 30
0.0
 10
169.546895716885
 20
540.1933863535669
 30
0.0
 10
169.8861957083136
 20
540.5336863449702
 30
0.0
 10
170.3549999999996
 20
540.7426863396904
 30
0.0
 10
170.872595683395
 20
540.7426863396904
 30
0.0
 10
171.3910956702966
 20
540.7426863396904
 30
0.0
 10
171.8593956584664
 20
540.5336863449702
 30
0.0
 10
172.1986956498949
 20
540.1933863535669
 30
0.0
 10
172.1986956498949
 20
540.1933863535669
 30
0.0
 10
172.1986956498949
 20
540.1933863535669
 30
0.0
 10
172.1986956498949
 20
540.1933863535669
 30
0.0
  0
SPLINE
  5
88
330
14
100
AcDbEntity
  8
Layer 1
370
     0
100
AcDbSpline
210
0.0
220
0.0
230
1.0
 70
    11
 71
     3
 72
    74
 73
    70
 74
     0
 42
0.000000001
 43
0.0000000001
 40
0.0
 40
0.0
 40
0.0
 40
0.0
 40
1.0
 40
1.0
 40
1.0
 40
2.0
 40
2.0
 40
2.0
 40
3.0
 40
3.0
 40
3.0
 40
4.0
 40
4.0
 40
4.0
 40
5.0
 40
5.0
 40
5.0
 40
6.0
 40
6.0
 40
6.0
 40
7.0
 40
7.0
 40
7.0
 40
8.0
 40
8.0
 40
8.0
 40
9.0
 40
9.0
 40
9.0
 40
10.0
 40
10.0
 40
10.0
 40
11.0
 40
11.0
 40
11.0
 40
12.0
 40
12.0
 40
12.0
 40
13.0
 40
13.0
 40
13.0
 40
14.0
 40
14.0
 40
14.0
 40
15.0
 40
15.0
 40
15.0
 40
16.0
 40
16.0
 40
16.0
 40
17.0
 40
17.0
 40
17.0
 40
18.0
 40
18.0
 40
18.0
 40
19.0
 40
19.0
 40
19.0
 40
20.0
 40
20.0
 40
20.0
 40
21.0
 40
21.0
 40
21.0
 40
22.0
 40
22.0
 40
22.0
 40
23.0
 40
23.0
 40
23.0
 40
23.0
 10
168.3441957472678
 20
543.3563862736628
 30
0.0
 10
168.3441957472678
 20
543.3563862736628
 30
0.0
 10
167.9780000000001
 20
543.1444862790158
 30
0.0
 10
167.9780000000001
 20
543.1444862790158
 30
0.0
 10
167.9780000000001
 20
543.1444862790158
 30
0.0
 10
168.0902957536819
 20
542.9477862839849
 30
0.0
 10
168.0902957536819
 20
542.9477862839849
 30
0.0
 10
167.9804957564556
 20
542.8729999999996
 30
0.0
 10
167.8734957591587
 20
542.7929999999997
 30
0.0
 10
167.7700000000004
 20
542.7089999999998
 30
0.0
 10
167.7700000000004
 20
542.7089999999998
 30
0.0
 10
167.5990957660906
 20
542.8793862857128
 30
0.0
 10
167.5990957660906
 20
542.8793862857128
 30
0.0
 10
167.5990957660906
 20
542.8793862857128
 30
0.0
 10
166.9691957820032
 20
542.2489999999998
 30
0.0
 10
166.9691957820032
 20
542.2489999999998
 30
0.0
 10
166.9691957820032
 20
542.2489999999998
 30
0.0
 10
167.1298957779436
 20
542.0888863056825
 30
0.0
 10
167.1298957779436
 20
542.0888863056825
 30
0.0
 10
167.0424957801515
 20
541.9882863082239
 30
0.0
 10
166.9603957822255
 20
541.8832863108764
 30
0.0
 10
166.8812957842238
 20
541.7758863135896
 30
0.0
 10
166.8812957842238
 20
541.7758863135896
 30
0.0
 10
166.6728957894884
 20
541.8954863105682
 30
0.0
 10
166.6728957894884
 20
541.8954863105682
 30
0.0
 10
166.6728957894884
 20
541.8954863105682
 30
0.0
 10
166.2274958007401
 20
541.1239999999998
 30
0.0
 10
166.2274958007401
 20
541.1239999999998
 30
0.0
 10
166.2274958007401
 20
541.1239999999998
 30
0.0
 10
166.4228957958039
 20
541.0106863329202
 30
0.0
 10
166.4228957958039
 20
541.0106863329202
 30
0.0
 10
166.3656957972489
 20
540.8910863359415
 30
0.0
 10
166.3114957986181
 20
540.7690000000002
 30
0.0
 10
166.2636957998257
 20
540.6435863421939
 30
0.0
 10
166.2636957998257
 20
540.6435863421939
 30
0.0
 10
166.0316958056865
 20
540.7055863406276
 30
0.0
 10
166.0316958056865
 20
540.7055863406276
 30
0.0
 10
166.0316958056865
 20
540.7055863406276
 30
0.0
 10
165.8012958115069
 20
539.8441863623884
 30
0.0
 10
165.8012958115069
 20
539.8441863623884
 30
0.0
 10
165.8012958115069
 20
539.8441863623884
 30
0.0
 10
166.0200000000004
 20
539.7855863638688
 30
0.0
 10
166.0200000000004
 20
539.7855863638688
 30
0.0
 10
165.9955958065984
 20
539.6562863671352
 30
0.0
 10
165.976095807091
 20
539.5233863704925
 30
0.0
 10
165.9613958074624
 20
539.39008637386
 30
0.0
 10
165.9613958074624
 20
539.39008637386
 30
0.0
 10
165.7211958135304
 20
539.39008637386
 30
0.0
 10
165.7211958135304
 20
539.39008637386
 30
0.0
 10
165.7211958135304
 20
539.39008637386
 30
0.0
 10
165.7211958135304
 20
539.3798863741176
 30
0.0
 10
165.7211958135304
 20
539.3798863741176
 30
0.0
 10
165.7211958135304
 20
539.3798863741176
 30
0.0
 10
164.8847958346596
 20
539.3798863741176
 30
0.0
 10
164.8847958346596
 20
539.3798863741176
 30
0.0
 10
164.8847958346596
 20
539.3798863741176
 30
0.0
 10
166.2172958009978
 20
543.0136862823201
 30
0.0
 10
166.2172958009978
 20
543.0136862823201
 30
0.0
 10
166.2172958009978
 20
543.0136862823201
 30
0.0
 10
166.9896957814854
 20
543.0829999999996
 30
0.0
 10
166.9896957814854
 20
543.0829999999996
 30
0.0
 10
166.9896957814854
 20
543.0829999999996
 30
0.0
 10
167.6503957647947
 20
544.6190862417643
 30
0.0
 10
167.6503957647947
 20
544.6190862417643
 30
0.0
 10
167.6503957647947
 20
544.6190862417643
 30
0.0
 10
168.3441957472678
 20
543.3563862736628
 30
0.0
 10
168.3441957472678
 20
543.3563862736628
 30
0.0
 10
168.3441957472678
 20
543.3563862736628
 30
0.0
 10
168.3441957472678
 20
543.3563862736628
 30
0.0
 10
168.3441957472678
 20
543.3563862736628
 30
0.0
  0
SPLINE
  5
89
330
14
100
AcDbEntity
  8
Layer 1
370
     0
100
AcDbSpline
210
0.0
220
0.0
230
1.0
 70
    11
 71
     3
 72
    20
 73
    16
 74
     0
 42
0.000000001
 43
0.0000000001
 40
0.0
 40
0.0
 40
0.0
 40
0.0
 40
1.0
 40
1.0
 40
1.0
 40
2.0
 40
2.0
 40
2.0
 40
3.0
 40
3.0
 40
3.0
 40
4.0
 40
4.0
 40
4.0
 40
5.0
 40
5.0
 40
5.0
 40
5.0
 10
148.681196243997
 20
539.2343863777933
 30
0.0
 10
148.8490962397555
 20
539.2343863777933
 30
0.0
 10
148.9848962363249
 20
539.0980863812365
 30
0.0
 10
148.9848962363249
 20
538.9306863854654
 30
0.0
 10
148.9848962363249
 20
538.7626863897094
 30
0.0
 10
148.8490962397555
 20
538.6270000000004
 30
0.0
 10
148.681196243997
 20
538.6270000000004
 30
0.0
 10
148.5136962482284
 20
538.6270000000004
 30
0.0
 10
148.3770000000004
 20
538.7626863897094
 30
0.0
 10
148.3770000000004
 20
538.9306863854654
 30
0.0
 10
148.3770000000004
 20
539.0980863812365
 30
0.0
 10
148.5136962482284
 20
539.2343863777933
 30
0.0
 10
148.681196243997
 20
539.2343863777933
 30
0.0
 10
148.681196243997
 20
539.2343863777933
 30
0.0
 10
148.681196243997
 20
539.2343863777933
 30
0.0
 10
148.681196243997
 20
539.2343863777933
 30
0.0
  0
HATCH
  5
8A
330
14
100
AcDbEntity
  8
Layer 1
 62
     7
100
AcDbHatch
 10
0.0
 20
0.0
 30
0.0
210
0.0
220
0.0
230
1.0
  2
SOLID
 70
     1
 71
     0
 91
       24
 92
        1
 93
        1
 72
     4
 94
        3
 73
     0
 74
     1
 95
       20
 96
       16
 40
0.0
 40
0.0
 40
0.0
 40
0.0
 40
1.0
 40
1.0
 40
1.0
 40
2.0
 40
2.0
 40
2.0
 40
3.0
 40
3.0
 40
3.0
 40
4.0
 40
4.0
 40
4.0
 40
5.0
 40
5.0
 40
5.0
 40
5.0
 10
148.681196243997
 20
539.2343863777933
 10
148.8490962397555
 20
539.2343863777933
 10
148.9848962363249
 20
539.0980863812365
 10
148.9848962363249
 20
538.9306863854654
 10
148.9848962363249
 20
538.7626863897094
 10
148.8490962397555
 20
538.6270000000004
 10
148.681196243997
 20
538.6270000000004
 10
148.5136962482284
 20
538.6270000000004
 10
148.3770000000004
 20
538.7626863897094
 10
148.3770000000004
 20
538.9306863854654
 10
148.3770000000004
 20
539.0980863812365
 10
148.5136962482284
 20
539.2343863777933
 10
148.681196243997
 20
539.2343863777933
 10
148.681196243997
 20
539.2343863777933
 10
148.681196243997
 20
539.2343863777933
 10
148.681196243997
 20
539.2343863777933
 97
        0
 92
        1
 93
        1
 72
     4
 94
        3
 73
     0
 74
     1
 95
      653
 96
      649
 40
0.0
 40
0.0
 40
0.0
 40
0.0
 40
1.0
 40
1.0
 40
1.0
 40
2.0
 40
2.0
 40
2.0
 40
3.0
 40
3.0
 40
3.0
 40
4.0
 40
4.0
 40
4.0
 40
5.0
 40
5.0
 40
5.0
 40
6.0
 40
6.0
 40
6.0
 40
7.0
 40
7.0
 40
7.0
 40
8.0
 40
8.0
 40
8.0
 40
9.0
 40
9.0
 40
9.0
 40
10.0
 40
10.0
 40
10.0
 40
11.0
 40
11.0
 40
11.0
 40
12.0
 40
12.0
 40
12.0
 40
13.0
 40
13.0
 40
13.0
 40
14.0
 40
14.0
 40
14.0
 40
15.0
 40
15.0
 40
15.0
 40
16.0
 40
16.0
 40
16.0
 40
17.0
 40
17.0
 40
17.0
 40
18.0
 40
18.0
 40
18.0
 40
19.0
 40
19.0
 40
19.0
 40
20.0
 40
20.0
 40
20.0
 40
21.0
 40
21.0
 40
21.0
 40
22.0
 40
22.0
 40
22.0
 40
23.0
 40
23.0
 40
23.0
 40
24.0
 40
24.0
 40
24.0
 40
25.0
 40
25.0
 40
25.0
 40
26.0
 40
26.0
 40
26.0
 40
27.0
 40
27.0
 40
27.0
 40
28.0
 40
28.0
 40
28.0
 40
29.0
 40
29.0
 40
29.0
 40
30.0
 40
30.0
 40
30.0
 40
31.0
 40
31.0
 40
31.0
 40
32.0
 40
32.0
 40
32.0
 40
33.0
 40
33.0
 40
33.0
 40
34.0
 40
34.0
 40
34.0
 40
35.0
 40
35.0
 40
35.0
 40
36.0
 40
36.0
 40
36.0
 40
37.0
 40
37.0
 40
37.0
 40
38.0
 40
38.0
 40
38.0
 40
39.0
 40
39.0
 40
39.0
 40
40.0
 40
40.0
 40
40.0
 40
41.0
 40
41.0
 40
41.0
 40
42.0
 40
42.0
 40
42.0
 40
43.0
 40
43.0
 40
43.0
 40
44.0
 40
44.0
 40
44.0
 40
45.0
 40
45.0
 40
45.0
 40
46.0
 40
46.0
 40
46.0
 40
47.0
 40
47.0
 40
47.0
 40
48.0
 40
48.0
 40
48.0
 40
49.0
 40
49.0
 40
49.0
 40
50.0
 40
50.0
 40
50.0
 40
51.0
 40
51.0
 40
51.0
 40
52.0
 40
52.0
 40
52.0
 40
53.0
 40
53.0
 40
53.0
 40
54.0
 40
54.0
 40
54.0
 40
55.0
 40
55.0
 40
55.0
 40
56.0
 40
56.0
 40
56.0
 40
57.0
 40
57.0
 40
57.0
 40
58.0
 40
58.0
 40
58.0
 40
59.0
 40
59.0
 40
59.0
 40
60.0
 40
60.0
 40
60.0
 40
61.0
 40
61.0
 40
61.0
 40
62.0
 40
62.0
 40
62.0
 40
63.0
 40
63.0
 40
63.0
 40
64.0
 40
64.0
 40
64.0
 40
65.0
 40
65.0
 40
65.0
 40
66.0
 40
66.0
 40
66.0
 40
67.0
 40
67.0
 40
67.0
 40
68.0
 40
68.0
 40
68.0
 40
69.0
 40
69.0
 40
69.0
 40
70.0
 40
70.0
 40
70.0
 40
71.0
 40
71.0
 40
71.0
 40
72.0
 40
72.0
 40
72.0
 40
73.0
 40
73.0
 40
73.0
 40
74.0
 40
74.0
 40
74.0
 40
75.0
 40
75.0
 40
75.0
 40
76.0
 40
76.0
 40
76.0
 40
77.0
 40
77.0
 40
77.0
 40
78.0
 40
78.0
 40
78.0
 40
79.0
 40
79.0
 40
79.0
 40
80.0
 40
80.0
 40
80.0
 40
81.0
 40
81.0
 40
81.0
 40
82.0
 40
82.0
 40
82.0
 40
83.0
 40
83.0
 40
83.0
 40
84.0
 40
84.0
 40
84.0
 40
85.0
 40
85.0
 40
85.0
 40
86.0
 40
86.0
 40
86.0
 40
87.0
 40
87.0
 40
87.0
 40
88.0
 40
88.0
 40
88.0
 40
89.0
 40
89.0
 40
89.0
 40
90.0
 40
90.0
 40
90.0
 40
91.0
 40
91.0
 40
91.0
 40
92.0
 40
92.0
 40
92.0
 40
93.0
 40
93.0
 40
93.0
 40
94.0
 40
94.0
 40
94.0
 40
95.0
 40
95.0
 40
95.0
 40
96.0
 40
96.0
 40
96.0
 40
97.0
 40
97.0
 40
97.0
 40
98.0
 40
98.0
 40
98.0
 40
99.0
 40
99.0
 40
99.0
 40
100.0
 40
100.0
 40
100.0
 40
101.0
 40
101.0
 40
101.0
 40
102.0
 40
102.0
 40
102.0
 40
103.0
 40
103.0
 40
103.0
 40
104.0
 40
104.0
 40
104.0
 40
105.0
 40
105.0
 40
105.0
 40
106.0
 40
106.0
 40
106.0
 40
107.0
 40
107.0
 40
107.0
 40
108.0
 40
108.0
 40
108.0
 40
109.0
 40
109.0
 40
109.0
 40
110.0
 40
110.0
 40
110.0
 40
111.0
 40
111.0
 40
111.0
 40
112.0
 40
112.0
 40
112.0
 40
113.0
 40
113.0
 40
113.0
 40
114.0
 40
114.0
 40
114.0
 40
115.0
 40
115.0
 40
115.0
 40
116.0
 40
116.0
 40
116.0
 40
117.0
 40
117.0
 40
117.0
 40
118.0
 40
118.0
 40
118.0
 40
119.0
 40
119.0
 40
119.0
 40
120.0
 40
120.0
 40
120.0
 40
121.0
 40
121.0
 40
121.0
 40
122.0
 40
122.0
 40
122.0
 40
123.0
 40
123.0
 40
123.0
 40
124.0
 40
124.0
 40
124.0
 40
125.0
 40
125.0
 40
125.0
 40
126.0
 40
126.0
 40
126.0
 40
127.0
 40
127.0
 40
127.0
 40
128.0
 40
128.0
 40
128.0
 40
129.0
 40
129.0
 40
129.0
 40
130.0
 40
130.0
 40
130.0
 40
131.0
 40
131.0
 40
131.0
 40
132.0
 40
132.0
 40
132.0
 40
133.0
 40
133.0
 40
133.0
 40
134.0
 40
134.0
 40
134.0
 40
135.0
 40
135.0
 40
135.0
 40
136.0
 40
136.0
 40
136.0
 40
137.0
 40
137.0
 40
137.0
 40
138.0
 40
138.0
 40
138.0
 40
139.0
 40
139.0
 40
139.0
 40
140.0
 40
140.0
 40
140.0
 40
141.0
 40
141.0
 40
141.0
 40
142.0
 40
142.0
 40
142.0
 40
143.0
 40
143.0
 40
143.0
 40
144.0
 40
144.0
 40
144.0
 40
145.0
 40
145.0
 40
145.0
 40
146.0
 40
146.0
 40
146.0
 40
147.0
 40
147.0
 40
147.0
 40
148.0
 40
148.0
 40
148.0
 40
149.0
 40
149.0
 40
149.0
 40
150.0
 40
150.0
 40
150.0
 40
151.0
 40
151.0
 40
151.0
 40
152.0
 40
152.0
 40
152.0
 40
153.0
 40
153.0
 40
153.0
 40
154.0
 40
154.0
 40
154.0
 40
155.0
 40
155.0
 40
155.0
 40
156.0
 40
156.0
 40
156.0
 40
157.0
 40
157.0
 40
157.0
 40
158.0
 40
158.0
 40
158.0
 40
159.0
 40
159.0
 40
159.0
 40
160.0
 40
160.0
 40
160.0
 40
161.0
 40
161.0
 40
161.0
 40
162.0
 40
162.0
 40
162.0
 40
163.0
 40
163.0
 40
163.0
 40
164.0
 40
164.0
 40
164.0
 40
165.0
 40
165.0
 40
165.0
 40
166.0
 40
166.0
 40
166.0
 40
167.0
 40
167.0
 40
167.0
 40
168.0
 40
168.0
 40
168.0
 40
169.0
 40
169.0
 40
169.0
 40
170.0
 40
170.0
 40
170.0
 40
171.0
 40
171.0
 40
171.0
 40
172.0
 40
172.0
 40
172.0
 40
173.0
 40
173.0
 40
173.0
 40
174.0
 40
174.0
 40
174.0
 40
175.0
 40
175.0
 40
175.0
 40
176.0
 40
176.0
 40
176.0
 40
177.0
 40
177.0
 40
177.0
 40
178.0
 40
178.0
 40
178.0
 40
179.0
 40
179.0
 40
179.0
 40
180.0
 40
180.0
 40
180.0
 40
181.0
 40
181.0
 40
181.0
 40
182.0
 40
182.0
 40
182.0
 40
183.0
 40
183.0
 40
183.0
 40
184.0
 40
184.0
 40
184.0
 40
185.0
 40
185.0
 40
185.0
 40
186.0
 40
186.0
 40
186.0
 40
187.0
 40
187.0
 40
187.0
 40
188.0
 40
188.0
 40
188.0
 40
189.0
 40
189.0
 40
189.0
 40
190.0
 40
190.0
 40
190.0
 40
191.0
 40
191.0
 40
191.0
 40
192.0
 40
192.0
 40
192.0
 40
193.0
 40
193.0
 40
193.0
 40
194.0
 40
194.0
 40
194.0
 40
195.0
 40
195.0
 40
195.0
 40
196.0
 40
196.0
 40
196.0
 40
197.0
 40
197.0
 40
197.0
 40
198.0
 40
198.0
 40
198.0
 40
199.0
 40
199.0
 40
199.0
 40
200.0
 40
200.0
 40
200.0
 40
201.0
 40
201.0
 40
201.0
 40
202.0
 40
202.0
 40
202.0
 40
203.0
 40
203.0
 40
203.0
 40
204.0
 40
204.0
 40
204.0
 40
205.0
 40
205.0
 40
205.0
 40
206.0
 40
206.0
 40
206.0
 40
207.0
 40
207.0
 40
207.0
 40
208.0
 40
208.0
 40
208.0
 40
209.0
 40
209.0
 40
209.0
 40
210.0
 40
210.0
 40
210.0
 40
211.0
 40
211.0
 40
211.0
 40
212.0
 40
212.0
 40
212.0
 40
213.0
 40
213.0
 40
213.0
 40
214.0
 40
214.0
 40
214.0
 40
215.0
 40
215.0
 40
215.0
 40
216.0
 40
216.0
 40
216.0
 40
216.0
 10
154.9369999999999
 20
540.4901863460691
 10
154.9369999999999
 20
540.4901863460691
 10
154.9184960864295
 20
540.5575863443664
 10
154.9184960864295
 20
540.5575863443664
 10
154.9184960864295
 20
540.5575863443664
 10
154.7006960919316
 20
540.4989999999998
 10
154.7006960919316
 20
540.4989999999998
 10
154.6562960930532
 20
540.6254863426511
 10
154.6073960942886
 20
540.7494863395186
 10
154.5531960956578
 20
540.8710863364468
 10
154.5531960956578
 20
540.8710863364468
 10
154.7611960904032
 20
540.9911863334128
 10
154.7611960904032
 20
540.9911863334128
 10
154.7611960904032
 20
540.9911863334128
 10
154.3153961016651
 20
541.7631863139104
 10
154.3153961016651
 20
541.7631863139104
 10
154.3153961016651
 20
541.7631863139104
 10
154.1186961066342
 20
541.6498863167726
 10
154.1186961066342
 20
541.6498863167726
 10
154.0438961085238
 20
541.7602863139837
 10
153.9643961105321
 20
541.8666863112958
 10
153.8798961126668
 20
541.9706863086685
 10
153.8798961126668
 20
541.9706863086685
 10
154.0502961083621
 20
542.1410863043639
 10
154.0502961083621
 20
542.1410863043639
 10
154.0502961083621
 20
542.1410863043639
 10
153.4203961242747
 20
542.7709999999997
 10
153.4203961242747
 20
542.7709999999997
 10
153.4203961242747
 20
542.7709999999997
 10
153.2597961283318
 20
542.6107862924982
 10
153.2597961283318
 20
542.6107862924982
 10
153.1586961308858
 20
542.6977862903004
 10
153.0541961335257
 20
542.7802862882163
 10
152.9467961362388
 20
542.8588862862307
 10
152.9467961362388
 20
542.8588862862307
 10
153.0663961332175
 20
543.0673862809635
 10
153.0663961332175
 20
543.0673862809635
 10
153.0663961332175
 20
543.0673862809635
 10
152.2943961527199
 20
543.5131862697017
 10
152.2943961527199
 20
543.5131862697017
 10
152.2943961527199
 20
543.5131862697017
 10
152.1815961555694
 20
543.317386274648
 10
152.1815961555694
 20
543.317386274648
 10
152.0619999999999
 20
543.375
 10
151.9394961616854
 20
543.4291862718237
 10
151.8144961648431
 20
543.4770862706137
 10
151.8144961648431
 20
543.4770862706137
 10
151.8764961632769
 20
543.708486264768
 10
151.8764961632769
 20
543.708486264768
 10
151.8764961632769
 20
543.708486264768
 10
151.0150961850377
 20
543.9394862589324
 10
151.0150961850377
 20
543.9394862589324
 10
151.0150961850377
 20
543.9394862589324
 10
150.9564961865181
 20
543.7206862644598
 10
150.9564961865181
 20
543.7206862644598
 10
150.827096189787
 20
543.744586263856
 10
150.6942961931418
 20
543.7641862633609
 10
150.5609999999997
 20
543.7782862630047
 10
150.5609999999997
 20
543.7782862630047
 10
150.5609999999997
 20
544.0190000000002
 10
150.5609999999997
 20
544.0190000000002
 10
150.5609999999997
 20
544.0190000000002
 10
149.6693962190329
 20
544.0190000000002
 10
149.6693962190329
 20
544.0190000000002
 10
149.6693962190329
 20
544.0190000000002
 10
149.6693962190329
 20
543.7920000000004
 10
149.6693962190329
 20
543.7920000000004
 10
149.5351962224231
 20
543.7826862628935
 10
149.4027962257678
 20
543.7670862632876
 10
149.2724962290595
 20
543.7465862638055
 10
149.2724962290595
 20
543.7465862638055
 10
149.2103962306282
 20
543.9784862579472
 10
149.2103962306282
 20
543.9784862579472
 10
149.2103962306282
 20
543.9784862579472
 10
148.3485962523991
 20
543.7475862637802
 10
148.3485962523991
 20
543.7475862637802
 10
148.3485962523991
 20
543.7475862637802
 10
148.4066962509314
 20
543.5297862692823
 10
148.4066962509314
 20
543.5297862692823
 10
148.2807962541119
 20
543.485386270404
 10
148.1566962572469
 20
543.4364862716393
 10
148.0355962603062
 20
543.3822862730085
 10
148.0355962603062
 20
543.3822862730085
 10
147.9160000000002
 20
543.5897862677666
 10
147.9160000000002
 20
543.5897862677666
 10
147.9160000000002
 20
543.5897862677666
 10
147.1430962828526
 20
543.1444862790158
 10
147.1430962828526
 20
543.1444862790158
 10
147.1430962828526
 20
543.1444862790158
 10
147.2572962799677
 20
542.9477862839849
 10
147.2572962799677
 20
542.9477862839849
 10
147.1469999999999
 20
542.8729999999996
 10
147.0395962854673
 20
542.7929999999997
 10
146.9354962880971
 20
542.7089999999998
 10
146.9354962880971
 20
542.7089999999998
 10
146.7650962924017
 20
542.8793862857128
 10
146.7650962924017
 20
542.8793862857128
 10
146.7650962924017
 20
542.8793862857128
 10
146.1352963083118
 20
542.2489999999998
 10
146.1352963083118
 20
542.2489999999998
 10
146.1352963083118
 20
542.2489999999998
 10
146.2953963042673
 20
542.0888863056825
 10
146.2953963042673
 20
542.0888863056825
 10
146.2084963064626
 20
541.9882863082239
 10
146.1260000000002
 20
541.8832863108764
 10
146.0473963105323
 20
541.7758863135896
 10
146.0473963105323
 20
541.7758863135896
 10
145.8388963157995
 20
541.8954863105682
 10
145.8388963157995
 20
541.8954863105682
 10
145.8388963157995
 20
541.8954863105682
 10
145.3930963270614
 20
541.1239999999998
 10
145.3930963270614
 20
541.1239999999998
 10
145.3930963270614
 20
541.1239999999998
 10
145.5883963221277
 20
541.0106863329202
 10
145.5883963221277
 20
541.0106863329202
 10
145.5312963235701
 20
540.8910863359415
 10
145.478496324904
 20
540.7690000000002
 10
145.4291963261494
 20
540.6435863421939
 10
145.4291963261494
 20
540.6435863421939
 10
145.1981963319849
 20
540.7055863406276
 10
145.1981963319849
 20
540.7055863406276
 10
145.1981963319849
 20
540.7055863406276
 10
144.9677963378053
 20
539.8441863623884
 10
144.9677963378053
 20
539.8441863623884
 10
144.9677963378053
 20
539.8441863623884
 10
145.1854963323058
 20
539.7855863638688
 10
145.1854963323058
 20
539.7855863638688
 10
145.1615963329095
 20
539.6562863671352
 10
145.1420963334022
 20
539.5233863704925
 10
145.1283963337482
 20
539.39008637386
 10
145.1283963337482
 20
539.39008637386
 10
144.8871963398415
 20
539.39008637386
 10
144.8871963398415
 20
539.39008637386
 10
144.8871963398415
 20
539.39008637386
 10
144.8871963398415
 20
538.4984863963837
 10
144.8871963398415
 20
538.4984863963837
 10
144.8871963398415
 20
538.4984863963837
 10
145.1142963341044
 20
538.4984863963837
 10
145.1142963341044
 20
538.4984863963837
 10
145.1244963338468
 20
538.3646863997637
 10
145.1391963334754
 20
538.2318864031186
 10
145.1596963329575
 20
538.1015864064102
 10
145.1596963329575
 20
538.1015864064102
 10
144.9276963388184
 20
538.0390864079891
 10
144.9276963388184
 20
538.0390864079891
 10
144.9276963388184
 20
538.0390864079891
 10
145.1586963329828
 20
537.1776864297499
 10
145.1586963329828
 20
537.1776864297499
 10
145.1586963329828
 20
537.1776864297499
 10
145.3764963274807
 20
537.2362864282695
 10
145.3764963274807
 20
537.2362864282695
 10
145.4208963263591
 20
537.11038643145
 10
145.4696963251263
 20
536.9857864345977
 10
145.5238963237571
 20
536.8646864376569
 10
145.5238963237571
 20
536.8646864376569
 10
145.3158963290116
 20
536.7440864407035
 10
145.3158963290116
 20
536.7440864407035
 10
145.3158963290116
 20
536.7440864407035
 10
145.7616963177497
 20
535.9721864602034
 10
145.7616963177497
 20
535.9721864602034
 10
145.7616963177497
 20
535.9721864602034
 10
145.9584963127782
 20
536.0858864573311
 10
145.9584963127782
 20
536.0858864573311
 10
146.0341963108658
 20
535.9760864601049
 10
146.1132963088676
 20
535.868686462818
 10
146.1972963067456
 20
535.7650864654352
 10
146.1972963067456
 20
535.7650864654352
 10
146.0268963110502
 20
535.5941864697525
 10
146.0268963110502
 20
535.5941864697525
 10
146.0268963110502
 20
535.5941864697525
 10
146.6566962951401
 20
534.9643864856625
 10
146.6566962951401
 20
534.9643864856625
 10
146.6566962951401
 20
534.9643864856625
 10
146.8178962910679
 20
535.1244864816181
 10
146.8178962910679
 20
535.1244864816181
 10
146.9188962885164
 20
535.037086483826
 10
147.0224962858993
 20
534.9550864858975
 10
147.1308962831608
 20
534.8764864878831
 10
147.1308962831608
 20
534.8764864878831
 10
147.0106962861973
 20
534.6679999999997
 10
147.0106962861973
 20
534.6679999999997
 10
147.0106962861973
 20
534.6679999999997
 10
147.782696266695
 20
534.2221865044121
 10
147.782696266695
 20
534.2221865044121
 10
147.782696266695
 20
534.2221865044121
 10
147.8954962638454
 20
534.4174864994784
 10
147.8954962638454
 20
534.4174864994784
 10
148.0145962608367
 20
534.3603865009209
 10
148.1381962577143
 20
534.30658650228
 10
148.2621962545818
 20
534.2582865035001
 10
148.2621962545818
 20
534.2582865035001
 10
148.2011962561228
 20
534.0272865093357
 10
148.2011962561228
 20
534.0272865093357
 10
148.2011962561228
 20
534.0272865093357
 10
149.0619999999999
 20
533.7968865151561
 10
149.0619999999999
 20
533.7968865151561
 10
149.0619999999999
 20
533.7968865151561
 10
149.1200962329094
 20
534.0145865096565
 10
149.1200962329094
 20
534.0145865096565
 10
149.2510000000002
 20
533.9901865102729
 10
149.3822962262857
 20
533.9711865107529
 10
149.5160962229056
 20
533.9570000000003
 10
149.5160962229056
 20
533.9570000000003
 10
149.5160962229056
 20
533.7162865171922
 10
149.5160962229056
 20
533.7162865171922
 10
149.5160962229056
 20
533.7162865171922
 10
150.4081962003693
 20
533.7162865171922
 10
150.4081962003693
 20
533.7162865171922
 10
150.4081962003693
 20
533.7162865171922
 10
150.4081962003693
 20
533.9428865114678
 10
150.4081962003693
 20
533.9428865114678
 10
150.5414961970018
 20
533.9535865111975
 10
150.674296193647
 20
533.9682865108261
 10
150.8046961903528
 20
533.9882865103209
 10
150.8046961903528
 20
533.9882865103209
 10
150.8676961887613
 20
533.7567865161691
 10
150.8676961887613
 20
533.7567865161691
 10
150.8676961887613
 20
533.7567865161691
 10
151.7284961670157
 20
533.9877865103335
 10
151.7284961670157
 20
533.9877865103335
 10
151.7284961670157
 20
533.9877865103335
 10
151.6698961684961
 20
534.2055865048314
 10
151.6698961684961
 20
534.2055865048314
 10
151.7963961653004
 20
534.25
 10
151.9203961621679
 20
534.2992865024644
 10
152.0414961591086
 20
534.3524865011204
 10
152.0414961591086
 20
534.3524865011204
 10
152.162096156062
 20
534.1450000000004
 10
152.162096156062
 20
534.1450000000004
 10
152.162096156062
 20
534.1450000000004
 10
152.9335961365723
 20
534.5912864950878
 10
152.9335961365723
 20
534.5912864950878
 10
152.9335961365723
 20
534.5912864950878
 10
152.8207961394219
 20
534.7870864901415
 10
152.8207961394219
 20
534.7870864901415
 10
152.9311961366329
 20
534.8622864882418
 10
153.037596133945
 20
534.9418864862309
 10
153.1415961313178
 20
535.0263864840963
 10
153.1415961313178
 20
535.0263864840963
 10
153.3119999999999
 20
534.8559999999998
 10
153.3119999999999
 20
534.8559999999998
 10
153.3119999999999
 20
534.8559999999998
 10
153.9418961111005
 20
535.4857864724909
 10
153.9418961111005
 20
535.4857864724909
 10
153.9418961111005
 20
535.4857864724909
 10
153.7816961151475
 20
535.6469999999999
 10
153.7816961151475
 20
535.6469999999999
 10
153.8686961129497
 20
535.7479999999996
 10
153.9511961108656
 20
535.8520864632374
 10
154.02979610888
 20
535.9603864605015
 10
154.02979610888
 20
535.9603864605015
 10
154.2387961036002
 20
535.8397864635481
 10
154.2387961036002
 20
535.8397864635481
 10
154.2387961036002
 20
535.8397864635481
 10
154.684096092351
 20
536.6112864440584
 10
154.684096092351
 20
536.6112864440584
 10
154.684096092351
 20
536.6112864440584
 10
154.4887960972846
 20
536.7245864411962
 10
154.4887960972846
 20
536.7245864411962
 10
154.5458960958422
 20
536.8441864381748
 10
154.5995960944856
 20
536.967286435065
 10
154.6478960932654
 20
537.0912864319325
 10
154.6478960932654
 20
537.0912864319325
 10
154.8793960874173
 20
537.0292864334988
 10
154.8793960874173
 20
537.0292864334988
 10
154.8793960874173
 20
537.0292864334988
 10
155.1103960815817
 20
537.8910864117279
 10
155.1103960815817
 20
537.8910864117279
 10
155.1103960815817
 20
537.8910864117279
 10
154.8915960871091
 20
537.9496864102475
 10
154.8915960871091
 20
537.9496864102475
 10
154.9154960865053
 20
538.0800864069533
 10
154.9350960860102
 20
538.2118864036238
 10
154.9501960856287
 20
538.3451864002564
 10
154.9501960856287
 20
538.3451864002564
 10
155.1898960795734
 20
538.3451864002564
 10
155.1898960795734
 20
538.3451864002564
 10
155.1898960795734
 20
538.3451864002564
 10
155.1898960795734
 20
538.9428863851572
 10
155.1898960795734
 20
538.9428863851572
 10
155.1898960795734
 20
538.9428863851572
 10
156.9306960355971
 20
539.2670863769672
 10
156.9306960355971
 20
539.2670863769672
 10
156.9306960355971
 20
539.2670863769672
 10
157.1030000000001
 20
538.1674864047454
 10
157.1030000000001
 20
538.1674864047454
 10
157.1030000000001
 20
538.1674864047454
 10
159.7772959636859
 20
538.3290864006631
 10
159.7772959636859
 20
538.3290864006631
 10
159.7772959636859
 20
538.3290864006631
 10
159.7875959634257
 20
538.3588863999103
 10
159.7875959634257
 20
538.3588863999103
 10
159.7875959634257
 20
538.3588863999103
 10
164.5048958442567
 20
538.3588863999103
 10
164.5048958442567
 20
538.3588863999103
 10
164.5048958442567
 20
538.3588863999103
 10
164.5097958441329
 20
538.3563863999734
 10
164.5097958441329
 20
538.3563863999734
 10
164.5097958441329
 20
538.3563863999734
 10
164.5116958440849
 20
538.3588863999103
 10
164.5116958440849
 20
538.3588863999103
 10
164.5116958440849
 20
538.3588863999103
 10
165.9603958074877
 20
538.3588863999103
 10
165.9603958074877
 20
538.3588863999103
 10
165.9696958072527
 20
538.2728864020828
 10
165.9799999999996
 20
538.1869999999999
 10
165.9936958066464
 20
538.1015864064102
 10
165.9936958066464
 20
538.1015864064102
 10
165.7621958124946
 20
538.0390864079891
 10
165.7621958124946
 20
538.0390864079891
 10
165.7621958124946
 20
538.0390864079891
 10
165.9931958066591
 20
537.1776864297499
 10
165.9931958066591
 20
537.1776864297499
 10
165.9931958066591
 20
537.1776864297499
 10
166.2103958011721
 20
537.2362864282695
 10
166.2103958011721
 20
537.2362864282695
 10
166.2553958000353
 20
537.11038643145
 10
166.3041957988025
 20
536.9857864345977
 10
166.357895797446
 20
536.8646864376569
 10
166.357895797446
 20
536.8646864376569
 10
166.1503958026879
 20
536.7440864407035
 10
166.1503958026879
 20
536.7440864407035
 10
166.1503958026879
 20
536.7440864407035
 10
166.596195791426
 20
535.9721864602034
 10
166.596195791426
 20
535.9721864602034
 10
166.596195791426
 20
535.9721864602034
 10
166.792495786467
 20
536.0858864573311
 10
166.792495786467
 20
536.0858864573311
 10
166.8676957845673
 20
535.9760864601049
 10
166.9472957825565
 20
535.868686462818
 10
167.0316957804243
 20
535.7650864654352
 10
167.0316957804243
 20
535.7650864654352
 10
166.861295784729
 20
535.5941864697525
 10
166.861295784729
 20
535.5941864697525
 10
166.861295784729
 20
535.5941864697525
 10
167.4911957688164
 20
534.9643864856625
 10
167.4911957688164
 20
534.9643864856625
 10
167.4911957688164
 20
534.9643864856625
 10
167.6513957647694
 20
535.1244864816181
 10
167.6513957647694
 20
535.1244864816181
 10
167.7523957622179
 20
535.037086483826
 10
167.856895759578
 20
534.9550864858975
 10
167.9643957568624
 20
534.8764864878831
 10
167.9643957568624
 20
534.8764864878831
 10
167.8451957598736
 20
534.6679999999997
 10
167.8451957598736
 20
534.6679999999997
 10
167.8451957598736
 20
534.6679999999997
 10
168.6166957403839
 20
534.2221865044121
 10
168.6166957403839
 20
534.2221865044121
 10
168.6166957403839
 20
534.2221865044121
 10
168.7299999999996
 20
534.4174864994784
 10
168.7299999999996
 20
534.4174864994784
 10
168.8495957345003
 20
534.3603865009209
 10
168.9716957314158
 20
534.30658650228
 10
169.0966957282581
 20
534.2582865035001
 10
169.0966957282581
 20
534.2582865035001
 10
169.0346957298243
 20
534.0272865093357
 10
169.0346957298243
 20
534.0272865093357
 10
169.0346957298243
 20
534.0272865093357
 10
169.8964957080534
 20
533.7968865151561
 10
169.8964957080534
 20
533.7968865151561
 10
169.8964957080534
 20
533.7968865151561
 10
169.955095706573
 20
534.0145865096565
 10
169.955095706573
 20
534.0145865096565
 10
170.0844957033041
 20
533.9901865102729
 10
170.2167956999619
 20
533.9711865107529
 10
170.3505956965819
 20
533.9570000000003
 10
170.3505956965819
 20
533.9570000000003
 10
170.3505956965819
 20
533.7162865171922
 10
170.3505956965819
 20
533.7162865171922
 10
170.3505956965819
 20
533.7162865171922
 10
171.2416956740708
 20
533.7162865171922
 10
171.2416956740708
 20
533.7162865171922
 10
171.2416956740708
 20
533.7162865171922
 10
171.2416956740708
 20
533.9428865114678
 10
171.2416956740708
 20
533.9428865114678
 10
171.3760000000002
 20
533.9535865111975
 10
171.5082956673359
 20
533.9682865108261
 10
171.6391956640291
 20
533.9882865103209
 10
171.6391956640291
 20
533.9882865103209
 10
171.7011956624629
 20
533.7567865161691
 10
171.7011956624629
 20
533.7567865161691
 10
171.7011956624629
 20
533.7567865161691
 10
172.5630000000001
 20
533.9877865103335
 10
172.5630000000001
 20
533.9877865103335
 10
172.5630000000001
 20
533.9877865103335
 10
172.5043956421723
 20
534.2055865048314
 10
172.5043956421723
 20
534.2055865048314
 10
172.6303956389893
 20
534.25
 10
172.7543956358568
 20
534.2992865024644
 10
172.8760000000002
 20
534.3524865011204
 10
172.8760000000002
 20
534.3524865011204
 10
172.9955956297636
 20
534.1450000000004
 10
172.9955956297636
 20
534.1450000000004
 10
172.9955956297636
 20
534.1450000000004
 10
173.7685956102359
 20
534.5912864950878
 10
173.7685956102359
 20
534.5912864950878
 10
173.7685956102359
 20
534.5912864950878
 10
173.6542956131234
 20
534.7870864901415
 10
173.6542956131234
 20
534.7870864901415
 10
173.764595610337
 20
534.8622864882418
 10
173.8720956076213
 20
534.9418864862309
 10
173.976095604994
 20
535.0263864840963
 10
173.976095604994
 20
535.0263864840963
 10
174.1459999999997
 20
534.8559999999998
 10
174.1459999999997
 20
534.8559999999998
 10
174.1459999999997
 20
534.8559999999998
 10
174.7763955847768
 20
535.4857864724909
 10
174.7763955847768
 20
535.4857864724909
 10
174.7763955847768
 20
535.4857864724909
 10
174.6156955888364
 20
535.6469999999999
 10
174.6156955888364
 20
535.6469999999999
 10
174.7030955866285
 20
535.7479999999996
 10
174.7855955845444
 20
535.8520864632374
 10
174.8642955825562
 20
535.9603864605015
 10
174.8642955825562
 20
535.9603864605015
 10
175.0727955772891
 20
535.8397864635481
 10
175.0727955772891
 20
535.8397864635481
 10
175.0727955772891
 20
535.8397864635481
 10
175.5185955660272
 20
536.6112864440584
 10
175.5185955660272
 20
536.6112864440584
 10
175.5185955660272
 20
536.6112864440584
 10
175.3227955709735
 20
536.7245864411962
 10
175.3227955709735
 20
536.7245864411962
 10
175.3803955695184
 20
536.8441864381748
 10
175.4340955681619
 20
536.967286435065
 10
175.4823955669417
 20
537.0912864319325
 10
175.4823955669417
 20
537.0912864319325
 10
175.7128955611188
 20
537.0292864334988
 10
175.7128955611188
 20
537.0292864334988
 10
175.7128955611188
 20
537.0292864334988
 10
175.9437955552858
 20
537.8910864117279
 10
175.9437955552858
 20
537.8910864117279
 10
175.9437955552858
 20
537.8910864117279
 10
175.7260955607853
 20
537.9496864102475
 10
175.7260955607853
 20
537.9496864102475
 10
175.7494955601942
 20
538.0800864069533
 10
175.7694955596889
 20
538.2118864036238
 10
175.7831955593429
 20
538.3451864002564
 10
175.7831955593429
 20
538.3451864002564
 10
176.0243955532496
 20
538.3451864002564
 10
176.0243955532496
 20
538.3451864002564
 10
176.0243955532496
 20
538.3451864002564
 10
176.0243955532496
 20
539.2362863777453
 10
176.0243955532496
 20
539.2362863777453
 10
176.0243955532496
 20
539.2362863777453
 10
175.7973955589841
 20
539.2362863777453
 10
175.7973955589841
 20
539.2362863777453
 10
175.7870955592443
 20
539.3705863743526
 10
175.7719999999999
 20
539.5028863710104
 10
175.7520000000004
 20
539.6337863677036
 10
175.7520000000004
 20
539.6337863677036
 10
175.9833955542854
 20
539.6957863661373
 10
175.9833955542854
 20
539.6957863661373
 10
175.9833955542854
 20
539.6957863661373
 10
175.7528955601083
 20
540.5575863443664
 10
175.7528955601083
 20
540.5575863443664
 10
175.7528955601083
 20
540.5575863443664
 10
175.5351955656079
 20
540.4989999999998
 10
175.5351955656079
 20
540.4989999999998
 10
175.490695566732
 20
540.6254863426511
 10
175.4418955679648
 20
540.7494863395186
 10
175.387695569334
 20
540.8710863364468
 10
175.387695569334
 20
540.8710863364468
 10
175.5951955640921
 20
540.9911863334128
 10
175.5951955640921
 20
540.9911863334128
 10
175.5951955640921
 20
540.9911863334128
 10
175.1498955753414
 20
541.7631863139104
 10
175.1498955753414
 20
541.7631863139104
 10
175.1498955753414
 20
541.7631863139104
 10
174.9530955803129
 20
541.6498863167726
 10
174.9530955803129
 20
541.6498863167726
 10
174.8783955822
 20
541.7602863139837
 10
174.7982955842235
 20
541.8666863112958
 10
174.7138955863556
 20
541.9706863086685
 10
174.7138955863556
 20
541.9706863086685
 10
174.8847955820384
 20
542.1410863043639
 10
174.8847955820384
 20
542.1410863043639
 10
174.8847955820384
 20
542.1410863043639
 10
174.2543955979636
 20
542.7709999999997
 10
174.2543955979636
 20
542.7709999999997
 10
174.2543955979636
 20
542.7709999999997
 10
174.0932956020333
 20
542.6107862924982
 10
174.0932956020333
 20
542.6107862924982
 10
173.9926956045747
 20
542.6977862903004
 10
173.888695607202
 20
542.7802862882163
 10
173.7802956099404
 20
542.8588862862307
 10
173.7802956099404
 20
542.8588862862307
 10
173.9003956069064
 20
543.0673862809635
 10
173.9003956069064
 20
543.0673862809635
 10
173.9003956069064
 20
543.0673862809635
 10
173.1288956263961
 20
543.5131862697017
 10
173.1288956263961
 20
543.5131862697017
 10
173.1288956263961
 20
543.5131862697017
 10
173.0160956292457
 20
543.317386274648
 10
173.0160956292457
 20
543.317386274648
 10
172.8959999999997
 20
543.375
 10
172.7728956353894
 20
543.4291862718237
 10
172.6488956385219
 20
543.4770862706137
 10
172.6488956385219
 20
543.4770862706137
 10
172.7103956369683
 20
543.708486264768
 10
172.7103956369683
 20
543.708486264768
 10
172.7103956369683
 20
543.708486264768
 10
171.8490956587266
 20
543.9394862589324
 10
171.8490956587266
 20
543.9394862589324
 10
171.8490956587266
 20
543.9394862589324
 10
171.7914956601817
 20
543.7206862644598
 10
171.7914956601817
 20
543.7206862644598
 10
171.6601956634986
 20
543.744586263856
 10
171.528795666818
 20
543.7641862633609
 10
171.3954956701855
 20
543.7782862630047
 10
171.3954956701855
 20
543.7782862630047
 10
171.3954956701855
 20
544.0190000000002
 10
171.3954956701855
 20
544.0190000000002
 10
171.3954956701855
 20
544.0190000000002
 10
170.5033956927218
 20
544.0190000000002
 10
170.5033956927218
 20
544.0190000000002
 10
170.5033956927218
 20
544.0190000000002
 10
170.5033956927218
 20
543.7920000000004
 10
170.5033956927218
 20
543.7920000000004
 10
170.3700956960893
 20
543.7826862628935
 10
170.2367956994567
 20
543.7670862632876
 10
170.1068957027383
 20
543.7465862638055
 10
170.1068957027383
 20
543.7465862638055
 10
170.0434957043399
 20
543.9784862579472
 10
170.0434957043399
 20
543.9784862579472
 10
170.0434957043399
 20
543.9784862579472
 10
169.5868957158746
 20
543.8559999999998
 10
169.5868957158746
 20
543.8559999999998
 10
169.5868957158746
 20
543.8559999999998
 10
169.1845957260375
 20
544.915
 10
169.1845957260375
 20
544.915
 10
170.5585956913274
 20
545.1635862280091
 10
171.9716956556294
 20
545.165
 10
173.4467956183653
 20
544.7582862382478
 10
173.5204956165035
 20
544.8842862350648
 10
173.594695614629
 20
545.0102862318818
 10
173.6688956127546
 20
545.137186228676
 10
173.1225956265553
 20
545.5404862184878
 10
172.3950000000004
 20
545.8671862102346
 10
171.042495679103
 20
545.9472862082112
 10
171.033195679338
 20
546.2621862002561
 10
171.0238956795729
 20
546.5770861923011
 10
171.0155956797826
 20
546.8930861843182
 10
171.0155956797826
 20
546.8930861843182
 10
168.8002957357457
 20
549.7558861119978
 10
168.8002957357457
 20
549.7558861119978
 10
168.8002957357457
 20
549.7558861119978
 10
167.2826957740835
 20
549.711386113122
 10
167.2826957740835
 20
549.711386113122
 10
167.2826957740835
 20
549.711386113122
 10
166.4350957954957
 20
552.015586054913
 10
166.4350957954957
 20
552.015586054913
 10
166.4350957954957
 20
552.015586054913
 10
163.7870958623898
 20
552.015586054913
 10
163.7870958623898
 20
552.015586054913
 10
163.7870958623898
 20
552.015586054913
 10
163.7870958623898
 20
552.3656860460687
 10
163.7870958623898
 20
552.3656860460687
 10
163.7870958623898
 20
552.3656860460687
 10
163.3285958739725
 20
552.3656860460687
 10
163.3285958739725
 20
552.3656860460687
 10
163.3285958739725
 20
552.3656860460687
 10
163.3285958739725
 20
552.1361860518664
 10
163.3285958739725
 20
552.1361860518664
 10
163.3285958739725
 20
552.1361860518664
 10
161.4774959207352
 20
552.1361860518664
 10
161.4774959207352
 20
552.1361860518664
 10
161.4774959207352
 20
552.1361860518664
 10
161.4774959207352
 20
551.3524860716643
 10
161.4774959207352
 20
551.3524860716643
 10
161.4774959207352
 20
551.3524860716643
 10
163.3285958739725
 20
551.3524860716643
 10
163.3285958739725
 20
551.3524860716643
 10
163.3285958739725
 20
551.3524860716643
 10
163.3285958739725
 20
551.1234860774493
 10
163.3285958739725
 20
551.1234860774493
 10
163.3285958739725
 20
551.1234860774493
 10
163.7870958623898
 20
551.1234860774493
 10
163.7870958623898
 20
551.1234860774493
 10
163.7870958623898
 20
551.1234860774493
 10
163.7870958623898
 20
551.4140860701082
 10
163.7870958623898
 20
551.4140860701082
 10
163.7870958623898
 20
551.4140860701082
 10
164.8402958357838
 20
551.1781860760675
 10
164.8402958357838
 20
551.1781860760675
 10
164.8402958357838
 20
551.1781860760675
 10
165.0390958307617
 20
549.644486114812
 10
165.0390958307617
 20
549.644486114812
 10
165.0390958307617
 20
549.644486114812
 10
163.3432958736012
 20
549.5937861160928
 10
163.3432958736012
 20
549.5937861160928
 10
163.3432958736012
 20
549.5937861160928
 10
160.0204959575422
 20
547.4062861713537
 10
160.0204959575422
 20
547.4062861713537
 10
160.0204959575422
 20
547.4062861713537
 10
159.8320000000003
 20
547.6762861645329
 10
159.8320000000003
 20
547.6762861645329
 10
159.8320000000003
 20
547.6762861645329
 10
161.5604959186385
 20
548.8646861345114
 10
161.5604959186385
 20
548.8646861345114
 10
161.5604959186385
 20
548.8646861345114
 10
161.2489999999998
 20
549.3651861218677
 10
161.2489999999998
 20
549.3651861218677
 10
161.2489999999998
 20
549.3651861218677
 10
156.4687960472656
 20
548.7431861375808
 10
156.4687960472656
 20
548.7431861375808
 10
156.4687960472656
 20
548.7431861375808
 10
149.228496230171
 20
549.0678861293782
 10
149.228496230171
 20
549.0678861293782
 10
149.228496230171
 20
549.0678861293782
 10
148.7958962410994
 20
548.324686148153
 10
148.7958962410994
 20
548.324686148153
 10
148.7958962410994
 20
548.324686148153
 10
147.7562962673619
 20
548.324686148153
 10
147.7562962673619
 20
548.324686148153
 10
147.7562962673619
 20
548.324686148153
 10
147.5941962714569
 20
547.5683861672587
 10
147.5941962714569
 20
547.5683861672587
 10
147.5941962714569
 20
547.5683861672587
 10
148.1845962565421
 20
547.2821861744887
 10
148.1845962565421
 20
547.2821861744887
 10
148.1845962565421
 20
547.2821861744887
 10
147.816896265831
 20
546.4380000000001
 10
147.816896265831
 20
546.4380000000001
 10
147.816896265831
 20
546.4380000000001
 10
148.429196250363
 20
545.4374862210898
 10
148.429196250363
 20
545.4374862210898
 10
148.429196250363
 20
545.4374862210898
 10
155.2426960782395
 20
542.449686296568
 10
155.2426960782395
 20
542.449686296568
 10
155.2426960782395
 20
542.449686296568
 10
155.4027960741951
 20
542.8173862872791
 10
155.4027960741951
 20
542.8173862872791
 10
155.4027960741951
 20
542.8173862872791
 10
156.3109999999997
 20
542.3837862982327
 10
156.3109999999997
 20
542.3837862982327
 10
156.3109999999997
 20
542.3837862982327
 10
156.4442960478846
 20
542.3837862982327
 10
156.4442960478846
 20
542.3837862982327
 10
156.4442960478846
 20
542.3837862982327
 10
156.6890000000003
 20
540.8163863378286
 10
156.6890000000003
 20
540.8163863378286
 10
156.6890000000003
 20
540.8163863378286
 10
154.9369999999999
 20
540.4901863460691
 10
154.9369999999999
 20
540.4901863460691
 10
154.9369999999999
 20
540.4901863460691
 10
154.9369999999999
 20
540.4901863460691
 10
154.9369999999999
 20
540.4901863460691
 97
        0
 92
        1
 93
        1
 72
     4
 94
        3
 73
     0
 74
     1
 95
       74
 96
       70
 40
0.0
 40
0.0
 40
0.0
 40
0.0
 40
1.0
 40
1.0
 40
1.0
 40
2.0
 40
2.0
 40
2.0
 40
3.0
 40
3.0
 40
3.0
 40
4.0
 40
4.0
 40
4.0
 40
5.0
 40
5.0
 40
5.0
 40
6.0
 40
6.0
 40
6.0
 40
7.0
 40
7.0
 40
7.0
 40
8.0
 40
8.0
 40
8.0
 40
9.0
 40
9.0
 40
9.0
 40
10.0
 40
10.0
 40
10.0
 40
11.0
 40
11.0
 40
11.0
 40
12.0
 40
12.0
 40
12.0
 40
13.0
 40
13.0
 40
13.0
 40
14.0
 40
14.0
 40
14.0
 40
15.0
 40
15.0
 40
15.0
 40
16.0
 40
16.0
 40
16.0
 40
17.0
 40
17.0
 40
17.0
 40
18.0
 40
18.0
 40
18.0
 40
19.0
 40
19.0
 40
19.0
 40
20.0
 40
20.0
 40
20.0
 40
21.0
 40
21.0
 40
21.0
 40
22.0
 40
22.0
 40
22.0
 40
23.0
 40
23.0
 40
23.0
 40
23.0
 10
168.3441957472678
 20
543.3563862736628
 10
168.3441957472678
 20
543.3563862736628
 10
167.9780000000001
 20
543.1444862790158
 10
167.9780000000001
 20
543.1444862790158
 10
167.9780000000001
 20
543.1444862790158
 10
168.0902957536819
 20
542.9477862839849
 10
168.0902957536819
 20
542.9477862839849
 10
167.9804957564556
 20
542.8729999999996
 10
167.8734957591587
 20
542.7929999999997
 10
167.7700000000004
 20
542.7089999999998
 10
167.7700000000004
 20
542.7089999999998
 10
167.5990957660906
 20
542.8793862857128
 10
167.5990957660906
 20
542.8793862857128
 10
167.5990957660906
 20
542.8793862857128
 10
166.9691957820032
 20
542.2489999999998
 10
166.9691957820032
 20
542.2489999999998
 10
166.9691957820032
 20
542.2489999999998
 10
167.1298957779436
 20
542.0888863056825
 10
167.1298957779436
 20
542.0888863056825
 10
167.0424957801515
 20
541.9882863082239
 10
166.9603957822255
 20
541.8832863108764
 10
166.8812957842238
 20
541.7758863135896
 10
166.8812957842238
 20
541.7758863135896
 10
166.6728957894884
 20
541.8954863105682
 10
166.6728957894884
 20
541.8954863105682
 10
166.6728957894884
 20
541.8954863105682
 10
166.2274958007401
 20
541.1239999999998
 10
166.2274958007401
 20
541.1239999999998
 10
166.2274958007401
 20
541.1239999999998
 10
166.4228957958039
 20
541.0106863329202
 10
166.4228957958039
 20
541.0106863329202
 10
166.3656957972489
 20
540.8910863359415
 10
166.3114957986181
 20
540.7690000000002
 10
166.2636957998257
 20
540.6435863421939
 10
166.2636957998257
 20
540.6435863421939
 10
166.0316958056865
 20
540.7055863406276
 10
166.0316958056865
 20
540.7055863406276
 10
166.0316958056865
 20
540.7055863406276
 10
165.8012958115069
 20
539.8441863623884
 10
165.8012958115069
 20
539.8441863623884
 10
165.8012958115069
 20
539.8441863623884
 10
166.0200000000004
 20
539.7855863638688
 10
166.0200000000004
 20
539.7855863638688
 10
165.9955958065984
 20
539.6562863671352
 10
165.976095807091
 20
539.5233863704925
 10
165.9613958074624
 20
539.39008637386
 10
165.9613958074624
 20
539.39008637386
 10
165.7211958135304
 20
539.39008637386
 10
165.7211958135304
 20
539.39008637386
 10
165.7211958135304
 20
539.39008637386
 10
165.7211958135304
 20
539.3798863741176
 10
165.7211958135304
 20
539.3798863741176
 10
165.7211958135304
 20
539.3798863741176
 10
164.8847958346596
 20
539.3798863741176
 10
164.8847958346596
 20
539.3798863741176
 10
164.8847958346596
 20
539.3798863741176
 10
166.2172958009978
 20
543.0136862823201
 10
166.2172958009978
 20
543.0136862823201
 10
166.2172958009978
 20
543.0136862823201
 10
166.9896957814854
 20
543.0829999999996
 10
166.9896957814854
 20
543.0829999999996
 10
166.9896957814854
 20
543.0829999999996
 10
167.6503957647947
 20
544.6190862417643
 10
167.6503957647947
 20
544.6190862417643
 10
167.6503957647947
 20
544.6190862417643
 10
168.3441957472678
 20
543.3563862736628
 10
168.3441957472678
 20
543.3563862736628
 10
168.3441957472678
 20
543.3563862736628
 10
168.3441957472678
 20
543.3563862736628
 10
168.3441957472678
 20
543.3563862736628
 97
        0
 92
        1
 93
        1
 72
     4
 94
        3
 73
     0
 74
     1
 95
       32
 96
       28
 40
0.0
 40
0.0
 40
0.0
 40
0.0
 40
1.0
 40
1.0
 40
1.0
 40
2.0
 40
2.0
 40
2.0
 40
3.0
 40
3.0
 40
3.0
 40
4.0
 40
4.0
 40
4.0
 40
5.0
 40
5.0
 40
5.0
 40
6.0
 40
6.0
 40
6.0
 40
7.0
 40
7.0
 40
7.0
 40
8.0
 40
8.0
 40
8.0
 40
9.0
 40
9.0
 40
9.0
 40
9.0
 10
172.1986956498949
 20
540.1933863535669
 10
172.538095641321
 20
539.8544863621282
 10
172.7479999999996
 20
539.3856863739711
 10
172.7479999999996
 20
538.8676863870569
 10
172.7479999999996
 20
538.3500864001326
 10
172.538095641321
 20
537.8808864119856
 10
172.1986956498949
 20
537.5414864205595
 10
171.8593956584664
 20
537.2025864291209
 10
171.3910956702966
 20
536.992186434436
 10
170.872595683395
 20
536.992186434436
 10
170.3549999999996
 20
536.992186434436
 10
169.8861957083136
 20
537.2025864291209
 10
169.546895716885
 20
537.5414864205595
 10
169.2070000000003
 20
537.8808864119856
 10
168.9975957307615
 20
538.3500864001326
 10
168.9975957307615
 20
538.8676863870569
 10
168.9975957307615
 20
539.3856863739711
 10
169.2070000000003
 20
539.8544863621282
 10
169.546895716885
 20
540.1933863535669
 10
169.8861957083136
 20
540.5336863449702
 10
170.3549999999996
 20
540.7426863396904
 10
170.872595683395
 20
540.7426863396904
 10
171.3910956702966
 20
540.7426863396904
 10
171.8593956584664
 20
540.5336863449702
 10
172.1986956498949
 20
540.1933863535669
 10
172.1986956498949
 20
540.1933863535669
 10
172.1986956498949
 20
540.1933863535669
 10
172.1986956498949
 20
540.1933863535669
 97
        0
 92
        1
 93
        1
 72
     4
 94
        3
 73
     0
 74
     1
 95
       32
 96
       28
 40
0.0
 40
0.0
 40
0.0
 40
0.0
 40
1.0
 40
1.0
 40
1.0
 40
2.0
 40
2.0
 40
2.0
 40
3.0
 40
3.0
 40
3.0
 40
4.0
 40
4.0
 40
4.0
 40
5.0
 40
5.0
 40
5.0
 40
6.0
 40
6.0
 40
6.0
 40
7.0
 40
7.0
 40
7.0
 40
8.0
 40
8.0
 40
8.0
 40
9.0
 40
9.0
 40
9.0
 40
9.0
 10
151.3642961762162
 20
540.1933863535669
 10
151.0253961847775
 20
540.5336863449702
 10
150.5561961966305
 20
540.7426863396904
 10
150.0385962097062
 20
540.7426863396904
 10
149.5204962227945
 20
540.7426863396904
 10
149.0517962346348
 20
540.5336863449702
 10
148.7128962431962
 20
540.1933863535669
 10
148.3734962517701
 20
539.8544863621282
 10
148.1635962570726
 20
539.3856863739711
 10
148.1635962570726
 20
538.8676863870569
 10
148.1635962570726
 20
538.3500864001326
 10
148.3734962517701
 20
537.8808864119856
 10
148.7128962431962
 20
537.5414864205595
 10
149.0517962346348
 20
537.2025864291209
 10
149.5204962227945
 20
536.992186434436
 10
150.0385962097062
 20
536.992186434436
 10
150.5561961966305
 20
536.992186434436
 10
151.0253961847775
 20
537.2025864291209
 10
151.3642961762162
 20
537.5414864205595
 10
151.7045961676195
 20
537.8808864119856
 10
151.914096162327
 20
538.3500864001326
 10
151.914096162327
 20
538.8676863870569
 10
151.914096162327
 20
539.3856863739711
 10
151.7045961676195
 20
539.8544863621282
 10
151.3642961762162
 20
540.1933863535669
 10
151.3642961762162
 20
540.1933863535669
 10
151.3642961762162
 20
540.1933863535669
 10
151.3642961762162
 20
540.1933863535669
 97
        0
 92
        1
 93
        4
 72
     1
 10
169.1239999999998
 20
548.7290000000003
 11
170.5014956927698
 21
547.0272861809281
 72
     1
 10
170.5014956927698
 20
547.0272861809281
 11
166.0580958050195
 21
547.8114861611175
 72
     1
 10
166.0580958050195
 20
547.8114861611175
 11
165.8012958115069
 21
548.851086134855
 72
     1
 10
165.8012958115069
 20
548.851086134855
 11
169.1239999999998
 21
548.7290000000003
 97
        0
 92
        1
 93
       14
 72
     1
 10
149.5990962208089
 20
547.4330861706767
 11
155.6928960668665
 21
544.7611862381746
 72
     1
 10
155.6928960668665
 20
544.7611862381746
 11
155.5038960716411
 21
544.3275862491282
 72
     1
 10
155.5038960716411
 20
544.3275862491282
 11
156.6283960432338
 21
543.7910000000002
 72
     1
 10
156.6283960432338
 20
543.7910000000002
 11
158.6732959915753
 21
543.7910000000002
 72
     1
 10
158.6732959915753
 20
543.7910000000002
 11
158.6732959915753
 21
542.8944862853314
 72
     1
 10
158.6732959915753
 20
542.8944862853314
 11
156.5277960457752
 21
542.8944862853314
 72
     1
 10
156.5277960457752
 20
542.8944862853314
 11
156.4267960483267
 21
542.8944862853314
 72
     1
 10
156.4267960483267
 20
542.8944862853314
 11
156.335
 21
542.9390000000003
 72
     1
 10
156.335
 20
542.9390000000003
 11
155.1459999999997
 21
543.5053862698987
 72
     1
 10
155.1459999999997
 20
543.5053862698987
 11
154.9784960849138
 21
543.1220862795817
 72
     1
 10
154.9784960849138
 20
543.1220862795817
 11
148.7812962414682
 21
545.8402862109142
 72
     1
 10
148.7812962414682
 20
545.8402862109142
 11
148.3910962513255
 21
546.4780000000001
 72
     1
 10
148.3910962513255
 20
546.4780000000001
 11
148.7728962416804
 21
547.3534861726876
 72
     1
 10
148.7728962416804
 20
547.3534861726876
 11
149.5990962208089
 21
547.4330861706767
 97
        0
 92
        1
 93
        3
 72
     1
 10
162.6308958915979
 20
539.3798863741176
 11
160.1142959551726
 21
539.3798863741176
 72
     1
 10
160.1142959551726
 20
539.3798863741176
 11
160.4892959456993
 21
540.5473863446241
 72
     1
 10
160.4892959456993
 20
540.5473863446241
 11
162.6308958915979
 21
539.3798863741176
 97
        0
 92
        1
 93
        4
 72
     1
 10
163.2831958751194
 20
540.1830863538271
 11
163.9916958572212
 21
542.8134862873776
 72
     1
 10
163.9916958572212
 20
542.8134862873776
 11
165.0941958293697
 21
542.9125862848741
 72
     1
 10
165.0941958293697
 20
542.9125862848741
 11
163.9584958580599
 21
539.815386363116
 72
     1
 10
163.9584958580599
 20
539.815386363116
 11
163.2831958751194
 21
540.1830863538271
 97
        0
 92
        1
 93
        1
 72
     4
 94
        3
 73
     0
 74
     1
 95
       20
 96
       16
 40
0.0
 40
0.0
 40
0.0
 40
0.0
 40
1.0
 40
1.0
 40
1.0
 40
2.0
 40
2.0
 40
2.0
 40
3.0
 40
3.0
 40
3.0
 40
4.0
 40
4.0
 40
4.0
 40
5.0
 40
5.0
 40
5.0
 40
5.0
 10
169.5155957176758
 20
539.2343863777933
 10
169.6835957134317
 20
539.2343863777933
 10
169.8192957100036
 20
539.0980863812365
 10
169.8192957100036
 20
538.9306863854654
 10
169.8192957100036
 20
538.7626863897094
 10
169.6835957134317
 20
538.6270000000004
 10
169.5155957176758
 20
538.6270000000004
 10
169.3476957219173
 20
538.6270000000004
 10
169.2113957253605
 20
538.7626863897094
 10
169.2113957253605
 20
538.9306863854654
 10
169.2113957253605
 20
539.0980863812365
 10
169.3476957219173
 20
539.2343863777933
 10
169.5155957176758
 20
539.2343863777933
 10
169.5155957176758
 20
539.2343863777933
 10
169.5155957176758
 20
539.2343863777933
 10
169.5155957176758
 20
539.2343863777933
 97
        0
 92
        1
 93
        1
 72
     4
 94
        3
 73
     0
 74
     1
 95
       20
 96
       16
 40
0.0
 40
0.0
 40
0.0
 40
0.0
 40
1.0
 40
1.0
 40
1.0
 40
2.0
 40
2.0
 40
2.0
 40
3.0
 40
3.0
 40
3.0
 40
4.0
 40
4.0
 40
4.0
 40
5.0
 40
5.0
 40
5.0
 40
5.0
 10
169.6537957141845
 20
538.1674864047454
 10
169.7719999999999
 20
538.285586401762
 10
169.964795706328
 20
538.285586401762
 10
170.0834957033294
 20
538.1674864047454
 10
170.2020957003333
 20
538.048786407744
 10
170.2020957003333
 20
537.8559999999998
 10
170.0834957033294
 20
537.7372864156132
 10
169.964795706328
 20
537.6186864186093
 10
169.7719999999999
 20
537.6186864186093
 10
169.6537957141845
 20
537.7372864156132
 10
169.5351957171806
 20
537.8559999999998
 10
169.5351957171806
 20
538.048786407744
 10
169.6537957141845
 20
538.1674864047454
 10
169.6537957141845
 20
538.1674864047454
 10
169.6537957141845
 20
538.1674864047454
 10
169.6537957141845
 20
538.1674864047454
 97
        0
 92
        1
 93
        1
 72
     4
 94
        3
 73
     0
 74
     1
 95
       20
 96
       16
 40
0.0
 40
0.0
 40
0.0
 40
0.0
 40
1.0
 40
1.0
 40
1.0
 40
2.0
 40
2.0
 40
2.0
 40
3.0
 40
3.0
 40
3.0
 40
4.0
 40
4.0
 40
4.0
 40
5.0
 40
5.0
 40
5.0
 40
5.0
 10
170.5058956926587
 20
537.5106864213376
 10
170.5058956926587
 20
537.6781864171062
 10
170.642095689218
 20
537.8140000000003
 10
170.8100956849739
 20
537.8140000000003
 10
170.9774956807451
 20
537.8140000000003
 10
171.1137956773018
 20
537.6781864171062
 10
171.1137956773018
 20
537.5106864213376
 10
171.1137956773018
 20
537.3422864255917
 10
170.9774956807451
 20
537.2064864290223
 10
170.8100956849739
 20
537.2064864290223
 10
170.642095689218
 20
537.2064864290223
 10
170.5058956926587
 20
537.3422864255917
 10
170.5058956926587
 20
537.5106864213376
 10
170.5058956926587
 20
537.5106864213376
 10
170.5058956926587
 20
537.5106864213376
 10
170.5058956926587
 20
537.5106864213376
 97
        0
 92
        1
 93
        1
 72
     4
 94
        3
 73
     0
 74
     1
 95
       20
 96
       16
 40
0.0
 40
0.0
 40
0.0
 40
0.0
 40
1.0
 40
1.0
 40
1.0
 40
2.0
 40
2.0
 40
2.0
 40
3.0
 40
3.0
 40
3.0
 40
4.0
 40
4.0
 40
4.0
 40
5.0
 40
5.0
 40
5.0
 40
5.0
 10
171.5736956656838
 20
537.6488864178464
 10
171.4545956686925
 20
537.7680864148351
 10
171.4545956686925
 20
537.96
 10
171.5736956656838
 20
538.0790864069786
 10
171.6918956626978
 20
538.19778640398
 10
171.8842956578374
 20
538.19778640398
 10
172.0033956548286
 20
538.0790864069786
 10
172.1215956518427
 20
537.96
 10
172.1215956518427
 20
537.7680864148351
 10
172.0033956548286
 20
537.6488864178464
 10
171.8842956578374
 20
537.5307864208298
 10
171.6918956626978
 20
537.5307864208298
 10
171.5736956656838
 20
537.6488864178464
 10
171.5736956656838
 20
537.6488864178464
 10
171.5736956656838
 20
537.6488864178464
 10
171.5736956656838
 20
537.6488864178464
 97
        0
 92
        1
 93
        1
 72
     4
 94
        3
 73
     0
 74
     1
 95
       20
 96
       16
 40
0.0
 40
0.0
 40
0.0
 40
0.0
 40
1.0
 40
1.0
 40
1.0
 40
2.0
 40
2.0
 40
2.0
 40
3.0
 40
3.0
 40
3.0
 40
4.0
 40
4.0
 40
4.0
 40
5.0
 40
5.0
 40
5.0
 40
5.0
 10
172.2304956490916
 20
538.5020000000004
 10
172.0614956533609
 20
538.5020000000004
 10
171.9262956567763
 20
538.6366863928924
 10
171.9262956567763
 20
538.8051863886358
 10
171.9262956567763
 20
538.9730863843943
 10
172.0614956533609
 20
539.109386380951
 10
172.2304956490916
 20
539.109386380951
 10
172.3978956448627
 20
539.109386380951
 10
172.5336956414321
 20
538.9730863843943
 10
172.5336956414321
 20
538.8051863886358
 10
172.5336956414321
 20
538.6366863928924
 10
172.3978956448627
 20
538.5020000000004
 10
172.2304956490916
 20
538.5020000000004
 10
172.2304956490916
 20
538.5020000000004
 10
172.2304956490916
 20
538.5020000000004
 10
172.2304956490916
 20
538.5020000000004
 97
        0
 92
        1
 93
        1
 72
     4
 94
        3
 73
     0
 74
     1
 95
       20
 96
       16
 40
0.0
 40
0.0
 40
0.0
 40
0.0
 40
1.0
 40
1.0
 40
1.0
 40
2.0
 40
2.0
 40
2.0
 40
3.0
 40
3.0
 40
3.0
 40
4.0
 40
4.0
 40
4.0
 40
5.0
 40
5.0
 40
5.0
 40
5.0
 10
172.0912956526081
 20
539.5678863693684
 10
171.9726956556042
 20
539.4496863723543
 10
171.7812956604394
 20
539.4496863723543
 10
171.6610956634759
 20
539.5678863693684
 10
171.542495666472
 20
539.6864863663723
 10
171.542495666472
 20
539.8793863614992
 10
171.6610956634759
 20
539.9979999999996
 10
171.7812956604394
 20
540.1166863555045
 10
171.9726956556042
 20
540.1166863555045
 10
172.0912956526081
 20
539.9979999999996
 10
172.2094956496221
 20
539.8793863614992
 10
172.2094956496221
 20
539.6864863663723
 10
172.0912956526081
 20
539.5678863693684
 10
172.0912956526081
 20
539.5678863693684
 10
172.0912956526081
 20
539.5678863693684
 10
172.0912956526081
 20
539.5678863693684
 97
        0
 92
        1
 93
        1
 72
     4
 94
        3
 73
     0
 74
     1
 95
       20
 96
       16
 40
0.0
 40
0.0
 40
0.0
 40
0.0
 40
1.0
 40
1.0
 40
1.0
 40
2.0
 40
2.0
 40
2.0
 40
3.0
 40
3.0
 40
3.0
 40
4.0
 40
4.0
 40
4.0
 40
5.0
 40
5.0
 40
5.0
 40
5.0
 10
171.2387956741441
 20
540.2250863527661
 10
171.2387956741441
 20
540.0575863569975
 10
171.103495677562
 20
539.9208863604508
 10
170.9350956818162
 20
539.9208863604508
 10
170.7670956860602
 20
539.9208863604508
 10
170.6308956895009
 20
540.0575863569975
 10
170.6308956895009
 20
540.2250863527661
 10
170.6308956895009
 20
540.3925863485347
 10
170.7670956860602
 20
540.528786345094
 10
170.9350956818162
 20
540.528786345094
 10
171.103495677562
 20
540.528786345094
 10
171.2387956741441
 20
540.3925863485347
 10
171.2387956741441
 20
540.2250863527661
 10
171.2387956741441
 20
540.2250863527661
 10
171.2387956741441
 20
540.2250863527661
 10
171.2387956741441
 20
540.2250863527661
 97
        0
 92
        1
 93
        1
 72
     4
 94
        3
 73
     0
 74
     1
 95
       20
 96
       16
 40
0.0
 40
0.0
 40
0.0
 40
0.0
 40
1.0
 40
1.0
 40
1.0
 40
2.0
 40
2.0
 40
2.0
 40
3.0
 40
3.0
 40
3.0
 40
4.0
 40
4.0
 40
4.0
 40
5.0
 40
5.0
 40
5.0
 40
5.0
 10
170.1723957010836
 20
540.0868863562573
 10
170.2910000000002
 20
539.9682863592534
 10
170.2910000000002
 20
539.7758863641138
 10
170.1723957010836
 20
539.6571863671124
 10
170.0536957040822
 20
539.5385863701085
 10
169.8612957089426
 20
539.5385863701085
 10
169.7426957119387
 20
539.6571863671124
 10
169.6239999999998
 20
539.7758863641138
 10
169.6239999999998
 20
539.9682863592534
 10
169.7426957119387
 20
540.0868863562573
 10
169.8612957089426
 20
540.2055863532587
 10
170.0536957040822
 20
540.2055863532587
 10
170.1723957010836
 20
540.0868863562573
 10
170.1723957010836
 20
540.0868863562573
 10
170.1723957010836
 20
540.0868863562573
 10
170.1723957010836
 20
540.0868863562573
 97
        0
 92
        1
 93
        1
 72
     4
 94
        3
 73
     0
 74
     1
 95
       20
 96
       16
 40
0.0
 40
0.0
 40
0.0
 40
0.0
 40
1.0
 40
1.0
 40
1.0
 40
2.0
 40
2.0
 40
2.0
 40
3.0
 40
3.0
 40
3.0
 40
4.0
 40
4.0
 40
4.0
 40
5.0
 40
5.0
 40
5.0
 40
5.0
 10
148.8197962404956
 20
538.1674864047454
 10
148.938496237497
 20
538.285586401762
 10
149.1303962326492
 20
538.285586401762
 10
149.25
 20
538.1674864047454
 10
149.3686962266293
 20
538.048786407744
 10
149.3686962266293
 20
537.8559999999998
 10
149.25
 20
537.7372864156132
 10
149.1303962326492
 20
537.6186864186093
 10
148.938496237497
 20
537.6186864186093
 10
148.8197962404956
 20
537.7372864156132
 10
148.7016962434791
 20
537.8559999999998
 10
148.7016962434791
 20
538.048786407744
 10
148.8197962404956
 20
538.1674864047454
 10
148.8197962404956
 20
538.1674864047454
 10
148.8197962404956
 20
538.1674864047454
 10
148.8197962404956
 20
538.1674864047454
 97
        0
 92
        1
 93
        1
 72
     4
 94
        3
 73
     0
 74
     1
 95
       20
 96
       16
 40
0.0
 40
0.0
 40
0.0
 40
0.0
 40
1.0
 40
1.0
 40
1.0
 40
2.0
 40
2.0
 40
2.0
 40
3.0
 40
3.0
 40
3.0
 40
4.0
 40
4.0
 40
4.0
 40
5.0
 40
5.0
 40
5.0
 40
5.0
 10
149.6728962189445
 20
537.5106864213376
 10
149.6728962189445
 20
537.6781864171062
 10
149.8080962155291
 20
537.8140000000003
 10
149.9765962112724
 20
537.8140000000003
 10
150.1440000000002
 20
537.8140000000003
 10
150.2807962035877
 20
537.6781864171062
 10
150.2807962035877
 20
537.5106864213376
 10
150.2807962035877
 20
537.3422864255917
 10
150.1440000000002
 20
537.2064864290223
 10
149.9765962112724
 20
537.2064864290223
 10
149.8080962155291
 20
537.2064864290223
 10
149.6728962189445
 20
537.3422864255917
 10
149.6728962189445
 20
537.5106864213376
 10
149.6728962189445
 20
537.5106864213376
 10
149.6728962189445
 20
537.5106864213376
 10
149.6728962189445
 20
537.5106864213376
 97
        0
 92
        1
 93
        1
 72
     4
 94
        3
 73
     0
 74
     1
 95
       20
 96
       16
 40
0.0
 40
0.0
 40
0.0
 40
0.0
 40
1.0
 40
1.0
 40
1.0
 40
2.0
 40
2.0
 40
2.0
 40
3.0
 40
3.0
 40
3.0
 40
4.0
 40
4.0
 40
4.0
 40
5.0
 40
5.0
 40
5.0
 40
5.0
 10
150.7387961920176
 20
537.6488864178464
 10
150.6200961950162
 20
537.7680864148351
 10
150.6200961950162
 20
537.96
 10
150.7387961920176
 20
538.0790864069786
 10
150.8578961890089
 20
538.19778640398
 10
151.0502961841485
 20
538.19778640398
 10
151.1688961811524
 20
538.0790864069786
 10
151.2875961781538
 20
537.96
 10
151.2875961781538
 20
537.7680864148351
 10
151.1688961811524
 20
537.6488864178464
 10
151.0502961841485
 20
537.5307864208298
 10
150.8578961890089
 20
537.5307864208298
 10
150.7387961920176
 20
537.6488864178464
 10
150.7387961920176
 20
537.6488864178464
 10
150.7387961920176
 20
537.6488864178464
 10
150.7387961920176
 20
537.6488864178464
 97
        0
 92
        1
 93
        1
 72
     4
 94
        3
 73
     0
 74
     1
 95
       20
 96
       16
 40
0.0
 40
0.0
 40
0.0
 40
0.0
 40
1.0
 40
1.0
 40
1.0
 40
2.0
 40
2.0
 40
2.0
 40
3.0
 40
3.0
 40
3.0
 40
4.0
 40
4.0
 40
4.0
 40
5.0
 40
5.0
 40
5.0
 40
5.0
 10
151.3959999999997
 20
538.5020000000004
 10
151.2280000000001
 20
538.5020000000004
 10
151.0922961830875
 20
538.6366863928924
 10
151.0922961830875
 20
538.8051863886358
 10
151.0922961830875
 20
538.9730863843943
 10
151.2280000000001
 20
539.109386380951
 10
151.3959999999997
 20
539.109386380951
 10
151.5634961711839
 20
539.109386380951
 10
151.6996961677432
 20
538.9730863843943
 10
151.6996961677432
 20
538.8051863886358
 10
151.6996961677432
 20
538.6366863928924
 10
151.5634961711839
 20
538.5020000000004
 10
151.3959999999997
 20
538.5020000000004
 10
151.3959999999997
 20
538.5020000000004
 10
151.3959999999997
 20
538.5020000000004
 10
151.3959999999997
 20
538.5020000000004
 97
        0
 92
        1
 93
        1
 72
     4
 94
        3
 73
     0
 74
     1
 95
       20
 96
       16
 40
0.0
 40
0.0
 40
0.0
 40
0.0
 40
1.0
 40
1.0
 40
1.0
 40
2.0
 40
2.0
 40
2.0
 40
3.0
 40
3.0
 40
3.0
 40
4.0
 40
4.0
 40
4.0
 40
5.0
 40
5.0
 40
5.0
 40
5.0
 10
151.2577961789066
 20
539.5678863693684
 10
151.1391961819027
 20
539.4496863723543
 10
150.9462961867757
 20
539.4496863723543
 10
150.8275961897743
 20
539.5678863693684
 10
150.7094961927578
 20
539.6864863663723
 10
150.7094961927578
 20
539.8793863614992
 10
150.8275961897743
 20
539.9979999999996
 10
150.9462961867757
 20
540.1166863555045
 10
151.1391961819027
 20
540.1166863555045
 10
151.2577961789066
 20
539.9979999999996
 10
151.376496175908
 20
539.8793863614992
 10
151.376496175908
 20
539.6864863663723
 10
151.2577961789066
 20
539.5678863693684
 10
151.2577961789066
 20
539.5678863693684
 10
151.2577961789066
 20
539.5678863693684
 10
151.2577961789066
 20
539.5678863693684
 97
        0
 92
        1
 93
        1
 72
     4
 94
        3
 73
     0
 74
     1
 95
       20
 96
       16
 40
0.0
 40
0.0
 40
0.0
 40
0.0
 40
1.0
 40
1.0
 40
1.0
 40
2.0
 40
2.0
 40
2.0
 40
3.0
 40
3.0
 40
3.0
 40
4.0
 40
4.0
 40
4.0
 40
5.0
 40
5.0
 40
5.0
 40
5.0
 10
150.4057962004299
 20
540.2250863527661
 10
150.4057962004299
 20
540.0575863569975
 10
150.2690000000002
 20
539.9208863604508
 10
150.1015962081146
 20
539.9208863604508
 10
149.9330962123713
 20
539.9208863604508
 10
149.7973962157994
 20
540.0575863569975
 10
149.7973962157994
 20
540.2250863527661
 10
149.7973962157994
 20
540.3925863485347
 10
149.9330962123713
 20
540.528786345094
 10
150.1015962081146
 20
540.528786345094
 10
150.2690000000002
 20
540.528786345094
 10
150.4057962004299
 20
540.3925863485347
 10
150.4057962004299
 20
540.2250863527661
 10
150.4057962004299
 20
540.2250863527661
 10
150.4057962004299
 20
540.2250863527661
 10
150.4057962004299
 20
540.2250863527661
 97
        0
 92
        1
 93
        1
 72
     4
 94
        3
 73
     0
 74
     1
 95
       17
 96
       13
 40
0.0
 40
0.0
 40
0.0
 40
0.0
 40
1.0
 40
1.0
 40
1.0
 40
2.0
 40
2.0
 40
2.0
 40
3.0
 40
3.0
 40
3.0
 40
4.0
 40
4.0
 40
4.0
 40
4.0
 10
149.3378962274073
 20
540.0868863562573
 10
149.4564962244112
 20
539.9682863592534
 10
149.4564962244112
 20
539.7758863641138
 10
149.3378962274073
 20
539.6571863671124
 10
149.2191962304059
 20
539.5385863701085
 10
149.0268962352638
 20
539.5385863701085
 10
148.9076962382751
 20
539.6571863671124
 10
148.7895962412586
 20
539.7758863641138
 10
148.7895962412586
 20
539.9682863592534
 10
148.9076962382751
 20
540.0868863562573
 10
149.0268962352638
 20
540.2055863532587
 10
149.2191962304059
 20
540.2055863532587
 10
149.3378962274073
 20
540.0868863562573
 97
        0
 75
     0
 76
     1
 98
        0
  0
SPLINE
  5
8B
330
14
100
AcDbEntity
  8
Layer 1
370
     0
100
AcDbSpline
210
0.0
220
0.0
230
1.0
 70
    11
 71
     3
 72
   653
 73
   649
 74
     0
 42
0.000000001
 43
0.0000000001
 40
0.0
 40
0.0
 40
0.0
 40
0.0
 40
1.0
 40
1.0
 40
1.0
 40
2.0
 40
2.0
 40
2.0
 40
3.0
 40
3.0
 40
3.0
 40
4.0
 40
4.0
 40
4.0
 40
5.0
 40
5.0
 40
5.0
 40
6.0
 40
6.0
 40
6.0
 40
7.0
 40
7.0
 40
7.0
 40
8.0
 40
8.0
 40
8.0
 40
9.0
 40
9.0
 40
9.0
 40
10.0
 40
10.0
 40
10.0
 40
11.0
 40
11.0
 40
11.0
 40
12.0
 40
12.0
 40
12.0
 40
13.0
 40
13.0
 40
13.0
 40
14.0
 40
14.0
 40
14.0
 40
15.0
 40
15.0
 40
15.0
 40
16.0
 40
16.0
 40
16.0
 40
17.0
 40
17.0
 40
17.0
 40
18.0
 40
18.0
 40
18.0
 40
19.0
 40
19.0
 40
19.0
 40
20.0
 40
20.0
 40
20.0
 40
21.0
 40
21.0
 40
21.0
 40
22.0
 40
22.0
 40
22.0
 40
23.0
 40
23.0
 40
23.0
 40
24.0
 40
24.0
 40
24.0
 40
25.0
 40
25.0
 40
25.0
 40
26.0
 40
26.0
 40
26.0
 40
27.0
 40
27.0
 40
27.0
 40
28.0
 40
28.0
 40
28.0
 40
29.0
 40
29.0
 40
29.0
 40
30.0
 40
30.0
 40
30.0
 40
31.0
 40
31.0
 40
31.0
 40
32.0
 40
32.0
 40
32.0
 40
33.0
 40
33.0
 40
33.0
 40
34.0
 40
34.0
 40
34.0
 40
35.0
 40
35.0
 40
35.0
 40
36.0
 40
36.0
 40
36.0
 40
37.0
 40
37.0
 40
37.0
 40
38.0
 40
38.0
 40
38.0
 40
39.0
 40
39.0
 40
39.0
 40
40.0
 40
40.0
 40
40.0
 40
41.0
 40
41.0
 40
41.0
 40
42.0
 40
42.0
 40
42.0
 40
43.0
 40
43.0
 40
43.0
 40
44.0
 40
44.0
 40
44.0
 40
45.0
 40
45.0
 40
45.0
 40
46.0
 40
46.0
 40
46.0
 40
47.0
 40
47.0
 40
47.0
 40
48.0
 40
48.0
 40
48.0
 40
49.0
 40
49.0
 40
49.0
 40
50.0
 40
50.0
 40
50.0
 40
51.0
 40
51.0
 40
51.0
 40
52.0
 40
52.0
 40
52.0
 40
53.0
 40
53.0
 40
53.0
 40
54.0
 40
54.0
 40
54.0
 40
55.0
 40
55.0
 40
55.0
 40
56.0
 40
56.0
 40
56.0
 40
57.0
 40
57.0
 40
57.0
 40
58.0
 40
58.0
 40
58.0
 40
59.0
 40
59.0
 40
59.0
 40
60.0
 40
60.0
 40
60.0
 40
61.0
 40
61.0
 40
61.0
 40
62.0
 40
62.0
 40
62.0
 40
63.0
 40
63.0
 40
63.0
 40
64.0
 40
64.0
 40
64.0
 40
65.0
 40
65.0
 40
65.0
 40
66.0
 40
66.0
 40
66.0
 40
67.0
 40
67.0
 40
67.0
 40
68.0
 40
68.0
 40
68.0
 40
69.0
 40
69.0
 40
69.0
 40
70.0
 40
70.0
 40
70.0
 40
71.0
 40
71.0
 40
71.0
 40
72.0
 40
72.0
 40
72.0
 40
73.0
 40
73.0
 40
73.0
 40
74.0
 40
74.0
 40
74.0
 40
75.0
 40
75.0
 40
75.0
 40
76.0
 40
76.0
 40
76.0
 40
77.0
 40
77.0
 40
77.0
 40
78.0
 40
78.0
 40
78.0
 40
79.0
 40
79.0
 40
79.0
 40
80.0
 40
80.0
 40
80.0
 40
81.0
 40
81.0
 40
81.0
 40
82.0
 40
82.0
 40
82.0
 40
83.0
 40
83.0
 40
83.0
 40
84.0
 40
84.0
 40
84.0
 40
85.0
 40
85.0
 40
85.0
 40
86.0
 40
86.0
 40
86.0
 40
87.0
 40
87.0
 40
87.0
 40
88.0
 40
88.0
 40
88.0
 40
89.0
 40
89.0
 40
89.0
 40
90.0
 40
90.0
 40
90.0
 40
91.0
 40
91.0
 40
91.0
 40
92.0
 40
92.0
 40
92.0
 40
93.0
 40
93.0
 40
93.0
 40
94.0
 40
94.0
 40
94.0
 40
95.0
 40
95.0
 40
95.0
 40
96.0
 40
96.0
 40
96.0
 40
97.0
 40
97.0
 40
97.0
 40
98.0
 40
98.0
 40
98.0
 40
99.0
 40
99.0
 40
99.0
 40
100.0
 40
100.0
 40
100.0
 40
101.0
 40
101.0
 40
101.0
 40
102.0
 40
102.0
 40
102.0
 40
103.0
 40
103.0
 40
103.0
 40
104.0
 40
104.0
 40
104.0
 40
105.0
 40
105.0
 40
105.0
 40
106.0
 40
106.0
 40
106.0
 40
107.0
 40
107.0
 40
107.0
 40
108.0
 40
108.0
 40
108.0
 40
109.0
 40
109.0
 40
109.0
 40
110.0
 40
110.0
 40
110.0
 40
111.0
 40
111.0
 40
111.0
 40
112.0
 40
112.0
 40
112.0
 40
113.0
 40
113.0
 40
113.0
 40
114.0
 40
114.0
 40
114.0
 40
115.0
 40
115.0
 40
115.0
 40
116.0
 40
116.0
 40
116.0
 40
117.0
 40
117.0
 40
117.0
 40
118.0
 40
118.0
 40
118.0
 40
119.0
 40
119.0
 40
119.0
 40
120.0
 40
120.0
 40
120.0
 40
121.0
 40
121.0
 40
121.0
 40
122.0
 40
122.0
 40
122.0
 40
123.0
 40
123.0
 40
123.0
 40
124.0
 40
124.0
 40
124.0
 40
125.0
 40
125.0
 40
125.0
 40
126.0
 40
126.0
 40
126.0
 40
127.0
 40
127.0
 40
127.0
 40
128.0
 40
128.0
 40
128.0
 40
129.0
 40
129.0
 40
129.0
 40
130.0
 40
130.0
 40
130.0
 40
131.0
 40
131.0
 40
131.0
 40
132.0
 40
132.0
 40
132.0
 40
133.0
 40
133.0
 40
133.0
 40
134.0
 40
134.0
 40
134.0
 40
135.0
 40
135.0
 40
135.0
 40
136.0
 40
136.0
 40
136.0
 40
137.0
 40
137.0
 40
137.0
 40
138.0
 40
138.0
 40
138.0
 40
139.0
 40
139.0
 40
139.0
 40
140.0
 40
140.0
 40
140.0
 40
141.0
 40
141.0
 40
141.0
 40
142.0
 40
142.0
 40
142.0
 40
143.0
 40
143.0
 40
143.0
 40
144.0
 40
144.0
 40
144.0
 40
145.0
 40
145.0
 40
145.0
 40
146.0
 40
146.0
 40
146.0
 40
147.0
 40
147.0
 40
147.0
 40
148.0
 40
148.0
 40
148.0
 40
149.0
 40
149.0
 40
149.0
 40
150.0
 40
150.0
 40
150.0
 40
151.0
 40
151.0
 40
151.0
 40
152.0
 40
152.0
 40
152.0
 40
153.0
 40
153.0
 40
153.0
 40
154.0
 40
154.0
 40
154.0
 40
155.0
 40
155.0
 40
155.0
 40
156.0
 40
156.0
 40
156.0
 40
157.0
 40
157.0
 40
157.0
 40
158.0
 40
158.0
 40
158.0
 40
159.0
 40
159.0
 40
159.0
 40
160.0
 40
160.0
 40
160.0
 40
161.0
 40
161.0
 40
161.0
 40
162.0
 40
162.0
 40
162.0
 40
163.0
 40
163.0
 40
163.0
 40
164.0
 40
164.0
 40
164.0
 40
165.0
 40
165.0
 40
165.0
 40
166.0
 40
166.0
 40
166.0
 40
167.0
 40
167.0
 40
167.0
 40
168.0
 40
168.0
 40
168.0
 40
169.0
 40
169.0
 40
169.0
 40
170.0
 40
170.0
 40
170.0
 40
171.0
 40
171.0
 40
171.0
 40
172.0
 40
172.0
 40
172.0
 40
173.0
 40
173.0
 40
173.0
 40
174.0
 40
174.0
 40
174.0
 40
175.0
 40
175.0
 40
175.0
 40
176.0
 40
176.0
 40
176.0
 40
177.0
 40
177.0
 40
177.0
 40
178.0
 40
178.0
 40
178.0
 40
179.0
 40
179.0
 40
179.0
 40
180.0
 40
180.0
 40
180.0
 40
181.0
 40
181.0
 40
181.0
 40
182.0
 40
182.0
 40
182.0
 40
183.0
 40
183.0
 40
183.0
 40
184.0
 40
184.0
 40
184.0
 40
185.0
 40
185.0
 40
185.0
 40
186.0
 40
186.0
 40
186.0
 40
187.0
 40
187.0
 40
187.0
 40
188.0
 40
188.0
 40
188.0
 40
189.0
 40
189.0
 40
189.0
 40
190.0
 40
190.0
 40
190.0
 40
191.0
 40
191.0
 40
191.0
 40
192.0
 40
192.0
 40
192.0
 40
193.0
 40
193.0
 40
193.0
 40
194.0
 40
194.0
 40
194.0
 40
195.0
 40
195.0
 40
195.0
 40
196.0
 40
196.0
 40
196.0
 40
197.0
 40
197.0
 40
197.0
 40
198.0
 40
198.0
 40
198.0
 40
199.0
 40
199.0
 40
199.0
 40
200.0
 40
200.0
 40
200.0
 40
201.0
 40
201.0
 40
201.0
 40
202.0
 40
202.0
 40
202.0
 40
203.0
 40
203.0
 40
203.0
 40
204.0
 40
204.0
 40
204.0
 40
205.0
 40
205.0
 40
205.0
 40
206.0
 40
206.0
 40
206.0
 40
207.0
 40
207.0
 40
207.0
 40
208.0
 40
208.0
 40
208.0
 40
209.0
 40
209.0
 40
209.0
 40
210.0
 40
210.0
 40
210.0
 40
211.0
 40
211.0
 40
211.0
 40
212.0
 40
212.0
 40
212.0
 40
213.0
 40
213.0
 40
213.0
 40
214.0
 40
214.0
 40
214.0
 40
215.0
 40
215.0
 40
215.0
 40
216.0
 40
216.0
 40
216.0
 40
216.0
 10
154.9369999999999
 20
540.4901863460691
 30
0.0
 10
154.9369999999999
 20
540.4901863460691
 30
0.0
 10
154.9184960864295
 20
540.5575863443664
 30
0.0
 10
154.9184960864295
 20
540.5575863443664
 30
0.0
 10
154.9184960864295
 20
540.5575863443664
 30
0.0
 10
154.7006960919316
 20
540.4989999999998
 30
0.0
 10
154.7006960919316
 20
540.4989999999998
 30
0.0
 10
154.6562960930532
 20
540.6254863426511
 30
0.0
 10
154.6073960942886
 20
540.7494863395186
 30
0.0
 10
154.5531960956578
 20
540.8710863364468
 30
0.0
 10
154.5531960956578
 20
540.8710863364468
 30
0.0
 10
154.7611960904032
 20
540.9911863334128
 30
0.0
 10
154.7611960904032
 20
540.9911863334128
 30
0.0
 10
154.7611960904032
 20
540.9911863334128
 30
0.0
 10
154.3153961016651
 20
541.7631863139104
 30
0.0
 10
154.3153961016651
 20
541.7631863139104
 30
0.0
 10
154.3153961016651
 20
541.7631863139104
 30
0.0
 10
154.1186961066342
 20
541.6498863167726
 30
0.0
 10
154.1186961066342
 20
541.6498863167726
 30
0.0
 10
154.0438961085238
 20
541.7602863139837
 30
0.0
 10
153.9643961105321
 20
541.8666863112958
 30
0.0
 10
153.8798961126668
 20
541.9706863086685
 30
0.0
 10
153.8798961126668
 20
541.9706863086685
 30
0.0
 10
154.0502961083621
 20
542.1410863043639
 30
0.0
 10
154.0502961083621
 20
542.1410863043639
 30
0.0
 10
154.0502961083621
 20
542.1410863043639
 30
0.0
 10
153.4203961242747
 20
542.7709999999997
 30
0.0
 10
153.4203961242747
 20
542.7709999999997
 30
0.0
 10
153.4203961242747
 20
542.7709999999997
 30
0.0
 10
153.2597961283318
 20
542.6107862924982
 30
0.0
 10
153.2597961283318
 20
542.6107862924982
 30
0.0
 10
153.1586961308858
 20
542.6977862903004
 30
0.0
 10
153.0541961335257
 20
542.7802862882163
 30
0.0
 10
152.9467961362388
 20
542.8588862862307
 30
0.0
 10
152.9467961362388
 20
542.8588862862307
 30
0.0
 10
153.0663961332175
 20
543.0673862809635
 30
0.0
 10
153.0663961332175
 20
543.0673862809635
 30
0.0
 10
153.0663961332175
 20
543.0673862809635
 30
0.0
 10
152.2943961527199
 20
543.5131862697017
 30
0.0
 10
152.2943961527199
 20
543.5131862697017
 30
0.0
 10
152.2943961527199
 20
543.5131862697017
 30
0.0
 10
152.1815961555694
 20
543.317386274648
 30
0.0
 10
152.1815961555694
 20
543.317386274648
 30
0.0
 10
152.0619999999999
 20
543.375
 30
0.0
 10
151.9394961616854
 20
543.4291862718237
 30
0.0
 10
151.8144961648431
 20
543.4770862706137
 30
0.0
 10
151.8144961648431
 20
543.4770862706137
 30
0.0
 10
151.8764961632769
 20
543.708486264768
 30
0.0
 10
151.8764961632769
 20
543.708486264768
 30
0.0
 10
151.8764961632769
 20
543.708486264768
 30
0.0
 10
151.0150961850377
 20
543.9394862589324
 30
0.0
 10
151.0150961850377
 20
543.9394862589324
 30
0.0
 10
151.0150961850377
 20
543.9394862589324
 30
0.0
 10
150.9564961865181
 20
543.7206862644598
 30
0.0
 10
150.9564961865181
 20
543.7206862644598
 30
0.0
 10
150.827096189787
 20
543.744586263856
 30
0.0
 10
150.6942961931418
 20
543.7641862633609
 30
0.0
 10
150.5609999999997
 20
543.7782862630047
 30
0.0
 10
150.5609999999997
 20
543.7782862630047
 30
0.0
 10
150.5609999999997
 20
544.0190000000002
 30
0.0
 10
150.5609999999997
 20
544.0190000000002
 30
0.0
 10
150.5609999999997
 20
544.0190000000002
 30
0.0
 10
149.6693962190329
 20
544.0190000000002
 30
0.0
 10
149.6693962190329
 20
544.0190000000002
 30
0.0
 10
149.6693962190329
 20
544.0190000000002
 30
0.0
 10
149.6693962190329
 20
543.7920000000004
 30
0.0
 10
149.6693962190329
 20
543.7920000000004
 30
0.0
 10
149.5351962224231
 20
543.7826862628935
 30
0.0
 10
149.4027962257678
 20
543.7670862632876
 30
0.0
 10
149.2724962290595
 20
543.7465862638055
 30
0.0
 10
149.2724962290595
 20
543.7465862638055
 30
0.0
 10
149.2103962306282
 20
543.9784862579472
 30
0.0
 10
149.2103962306282
 20
543.9784862579472
 30
0.0
 10
149.2103962306282
 20
543.9784862579472
 30
0.0
 10
148.3485962523991
 20
543.7475862637802
 30
0.0
 10
148.3485962523991
 20
543.7475862637802
 30
0.0
 10
148.3485962523991
 20
543.7475862637802
 30
0.0
 10
148.4066962509314
 20
543.5297862692823
 30
0.0
 10
148.4066962509314
 20
543.5297862692823
 30
0.0
 10
148.2807962541119
 20
543.485386270404
 30
0.0
 10
148.1566962572469
 20
543.4364862716393
 30
0.0
 10
148.0355962603062
 20
543.3822862730085
 30
0.0
 10
148.0355962603062
 20
543.3822862730085
 30
0.0
 10
147.9160000000002
 20
543.5897862677666
 30
0.0
 10
147.9160000000002
 20
543.5897862677666
 30
0.0
 10
147.9160000000002
 20
543.5897862677666
 30
0.0
 10
147.1430962828526
 20
543.1444862790158
 30
0.0
 10
147.1430962828526
 20
543.1444862790158
 30
0.0
 10
147.1430962828526
 20
543.1444862790158
 30
0.0
 10
147.2572962799677
 20
542.9477862839849
 30
0.0
 10
147.2572962799677
 20
542.9477862839849
 30
0.0
 10
147.1469999999999
 20
542.8729999999996
 30
0.0
 10
147.0395962854673
 20
542.7929999999997
 30
0.0
 10
146.9354962880971
 20
542.7089999999998
 30
0.0
 10
146.9354962880971
 20
542.7089999999998
 30
0.0
 10
146.7650962924017
 20
542.8793862857128
 30
0.0
 10
146.7650962924017
 20
542.8793862857128
 30
0.0
 10
146.7650962924017
 20
542.8793862857128
 30
0.0
 10
146.1352963083118
 20
542.2489999999998
 30
0.0
 10
146.1352963083118
 20
542.2489999999998
 30
0.0
 10
146.1352963083118
 20
542.2489999999998
 30
0.0
 10
146.2953963042673
 20
542.0888863056825
 30
0.0
 10
146.2953963042673
 20
542.0888863056825
 30
0.0
 10
146.2084963064626
 20
541.9882863082239
 30
0.0
 10
146.1260000000002
 20
541.8832863108764
 30
0.0
 10
146.0473963105323
 20
541.7758863135896
 30
0.0
 10
146.0473963105323
 20
541.7758863135896
 30
0.0
 10
145.8388963157995
 20
541.8954863105682
 30
0.0
 10
145.8388963157995
 20
541.8954863105682
 30
0.0
 10
145.8388963157995
 20
541.8954863105682
 30
0.0
 10
145.3930963270614
 20
541.1239999999998
 30
0.0
 10
145.3930963270614
 20
541.1239999999998
 30
0.0
 10
145.3930963270614
 20
541.1239999999998
 30
0.0
 10
145.5883963221277
 20
541.0106863329202
 30
0.0
 10
145.5883963221277
 20
541.0106863329202
 30
0.0
 10
145.5312963235701
 20
540.8910863359415
 30
0.0
 10
145.478496324904
 20
540.7690000000002
 30
0.0
 10
145.4291963261494
 20
540.6435863421939
 30
0.0
 10
145.4291963261494
 20
540.6435863421939
 30
0.0
 10
145.1981963319849
 20
540.7055863406276
 30
0.0
 10
145.1981963319849
 20
540.7055863406276
 30
0.0
 10
145.1981963319849
 20
540.7055863406276
 30
0.0
 10
144.9677963378053
 20
539.8441863623884
 30
0.0
 10
144.9677963378053
 20
539.8441863623884
 30
0.0
 10
144.9677963378053
 20
539.8441863623884
 30
0.0
 10
145.1854963323058
 20
539.7855863638688
 30
0.0
 10
145.1854963323058
 20
539.7855863638688
 30
0.0
 10
145.1615963329095
 20
539.6562863671352
 30
0.0
 10
145.1420963334022
 20
539.5233863704925
 30
0.0
 10
145.1283963337482
 20
539.39008637386
 30
0.0
 10
145.1283963337482
 20
539.39008637386
 30
0.0
 10
144.8871963398415
 20
539.39008637386
 30
0.0
 10
144.8871963398415
 20
539.39008637386
 30
0.0
 10
144.8871963398415
 20
539.39008637386
 30
0.0
 10
144.8871963398415
 20
538.4984863963837
 30
0.0
 10
144.8871963398415
 20
538.4984863963837
 30
0.0
 10
144.8871963398415
 20
538.4984863963837
 30
0.0
 10
145.1142963341044
 20
538.4984863963837
 30
0.0
 10
145.1142963341044
 20
538.4984863963837
 30
0.0
 10
145.1244963338468
 20
538.3646863997637
 30
0.0
 10
145.1391963334754
 20
538.2318864031186
 30
0.0
 10
145.1596963329575
 20
538.1015864064102
 30
0.0
 10
145.1596963329575
 20
538.1015864064102
 30
0.0
 10
144.9276963388184
 20
538.0390864079891
 30
0.0
 10
144.9276963388184
 20
538.0390864079891
 30
0.0
 10
144.9276963388184
 20
538.0390864079891
 30
0.0
 10
145.1586963329828
 20
537.1776864297499
 30
0.0
 10
145.1586963329828
 20
537.1776864297499
 30
0.0
 10
145.1586963329828
 20
537.1776864297499
 30
0.0
 10
145.3764963274807
 20
537.2362864282695
 30
0.0
 10
145.3764963274807
 20
537.2362864282695
 30
0.0
 10
145.4208963263591
 20
537.11038643145
 30
0.0
 10
145.4696963251263
 20
536.9857864345977
 30
0.0
 10
145.5238963237571
 20
536.8646864376569
 30
0.0
 10
145.5238963237571
 20
536.8646864376569
 30
0.0
 10
145.3158963290116
 20
536.7440864407035
 30
0.0
 10
145.3158963290116
 20
536.7440864407035
 30
0.0
 10
145.3158963290116
 20
536.7440864407035
 30
0.0
 10
145.7616963177497
 20
535.9721864602034
 30
0.0
 10
145.7616963177497
 20
535.9721864602034
 30
0.0
 10
145.7616963177497
 20
535.9721864602034
 30
0.0
 10
145.9584963127782
 20
536.0858864573311
 30
0.0
 10
145.9584963127782
 20
536.0858864573311
 30
0.0
 10
146.0341963108658
 20
535.9760864601049
 30
0.0
 10
146.1132963088676
 20
535.868686462818
 30
0.0
 10
146.1972963067456
 20
535.7650864654352
 30
0.0
 10
146.1972963067456
 20
535.7650864654352
 30
0.0
 10
146.0268963110502
 20
535.5941864697525
 30
0.0
 10
146.0268963110502
 20
535.5941864697525
 30
0.0
 10
146.0268963110502
 20
535.5941864697525
 30
0.0
 10
146.6566962951401
 20
534.9643864856625
 30
0.0
 10
146.6566962951401
 20
534.9643864856625
 30
0.0
 10
146.6566962951401
 20
534.9643864856625
 30
0.0
 10
146.8178962910679
 20
535.1244864816181
 30
0.0
 10
146.8178962910679
 20
535.1244864816181
 30
0.0
 10
146.9188962885164
 20
535.037086483826
 30
0.0
 10
147.0224962858993
 20
534.9550864858975
 30
0.0
 10
147.1308962831608
 20
534.8764864878831
 30
0.0
 10
147.1308962831608
 20
534.8764864878831
 30
0.0
 10
147.0106962861973
 20
534.6679999999997
 30
0.0
 10
147.0106962861973
 20
534.6679999999997
 30
0.0
 10
147.0106962861973
 20
534.6679999999997
 30
0.0
 10
147.782696266695
 20
534.2221865044121
 30
0.0
 10
147.782696266695
 20
534.2221865044121
 30
0.0
 10
147.782696266695
 20
534.2221865044121
 30
0.0
 10
147.8954962638454
 20
534.4174864994784
 30
0.0
 10
147.8954962638454
 20
534.4174864994784
 30
0.0
 10
148.0145962608367
 20
534.3603865009209
 30
0.0
 10
148.1381962577143
 20
534.30658650228
 30
0.0
 10
148.2621962545818
 20
534.2582865035001
 30
0.0
 10
148.2621962545818
 20
534.2582865035001
 30
0.0
 10
148.2011962561228
 20
534.0272865093357
 30
0.0
 10
148.2011962561228
 20
534.0272865093357
 30
0.0
 10
148.2011962561228
 20
534.0272865093357
 30
0.0
 10
149.0619999999999
 20
533.7968865151561
 30
0.0
 10
149.0619999999999
 20
533.7968865151561
 30
0.0
 10
149.0619999999999
 20
533.7968865151561
 30
0.0
 10
149.1200962329094
 20
534.0145865096565
 30
0.0
 10
149.1200962329094
 20
534.0145865096565
 30
0.0
 10
149.2510000000002
 20
533.9901865102729
 30
0.0
 10
149.3822962262857
 20
533.9711865107529
 30
0.0
 10
149.5160962229056
 20
533.9570000000003
 30
0.0
 10
149.5160962229056
 20
533.9570000000003
 30
0.0
 10
149.5160962229056
 20
533.7162865171922
 30
0.0
 10
149.5160962229056
 20
533.7162865171922
 30
0.0
 10
149.5160962229056
 20
533.7162865171922
 30
0.0
 10
150.4081962003693
 20
533.7162865171922
 30
0.0
 10
150.4081962003693
 20
533.7162865171922
 30
0.0
 10
150.4081962003693
 20
533.7162865171922
 30
0.0
 10
150.4081962003693
 20
533.9428865114678
 30
0.0
 10
150.4081962003693
 20
533.9428865114678
 30
0.0
 10
150.5414961970018
 20
533.9535865111975
 30
0.0
 10
150.674296193647
 20
533.9682865108261
 30
0.0
 10
150.8046961903528
 20
533.9882865103209
 30
0.0
 10
150.8046961903528
 20
533.9882865103209
 30
0.0
 10
150.8676961887613
 20
533.7567865161691
 30
0.0
 10
150.8676961887613
 20
533.7567865161691
 30
0.0
 10
150.8676961887613
 20
533.7567865161691
 30
0.0
 10
151.7284961670157
 20
533.9877865103335
 30
0.0
 10
151.7284961670157
 20
533.9877865103335
 30
0.0
 10
151.7284961670157
 20
533.9877865103335
 30
0.0
 10
151.6698961684961
 20
534.2055865048314
 30
0.0
 10
151.6698961684961
 20
534.2055865048314
 30
0.0
 10
151.7963961653004
 20
534.25
 30
0.0
 10
151.9203961621679
 20
534.2992865024644
 30
0.0
 10
152.0414961591086
 20
534.3524865011204
 30
0.0
 10
152.0414961591086
 20
534.3524865011204
 30
0.0
 10
152.162096156062
 20
534.1450000000004
 30
0.0
 10
152.162096156062
 20
534.1450000000004
 30
0.0
 10
152.162096156062
 20
534.1450000000004
 30
0.0
 10
152.9335961365723
 20
534.5912864950878
 30
0.0
 10
152.9335961365723
 20
534.5912864950878
 30
0.0
 10
152.9335961365723
 20
534.5912864950878
 30
0.0
 10
152.8207961394219
 20
534.7870864901415
 30
0.0
 10
152.8207961394219
 20
534.7870864901415
 30
0.0
 10
152.9311961366329
 20
534.8622864882418
 30
0.0
 10
153.037596133945
 20
534.9418864862309
 30
0.0
 10
153.1415961313178
 20
535.0263864840963
 30
0.0
 10
153.1415961313178
 20
535.0263864840963
 30
0.0
 10
153.3119999999999
 20
534.8559999999998
 30
0.0
 10
153.3119999999999
 20
534.8559999999998
 30
0.0
 10
153.3119999999999
 20
534.8559999999998
 30
0.0
 10
153.9418961111005
 20
535.4857864724909
 30
0.0
 10
153.9418961111005
 20
535.4857864724909
 30
0.0
 10
153.9418961111005
 20
535.4857864724909
 30
0.0
 10
153.7816961151475
 20
535.6469999999999
 30
0.0
 10
153.7816961151475
 20
535.6469999999999
 30
0.0
 10
153.8686961129497
 20
535.7479999999996
 30
0.0
 10
153.9511961108656
 20
535.8520864632374
 30
0.0
 10
154.02979610888
 20
535.9603864605015
 30
0.0
 10
154.02979610888
 20
535.9603864605015
 30
0.0
 10
154.2387961036002
 20
535.8397864635481
 30
0.0
 10
154.2387961036002
 20
535.8397864635481
 30
0.0
 10
154.2387961036002
 20
535.8397864635481
 30
0.0
 10
154.684096092351
 20
536.6112864440584
 30
0.0
 10
154.684096092351
 20
536.6112864440584
 30
0.0
 10
154.684096092351
 20
536.6112864440584
 30
0.0
 10
154.4887960972846
 20
536.7245864411962
 30
0.0
 10
154.4887960972846
 20
536.7245864411962
 30
0.0
 10
154.5458960958422
 20
536.8441864381748
 30
0.0
 10
154.5995960944856
 20
536.967286435065
 30
0.0
 10
154.6478960932654
 20
537.0912864319325
 30
0.0
 10
154.6478960932654
 20
537.0912864319325
 30
0.0
 10
154.8793960874173
 20
537.0292864334988
 30
0.0
 10
154.8793960874173
 20
537.0292864334988
 30
0.0
 10
154.8793960874173
 20
537.0292864334988
 30
0.0
 10
155.1103960815817
 20
537.8910864117279
 30
0.0
 10
155.1103960815817
 20
537.8910864117279
 30
0.0
 10
155.1103960815817
 20
537.8910864117279
 30
0.0
 10
154.8915960871091
 20
537.9496864102475
 30
0.0
 10
154.8915960871091
 20
537.9496864102475
 30
0.0
 10
154.9154960865053
 20
538.0800864069533
 30
0.0
 10
154.9350960860102
 20
538.2118864036238
 30
0.0
 10
154.9501960856287
 20
538.3451864002564
 30
0.0
 10
154.9501960856287
 20
538.3451864002564
 30
0.0
 10
155.1898960795734
 20
538.3451864002564
 30
0.0
 10
155.1898960795734
 20
538.3451864002564
 30
0.0
 10
155.1898960795734
 20
538.3451864002564
 30
0.0
 10
155.1898960795734
 20
538.9428863851572
 30
0.0
 10
155.1898960795734
 20
538.9428863851572
 30
0.0
 10
155.1898960795734
 20
538.9428863851572
 30
0.0
 10
156.9306960355971
 20
539.2670863769672
 30
0.0
 10
156.9306960355971
 20
539.2670863769672
 30
0.0
 10
156.9306960355971
 20
539.2670863769672
 30
0.0
 10
157.1030000000001
 20
538.1674864047454
 30
0.0
 10
157.1030000000001
 20
538.1674864047454
 30
0.0
 10
157.1030000000001
 20
538.1674864047454
 30
0.0
 10
159.7772959636859
 20
538.3290864006631
 30
0.0
 10
159.7772959636859
 20
538.3290864006631
 30
0.0
 10
159.7772959636859
 20
538.3290864006631
 30
0.0
 10
159.7875959634257
 20
538.3588863999103
 30
0.0
 10
159.7875959634257
 20
538.3588863999103
 30
0.0
 10
159.7875959634257
 20
538.3588863999103
 30
0.0
 10
164.5048958442567
 20
538.3588863999103
 30
0.0
 10
164.5048958442567
 20
538.3588863999103
 30
0.0
 10
164.5048958442567
 20
538.3588863999103
 30
0.0
 10
164.5097958441329
 20
538.3563863999734
 30
0.0
 10
164.5097958441329
 20
538.3563863999734
 30
0.0
 10
164.5097958441329
 20
538.3563863999734
 30
0.0
 10
164.5116958440849
 20
538.3588863999103
 30
0.0
 10
164.5116958440849
 20
538.3588863999103
 30
0.0
 10
164.5116958440849
 20
538.3588863999103
 30
0.0
 10
165.9603958074877
 20
538.3588863999103
 30
0.0
 10
165.9603958074877
 20
538.3588863999103
 30
0.0
 10
165.9696958072527
 20
538.2728864020828
 30
0.0
 10
165.9799999999996
 20
538.1869999999999
 30
0.0
 10
165.9936958066464
 20
538.1015864064102
 30
0.0
 10
165.9936958066464
 20
538.1015864064102
 30
0.0
 10
165.7621958124946
 20
538.0390864079891
 30
0.0
 10
165.7621958124946
 20
538.0390864079891
 30
0.0
 10
165.7621958124946
 20
538.0390864079891
 30
0.0
 10
165.9931958066591
 20
537.1776864297499
 30
0.0
 10
165.9931958066591
 20
537.1776864297499
 30
0.0
 10
165.9931958066591
 20
537.1776864297499
 30
0.0
 10
166.2103958011721
 20
537.2362864282695
 30
0.0
 10
166.2103958011721
 20
537.2362864282695
 30
0.0
 10
166.2553958000353
 20
537.11038643145
 30
0.0
 10
166.3041957988025
 20
536.9857864345977
 30
0.0
 10
166.357895797446
 20
536.8646864376569
 30
0.0
 10
166.357895797446
 20
536.8646864376569
 30
0.0
 10
166.1503958026879
 20
536.7440864407035
 30
0.0
 10
166.1503958026879
 20
536.7440864407035
 30
0.0
 10
166.1503958026879
 20
536.7440864407035
 30
0.0
 10
166.596195791426
 20
535.9721864602034
 30
0.0
 10
166.596195791426
 20
535.9721864602034
 30
0.0
 10
166.596195791426
 20
535.9721864602034
 30
0.0
 10
166.792495786467
 20
536.0858864573311
 30
0.0
 10
166.792495786467
 20
536.0858864573311
 30
0.0
 10
166.8676957845673
 20
535.9760864601049
 30
0.0
 10
166.9472957825565
 20
535.868686462818
 30
0.0
 10
167.0316957804243
 20
535.7650864654352
 30
0.0
 10
167.0316957804243
 20
535.7650864654352
 30
0.0
 10
166.861295784729
 20
535.5941864697525
 30
0.0
 10
166.861295784729
 20
535.5941864697525
 30
0.0
 10
166.861295784729
 20
535.5941864697525
 30
0.0
 10
167.4911957688164
 20
534.9643864856625
 30
0.0
 10
167.4911957688164
 20
534.9643864856625
 30
0.0
 10
167.4911957688164
 20
534.9643864856625
 30
0.0
 10
167.6513957647694
 20
535.1244864816181
 30
0.0
 10
167.6513957647694
 20
535.1244864816181
 30
0.0
 10
167.7523957622179
 20
535.037086483826
 30
0.0
 10
167.856895759578
 20
534.9550864858975
 30
0.0
 10
167.9643957568624
 20
534.8764864878831
 30
0.0
 10
167.9643957568624
 20
534.8764864878831
 30
0.0
 10
167.8451957598736
 20
534.6679999999997
 30
0.0
 10
167.8451957598736
 20
534.6679999999997
 30
0.0
 10
167.8451957598736
 20
534.6679999999997
 30
0.0
 10
168.6166957403839
 20
534.2221865044121
 30
0.0
 10
168.6166957403839
 20
534.2221865044121
 30
0.0
 10
168.6166957403839
 20
534.2221865044121
 30
0.0
 10
168.7299999999996
 20
534.4174864994784
 30
0.0
 10
168.7299999999996
 20
534.4174864994784
 30
0.0
 10
168.8495957345003
 20
534.3603865009209
 30
0.0
 10
168.9716957314158
 20
534.30658650228
 30
0.0
 10
169.0966957282581
 20
534.2582865035001
 30
0.0
 10
169.0966957282581
 20
534.2582865035001
 30
0.0
 10
169.0346957298243
 20
534.0272865093357
 30
0.0
 10
169.0346957298243
 20
534.0272865093357
 30
0.0
 10
169.0346957298243
 20
534.0272865093357
 30
0.0
 10
169.8964957080534
 20
533.7968865151561
 30
0.0
 10
169.8964957080534
 20
533.7968865151561
 30
0.0
 10
169.8964957080534
 20
533.7968865151561
 30
0.0
 10
169.955095706573
 20
534.0145865096565
 30
0.0
 10
169.955095706573
 20
534.0145865096565
 30
0.0
 10
170.0844957033041
 20
533.9901865102729
 30
0.0
 10
170.2167956999619
 20
533.9711865107529
 30
0.0
 10
170.3505956965819
 20
533.9570000000003
 30
0.0
 10
170.3505956965819
 20
533.9570000000003
 30
0.0
 10
170.3505956965819
 20
533.7162865171922
 30
0.0
 10
170.3505956965819
 20
533.7162865171922
 30
0.0
 10
170.3505956965819
 20
533.7162865171922
 30
0.0
 10
171.2416956740708
 20
533.7162865171922
 30
0.0
 10
171.2416956740708
 20
533.7162865171922
 30
0.0
 10
171.2416956740708
 20
533.7162865171922
 30
0.0
 10
171.2416956740708
 20
533.9428865114678
 30
0.0
 10
171.2416956740708
 20
533.9428865114678
 30
0.0
 10
171.3760000000002
 20
533.9535865111975
 30
0.0
 10
171.5082956673359
 20
533.9682865108261
 30
0.0
 10
171.6391956640291
 20
533.9882865103209
 30
0.0
 10
171.6391956640291
 20
533.9882865103209
 30
0.0
 10
171.7011956624629
 20
533.7567865161691
 30
0.0
 10
171.7011956624629
 20
533.7567865161691
 30
0.0
 10
171.7011956624629
 20
533.7567865161691
 30
0.0
 10
172.5630000000001
 20
533.9877865103335
 30
0.0
 10
172.5630000000001
 20
533.9877865103335
 30
0.0
 10
172.5630000000001
 20
533.9877865103335
 30
0.0
 10
172.5043956421723
 20
534.2055865048314
 30
0.0
 10
172.5043956421723
 20
534.2055865048314
 30
0.0
 10
172.6303956389893
 20
534.25
 30
0.0
 10
172.7543956358568
 20
534.2992865024644
 30
0.0
 10
172.8760000000002
 20
534.3524865011204
 30
0.0
 10
172.8760000000002
 20
534.3524865011204
 30
0.0
 10
172.9955956297636
 20
534.1450000000004
 30
0.0
 10
172.9955956297636
 20
534.1450000000004
 30
0.0
 10
172.9955956297636
 20
534.1450000000004
 30
0.0
 10
173.7685956102359
 20
534.5912864950878
 30
0.0
 10
173.7685956102359
 20
534.5912864950878
 30
0.0
 10
173.7685956102359
 20
534.5912864950878
 30
0.0
 10
173.6542956131234
 20
534.7870864901415
 30
0.0
 10
173.6542956131234
 20
534.7870864901415
 30
0.0
 10
173.764595610337
 20
534.8622864882418
 30
0.0
 10
173.8720956076213
 20
534.9418864862309
 30
0.0
 10
173.976095604994
 20
535.0263864840963
 30
0.0
 10
173.976095604994
 20
535.0263864840963
 30
0.0
 10
174.1459999999997
 20
534.8559999999998
 30
0.0
 10
174.1459999999997
 20
534.8559999999998
 30
0.0
 10
174.1459999999997
 20
534.8559999999998
 30
0.0
 10
174.7763955847768
 20
535.4857864724909
 30
0.0
 10
174.7763955847768
 20
535.4857864724909
 30
0.0
 10
174.7763955847768
 20
535.4857864724909
 30
0.0
 10
174.6156955888364
 20
535.6469999999999
 30
0.0
 10
174.6156955888364
 20
535.6469999999999
 30
0.0
 10
174.7030955866285
 20
535.7479999999996
 30
0.0
 10
174.7855955845444
 20
535.8520864632374
 30
0.0
 10
174.8642955825562
 20
535.9603864605015
 30
0.0
 10
174.8642955825562
 20
535.9603864605015
 30
0.0
 10
175.0727955772891
 20
535.8397864635481
 30
0.0
 10
175.0727955772891
 20
535.8397864635481
 30
0.0
 10
175.0727955772891
 20
535.8397864635481
 30
0.0
 10
175.5185955660272
 20
536.6112864440584
 30
0.0
 10
175.5185955660272
 20
536.6112864440584
 30
0.0
 10
175.5185955660272
 20
536.6112864440584
 30
0.0
 10
175.3227955709735
 20
536.7245864411962
 30
0.0
 10
175.3227955709735
 20
536.7245864411962
 30
0.0
 10
175.3803955695184
 20
536.8441864381748
 30
0.0
 10
175.4340955681619
 20
536.967286435065
 30
0.0
 10
175.4823955669417
 20
537.0912864319325
 30
0.0
 10
175.4823955669417
 20
537.0912864319325
 30
0.0
 10
175.7128955611188
 20
537.0292864334988
 30
0.0
 10
175.7128955611188
 20
537.0292864334988
 30
0.0
 10
175.7128955611188
 20
537.0292864334988
 30
0.0
 10
175.9437955552858
 20
537.8910864117279
 30
0.0
 10
175.9437955552858
 20
537.8910864117279
 30
0.0
 10
175.9437955552858
 20
537.8910864117279
 30
0.0
 10
175.7260955607853
 20
537.9496864102475
 30
0.0
 10
175.7260955607853
 20
537.9496864102475
 30
0.0
 10
175.7494955601942
 20
538.0800864069533
 30
0.0
 10
175.7694955596889
 20
538.2118864036238
 30
0.0
 10
175.7831955593429
 20
538.3451864002564
 30
0.0
 10
175.7831955593429
 20
538.3451864002564
 30
0.0
 10
176.0243955532496
 20
538.3451864002564
 30
0.0
 10
176.0243955532496
 20
538.3451864002564
 30
0.0
 10
176.0243955532496
 20
538.3451864002564
 30
0.0
 10
176.0243955532496
 20
539.2362863777453
 30
0.0
 10
176.0243955532496
 20
539.2362863777453
 30
0.0
 10
176.0243955532496
 20
539.2362863777453
 30
0.0
 10
175.7973955589841
 20
539.2362863777453
 30
0.0
 10
175.7973955589841
 20
539.2362863777453
 30
0.0
 10
175.7870955592443
 20
539.3705863743526
 30
0.0
 10
175.7719999999999
 20
539.5028863710104
 30
0.0
 10
175.7520000000004
 20
539.6337863677036
 30
0.0
 10
175.7520000000004
 20
539.6337863677036
 30
0.0
 10
175.9833955542854
 20
539.6957863661373
 30
0.0
 10
175.9833955542854
 20
539.6957863661373
 30
0.0
 10
175.9833955542854
 20
539.6957863661373
 30
0.0
 10
175.7528955601083
 20
540.5575863443664
 30
0.0
 10
175.7528955601083
 20
540.5575863443664
 30
0.0
 10
175.7528955601083
 20
540.5575863443664
 30
0.0
 10
175.5351955656079
 20
540.4989999999998
 30
0.0
 10
175.5351955656079
 20
540.4989999999998
 30
0.0
 10
175.490695566732
 20
540.6254863426511
 30
0.0
 10
175.4418955679648
 20
540.7494863395186
 30
0.0
 10
175.387695569334
 20
540.8710863364468
 30
0.0
 10
175.387695569334
 20
540.8710863364468
 30
0.0
 10
175.5951955640921
 20
540.9911863334128
 30
0.0
 10
175.5951955640921
 20
540.9911863334128
 30
0.0
 10
175.5951955640921
 20
540.9911863334128
 30
0.0
 10
175.1498955753414
 20
541.7631863139104
 30
0.0
 10
175.1498955753414
 20
541.7631863139104
 30
0.0
 10
175.1498955753414
 20
541.7631863139104
 30
0.0
 10
174.9530955803129
 20
541.6498863167726
 30
0.0
 10
174.9530955803129
 20
541.6498863167726
 30
0.0
 10
174.8783955822
 20
541.7602863139837
 30
0.0
 10
174.7982955842235
 20
541.8666863112958
 30
0.0
 10
174.7138955863556
 20
541.9706863086685
 30
0.0
 10
174.7138955863556
 20
541.9706863086685
 30
0.0
 10
174.8847955820384
 20
542.1410863043639
 30
0.0
 10
174.8847955820384
 20
542.1410863043639
 30
0.0
 10
174.8847955820384
 20
542.1410863043639
 30
0.0
 10
174.2543955979636
 20
542.7709999999997
 30
0.0
 10
174.2543955979636
 20
542.7709999999997
 30
0.0
 10
174.2543955979636
 20
542.7709999999997
 30
0.0
 10
174.0932956020333
 20
542.6107862924982
 30
0.0
 10
174.0932956020333
 20
542.6107862924982
 30
0.0
 10
173.9926956045747
 20
542.6977862903004
 30
0.0
 10
173.888695607202
 20
542.7802862882163
 30
0.0
 10
173.7802956099404
 20
542.8588862862307
 30
0.0
 10
173.7802956099404
 20
542.8588862862307
 30
0.0
 10
173.9003956069064
 20
543.0673862809635
 30
0.0
 10
173.9003956069064
 20
543.0673862809635
 30
0.0
 10
173.9003956069064
 20
543.0673862809635
 30
0.0
 10
173.1288956263961
 20
543.5131862697017
 30
0.0
 10
173.1288956263961
 20
543.5131862697017
 30
0.0
 10
173.1288956263961
 20
543.5131862697017
 30
0.0
 10
173.0160956292457
 20
543.317386274648
 30
0.0
 10
173.0160956292457
 20
543.317386274648
 30
0.0
 10
172.8959999999997
 20
543.375
 30
0.0
 10
172.7728956353894
 20
543.4291862718237
 30
0.0
 10
172.6488956385219
 20
543.4770862706137
 30
0.0
 10
172.6488956385219
 20
543.4770862706137
 30
0.0
 10
172.7103956369683
 20
543.708486264768
 30
0.0
 10
172.7103956369683
 20
543.708486264768
 30
0.0
 10
172.7103956369683
 20
543.708486264768
 30
0.0
 10
171.8490956587266
 20
543.9394862589324
 30
0.0
 10
171.8490956587266
 20
543.9394862589324
 30
0.0
 10
171.8490956587266
 20
543.9394862589324
 30
0.0
 10
171.7914956601817
 20
543.7206862644598
 30
0.0
 10
171.7914956601817
 20
543.7206862644598
 30
0.0
 10
171.6601956634986
 20
543.744586263856
 30
0.0
 10
171.528795666818
 20
543.7641862633609
 30
0.0
 10
171.3954956701855
 20
543.7782862630047
 30
0.0
 10
171.3954956701855
 20
543.7782862630047
 30
0.0
 10
171.3954956701855
 20
544.0190000000002
 30
0.0
 10
171.3954956701855
 20
544.0190000000002
 30
0.0
 10
171.3954956701855
 20
544.0190000000002
 30
0.0
 10
170.5033956927218
 20
544.0190000000002
 30
0.0
 10
170.5033956927218
 20
544.0190000000002
 30
0.0
 10
170.5033956927218
 20
544.0190000000002
 30
0.0
 10
170.5033956927218
 20
543.7920000000004
 30
0.0
 10
170.5033956927218
 20
543.7920000000004
 30
0.0
 10
170.3700956960893
 20
543.7826862628935
 30
0.0
 10
170.2367956994567
 20
543.7670862632876
 30
0.0
 10
170.1068957027383
 20
543.7465862638055
 30
0.0
 10
170.1068957027383
 20
543.7465862638055
 30
0.0
 10
170.0434957043399
 20
543.9784862579472
 30
0.0
 10
170.0434957043399
 20
543.9784862579472
 30
0.0
 10
170.0434957043399
 20
543.9784862579472
 30
0.0
 10
169.5868957158746
 20
543.8559999999998
 30
0.0
 10
169.5868957158746
 20
543.8559999999998
 30
0.0
 10
169.5868957158746
 20
543.8559999999998
 30
0.0
 10
169.1845957260375
 20
544.915
 30
0.0
 10
169.1845957260375
 20
544.915
 30
0.0
 10
170.5585956913274
 20
545.1635862280091
 30
0.0
 10
171.9716956556294
 20
545.165
 30
0.0
 10
173.4467956183653
 20
544.7582862382478
 30
0.0
 10
173.5204956165035
 20
544.8842862350648
 30
0.0
 10
173.594695614629
 20
545.0102862318818
 30
0.0
 10
173.6688956127546
 20
545.137186228676
 30
0.0
 10
173.1225956265553
 20
545.5404862184878
 30
0.0
 10
172.3950000000004
 20
545.8671862102346
 30
0.0
 10
171.042495679103
 20
545.9472862082112
 30
0.0
 10
171.033195679338
 20
546.2621862002561
 30
0.0
 10
171.0238956795729
 20
546.5770861923011
 30
0.0
 10
171.0155956797826
 20
546.8930861843182
 30
0.0
 10
171.0155956797826
 20
546.8930861843182
 30
0.0
 10
168.8002957357457
 20
549.7558861119978
 30
0.0
 10
168.8002957357457
 20
549.7558861119978
 30
0.0
 10
168.8002957357457
 20
549.7558861119978
 30
0.0
 10
167.2826957740835
 20
549.711386113122
 30
0.0
 10
167.2826957740835
 20
549.711386113122
 30
0.0
 10
167.2826957740835
 20
549.711386113122
 30
0.0
 10
166.4350957954957
 20
552.015586054913
 30
0.0
 10
166.4350957954957
 20
552.015586054913
 30
0.0
 10
166.4350957954957
 20
552.015586054913
 30
0.0
 10
163.7870958623898
 20
552.015586054913
 30
0.0
 10
163.7870958623898
 20
552.015586054913
 30
0.0
 10
163.7870958623898
 20
552.015586054913
 30
0.0
 10
163.7870958623898
 20
552.3656860460687
 30
0.0
 10
163.7870958623898
 20
552.3656860460687
 30
0.0
 10
163.7870958623898
 20
552.3656860460687
 30
0.0
 10
163.3285958739725
 20
552.3656860460687
 30
0.0
 10
163.3285958739725
 20
552.3656860460687
 30
0.0
 10
163.3285958739725
 20
552.3656860460687
 30
0.0
 10
163.3285958739725
 20
552.1361860518664
 30
0.0
 10
163.3285958739725
 20
552.1361860518664
 30
0.0
 10
163.3285958739725
 20
552.1361860518664
 30
0.0
 10
161.4774959207352
 20
552.1361860518664
 30
0.0
 10
161.4774959207352
 20
552.1361860518664
 30
0.0
 10
161.4774959207352
 20
552.1361860518664
 30
0.0
 10
161.4774959207352
 20
551.3524860716643
 30
0.0
 10
161.4774959207352
 20
551.3524860716643
 30
0.0
 10
161.4774959207352
 20
551.3524860716643
 30
0.0
 10
163.3285958739725
 20
551.3524860716643
 30
0.0
 10
163.3285958739725
 20
551.3524860716643
 30
0.0
 10
163.3285958739725
 20
551.3524860716643
 30
0.0
 10
163.3285958739725
 20
551.1234860774493
 30
0.0
 10
163.3285958739725
 20
551.1234860774493
 30
0.0
 10
163.3285958739725
 20
551.1234860774493
 30
0.0
 10
163.7870958623898
 20
551.1234860774493
 30
0.0
 10
163.7870958623898
 20
551.1234860774493
 30
0.0
 10
163.7870958623898
 20
551.1234860774493
 30
0.0
 10
163.7870958623898
 20
551.4140860701082
 30
0.0
 10
163.7870958623898
 20
551.4140860701082
 30
0.0
 10
163.7870958623898
 20
551.4140860701082
 30
0.0
 10
164.8402958357838
 20
551.1781860760675
 30
0.0
 10
164.8402958357838
 20
551.1781860760675
 30
0.0
 10
164.8402958357838
 20
551.1781860760675
 30
0.0
 10
165.0390958307617
 20
549.644486114812
 30
0.0
 10
165.0390958307617
 20
549.644486114812
 30
0.0
 10
165.0390958307617
 20
549.644486114812
 30
0.0
 10
163.3432958736012
 20
549.5937861160928
 30
0.0
 10
163.3432958736012
 20
549.5937861160928
 30
0.0
 10
163.3432958736012
 20
549.5937861160928
 30
0.0
 10
160.0204959575422
 20
547.4062861713537
 30
0.0
 10
160.0204959575422
 20
547.4062861713537
 30
0.0
 10
160.0204959575422
 20
547.4062861713537
 30
0.0
 10
159.8320000000003
 20
547.6762861645329
 30
0.0
 10
159.8320000000003
 20
547.6762861645329
 30
0.0
 10
159.8320000000003
 20
547.6762861645329
 30
0.0
 10
161.5604959186385
 20
548.8646861345114
 30
0.0
 10
161.5604959186385
 20
548.8646861345114
 30
0.0
 10
161.5604959186385
 20
548.8646861345114
 30
0.0
 10
161.2489999999998
 20
549.3651861218677
 30
0.0
 10
161.2489999999998
 20
549.3651861218677
 30
0.0
 10
161.2489999999998
 20
549.3651861218677
 30
0.0
 10
156.4687960472656
 20
548.7431861375808
 30
0.0
 10
156.4687960472656
 20
548.7431861375808
 30
0.0
 10
156.4687960472656
 20
548.7431861375808
 30
0.0
 10
149.228496230171
 20
549.0678861293782
 30
0.0
 10
149.228496230171
 20
549.0678861293782
 30
0.0
 10
149.228496230171
 20
549.0678861293782
 30
0.0
 10
148.7958962410994
 20
548.324686148153
 30
0.0
 10
148.7958962410994
 20
548.324686148153
 30
0.0
 10
148.7958962410994
 20
548.324686148153
 30
0.0
 10
147.7562962673619
 20
548.324686148153
 30
0.0
 10
147.7562962673619
 20
548.324686148153
 30
0.0
 10
147.7562962673619
 20
548.324686148153
 30
0.0
 10
147.5941962714569
 20
547.5683861672587
 30
0.0
 10
147.5941962714569
 20
547.5683861672587
 30
0.0
 10
147.5941962714569
 20
547.5683861672587
 30
0.0
 10
148.1845962565421
 20
547.2821861744887
 30
0.0
 10
148.1845962565421
 20
547.2821861744887
 30
0.0
 10
148.1845962565421
 20
547.2821861744887
 30
0.0
 10
147.816896265831
 20
546.4380000000001
 30
0.0
 10
147.816896265831
 20
546.4380000000001
 30
0.0
 10
147.816896265831
 20
546.4380000000001
 30
0.0
 10
148.429196250363
 20
545.4374862210898
 30
0.0
 10
148.429196250363
 20
545.4374862210898
 30
0.0
 10
148.429196250363
 20
545.4374862210898
 30
0.0
 10
155.2426960782395
 20
542.449686296568
 30
0.0
 10
155.2426960782395
 20
542.449686296568
 30
0.0
 10
155.2426960782395
 20
542.449686296568
 30
0.0
 10
155.4027960741951
 20
542.8173862872791
 30
0.0
 10
155.4027960741951
 20
542.8173862872791
 30
0.0
 10
155.4027960741951
 20
542.8173862872791
 30
0.0
 10
156.3109999999997
 20
542.3837862982327
 30
0.0
 10
156.3109999999997
 20
542.3837862982327
 30
0.0
 10
156.3109999999997
 20
542.3837862982327
 30
0.0
 10
156.4442960478846
 20
542.3837862982327
 30
0.0
 10
156.4442960478846
 20
542.3837862982327
 30
0.0
 10
156.4442960478846
 20
542.3837862982327
 30
0.0
 10
156.6890000000003
 20
540.8163863378286
 30
0.0
 10
156.6890000000003
 20
540.8163863378286
 30
0.0
 10
156.6890000000003
 20
540.8163863378286
 30
0.0
 10
154.9369999999999
 20
540.4901863460691
 30
0.0
 10
154.9369999999999
 20
540.4901863460691
 30
0.0
 10
154.9369999999999
 20
540.4901863460691
 30
0.0
 10
154.9369999999999
 20
540.4901863460691
 30
0.0
 10
154.9369999999999
 20
540.4901863460691
 30
0.0
  0
ENDSEC
  0
SECTION
  2
OBJECTS
  0
DICTIONARY
  5
5
330
0
100
AcDbDictionary
281
     1
  3
ACAD_GROUP
350
21
  3
ACAD_LAYOUT
350
18
  3
ACAD_MATERIAL
350
7
  3
ACAD_MLEADERSTYLE
350
8F
  3
ACAD_MLINESTYLE
350
12
  3
ACAD_PLOTSETTINGS
350
22
  3
ACAD_PLOTSTYLENAME
350
4
  3
ACAD_SCALELIST
350
29
  3
ACAD_TABLESTYLE
350
8E
  3
ACAD_VISUALSTYLE
350
23
  3
AcDbVariableDictionary
350
8C
  0
DICTIONARY
  5
AF
330
1F
100
AcDbDictionary
280
     1
281
     1
  3
ACAD_XREC_ROUNDTRIP
360
B0
  0
DICTIONARY
  5
21
102
{ACAD_REACTORS
330
5
102
}
330
5
100
AcDbDictionary
281
     1
  0
DICTIONARY
  5
18
102
{ACAD_REACTORS
330
5
102
}
330
5
100
AcDbDictionary
281
     1
  3
Layout1
350
1C
  3
Model
350
17
  0
DICTIONARY
  5
7
102
{ACAD_REACTORS
330
5
102
}
330
5
100
AcDbDictionary
281
     1
  3
ByBlock
350
4C
  3
ByLayer
350
E
  3
Global
350
6
  0
DICTIONARY
  5
8F
102
{ACAD_REACTORS
330
5
102
}
330
5
100
AcDbDictionary
281
     1
  3
Standard
350
92
  0
DICTIONARY
  5
12
102
{ACAD_REACTORS
330
5
102
}
330
5
100
AcDbDictionary
281
     1
  3
Standard
350
11
  0
DICTIONARY
  5
22
102
{ACAD_REACTORS
330
5
102
}
330
5
100
AcDbDictionary
281
     1
  0
ACDBDICTIONARYWDFLT
  5
4
102
{ACAD_REACTORS
330
5
102
}
330
5
100
AcDbDictionary
281
     1
  3
Normal
350
3
100
AcDbDictionaryWithDefault
340
3
  0
DICTIONARY
  5
29
102
{ACAD_REACTORS
330
5
102
}
330
5
100
AcDbDictionary
281
     1
  3
*A1
350
4B
  0
DICTIONARY
  5
8E
102
{ACAD_REACTORS
330
5
102
}
330
5
100
AcDbDictionary
281
     1
  3
Standard
350
AA
  0
DICTIONARY
  5
23
102
{ACAD_REACTORS
330
5
102
}
330
5
100
AcDbDictionary
281
     1
  3
2dWireframe
350
26
  3
Basic
350
99
  3
Brighten
350
9D
  3
ColorChange
350
A1
  3
Conceptual
350
9B
  3
Dim
350
9C
  3
EdgeColorOff
350
A4
  3
Facepattern
350
A0
  3
Flat
350
93
  3
FlatWithEdges
350
94
  3
Gouraud
350
95
  3
GouraudWithEdges
350
96
  3
Hidden
350
98
  3
JitterOff
350
A2
  3
Linepattern
350
9F
  3
OverhangOff
350
A3
  3
Realistic
350
9A
  3
Shaded
350
A9
  3
Shaded with edges
350
A8
  3
Shades of Gray
350
A5
  3
Sketchy
350
A6
  3
Thicken
350
9E
  3
Wireframe
350
97
  3
X-Ray
350
A7
  0
DICTIONARY
  5
8C
102
{ACAD_REACTORS
330
5
102
}
330
5
100
AcDbDictionary
281
     1
  3
CANNOSCALE
350
8D
  3
CMLEADERSTYLE
350
AC
  3
CTABLESTYLE
350
AB
  3
DIMASSOC
350
AD
  3
HIDETEXT
350
AE
  3
MSLTSCALE
350
B1
  0
XRECORD
  5
B0
102
{ACAD_REACTORS
330
AF
102
}
330
AF
100
AcDbXrecord
280
     1
102
VTR_0.000_0.000_1.000_1.000_VISUALSTYLE
340
26
102
VTR_0.000_0.000_1.000_1.000_GRIDDISPLAY
 70
     3
102
VTR_0.000_0.000_1.000_1.000_GRIDMAJOR
 70
     5
102
VTR_0.000_0.000_1.000_1.000_DEFAULTLIGHTING
280
     1
102
VTR_0.000_0.000_1.000_1.000_DEFAULTLIGHTINGTYPE
 70
     1
102
VTR_0.000_0.000_1.000_1.000_BRIGHTNESS
141
0.0
102
VTR_0.000_0.000_1.000_1.000_CONTRAST
142
0.0
  0
LAYOUT
  5
1C
102
{ACAD_REACTORS
330
18
102
}
330
18
100
AcDbPlotSettings
  1

  2
none_device
  4
Letter_(8.50_x_11.00_Inches)
  6

 40
6.35
 41
6.35
 42
6.35001
 43
6.35001
 44
215.9
 45
279.4
 46
0.0
 47
0.0
 48
0.0
 49
0.0
140
0.0
141
0.0
142
1.0
143
1.0
 70
   688
 72
     0
 73
     1
 74
     5
  7

 75
    16
147
1.0
148
0.0
149
0.0
100
AcDbLayout
  1
Layout1
 70
     1
 71
     1
 10
0.0
 20
0.0
 11
12.0
 21
9.0
 12
0.0
 22
0.0
 32
0.0
 14
1.000000000000000E+20
 24
1.000000000000000E+20
 34
1.000000000000000E+20
 15
-1.000000000000000E+20
 25
-1.000000000000000E+20
 35
-1.000000000000000E+20
146
0.0
 13
0.0
 23
0.0
 33
0.0
 16
1.0
 26
0.0
 36
0.0
 17
0.0
 27
1.0
 37
0.0
 76
     0
330
19
  0
LAYOUT
  5
17
102
{ACAD_REACTORS
330
18
102
}
330
18
100
AcDbPlotSettings
  1

  2
none_device
  4

  6

 40
0.0
 41
0.0
 42
0.0
 43
0.0
 44
0.0
 45
0.0
 46
0.0
 47
0.0
 48
0.0
 49
0.0
140
0.0
141
0.0
142
1.0
143
1.0
 70
  1712
 72
     0
 73
     0
 74
     0
  7

 75
     0
147
1.0
148
0.0
149
0.0
100
AcDbLayout
  1
Model
 70
     1
 71
     0
 10
0.0
 20
0.0
 11
12.0
 21
9.0
 12
0.0
 22
0.0
 32
0.0
 14
144.8871963398415
 24
533.7162865171922
 34
0.0
 15
176.0243955532497
 25
552.3656860460687
 35
0.0
146
0.0
 13
0.0
 23
0.0
 33
0.0
 16
1.0
 26
0.0
 36
0.0
 17
0.0
 27
1.0
 37
0.0
 76
     0
330
14
331
25
  0
MATERIAL
  5
4C
102
{ACAD_REACTORS
330
7
102
}
102
{ACAD_XDICTIONARY
360
B6
102
}
330
7
100
AcDbMaterial
  1
ByBlock
  0
MATERIAL
  5
E
102
{ACAD_REACTORS
330
7
102
}
102
{ACAD_XDICTIONARY
360
B2
102
}
330
7
100
AcDbMaterial
  1
ByLayer
  0
MATERIAL
  5
6
102
{ACAD_REACTORS
330
7
102
}
102
{ACAD_XDICTIONARY
360
B4
102
}
330
7
100
AcDbMaterial
  1
Global
  0
MLEADERSTYLE
  5
92
102
{ACAD_REACTORS
330
8F
102
}
102
{ACAD_XDICTIONARY
360
E9
102
}
330
8F
100
AcDbMLeaderStyle
170
     2
171
     1
172
     0
 90
        2
 40
0.0
 41
0.0
173
     1
 91
-1056964608
340
A
 92
       -2
290
     1
 42
0.09
291
     1
 43
0.36
  3
Standard
341
0
 44
0.18
300

342
C
174
     1
178
     6
175
     1
176
     0
 93
-1056964608
 45
0.18
292
     0
297
     0
 46
0.18
343
0
 94
-1056964608
 47
1.0
 49
1.0
140
1.0
293
     1
141
0.0
294
     1
177
     0
142
1.0
295
     0
296
     0
143
0.125
1001
ACAD_MLEADERVER
1070
     2
  0
MLINESTYLE
  5
11
102
{ACAD_REACTORS
330
12
102
}
330
12
100
AcDbMlineStyle
  2
Standard
 70
     0
  3

 62
   256
 51
90.0
 52
90.0
 71
     2
 49
0.5
 62
   256
  6
BYLAYER
 49
-0.5
 62
   256
  6
BYLAYER
  0
ACDBPLACEHOLDER
  5
3
102
{ACAD_REACTORS
330
4
102
}
330
4
  0
SCALE
  5
4B
102
{ACAD_REACTORS
330
29
102
}
330
29
100
AcDbScale
 70
     0
300
1:1
140
1.0
141
1.0
290
     1
  0
TABLESTYLE
  5
AA
102
{ACAD_REACTORS
330
8E
102
}
330
8E
100
AcDbTableStyle
  3
Standard
 70
     0
 71
     0
 40
0.06
 41
0.06
280
     0
281
     0
  7
Standard
140
0.18
170
     2
 62
     0
 63
   257
283
     0
274
    -2
284
     1
 64
     0
275
    -2
285
     1
 65
     0
276
    -2
286
     1
 66
     0
277
    -2
287
     1
 67
     0
278
    -2
288
     1
 68
     0
279
    -2
289
     1
 69
     0
  7
Standard
140
0.25
170
     5
 62
     0
 63
   257
283
     0
274
    -2
284
     1
 64
     0
275
    -2
285
     1
 65
     0
276
    -2
286
     1
 66
     0
277
    -2
287
     1
 67
     0
278
    -2
288
     1
 68
     0
279
    -2
289
     1
 69
     0
  7
Standard
140
0.18
170
     5
 62
     0
 63
   257
283
     0
274
    -2
284
     1
 64
     0
275
    -2
285
     1
 65
     0
276
    -2
286
     1
 66
     0
277
    -2
287
     1
 67
     0
278
    -2
288
     1
 68
     0
279
    -2
289
     1
 69
     0
  0
VISUALSTYLE
  5
26
102
{ACAD_REACTORS
330
23
102
}
102
{ACAD_XDICTIONARY
360
B8
102
}
330
23
100
AcDbVisualStyle
  2
2dWireframe
 70
     4
 71
     0
 72
     2
 73
     0
 90
        0
 40
-0.6
 41
-30.0
 62
     5
 63
     7
 74
     1
 91
        4
 64
     7
 65
   257
 75
     1
175
     1
 42
1.0
 92
        0
 66
   257
 43
1.0
 76
     1
 77
     6
 78
     2
 67
     7
 79
     5
170
     0
171
     0
290
     0
174
     0
 93
        1
 44
0.0
173
     0
291
     0
 45
0.0
1001
ACAD
1000
AcDbSavedByObjectVersion
1070
     0
  0
VISUALSTYLE
  5
99
102
{ACAD_REACTORS
330
23
102
}
102
{ACAD_XDICTIONARY
360
C6
102
}
330
23
100
AcDbVisualStyle
  2
Basic
 70
     7
 71
     1
 72
     0
 73
     1
 90
        0
 40
0.6
 41
30.0
 62
     5
 63
     7
 74
     0
 91
        4
 64
     7
 65
   257
 75
     1
175
     1
 42
1.0
 92
        8
 66
     7
 43
1.0
 76
     1
 77
     6
 78
     2
 67
     7
 79
     5
170
     0
171
     0
290
     0
174
     0
 93
        1
 44
0.0
173
     0
291
     1
 45
0.0
1001
ACAD
1000
AcDbSavedByObjectVersion
1070
     0
  0
VISUALSTYLE
  5
9D
102
{ACAD_REACTORS
330
23
102
}
102
{ACAD_XDICTIONARY
360
CE
102
}
330
23
100
AcDbVisualStyle
  2
Brighten
 70
    12
 71
     2
 72
     2
 73
     0
 90
        0
 40
0.6
 41
30.0
 62
     5
 63
     7
 74
     1
 91
        4
 64
     7
 65
   257
 75
     1
175
     1
 42
1.0
 92
        8
 66
     7
 43
1.0
 76
     1
 77
     6
 78
     2
 67
     7
 79
     5
170
     0
171
     0
290
     0
174
     0
 93
        1
 44
50.0
173
     0
291
     1
 45
0.0
1001
ACAD
1000
AcDbSavedByObjectVersion
1070
     0
  0
VISUALSTYLE
  5
A1
102
{ACAD_REACTORS
330
23
102
}
102
{ACAD_XDICTIONARY
360
D6
102
}
330
23
100
AcDbVisualStyle
  2
ColorChange
 70
    16
 71
     2
 72
     2
 73
     3
 90
        0
 40
0.6
 41
30.0
 62
     5
 63
     8
 74
     1
 91
        4
 64
     7
 65
   257
 75
     1
175
     1
 42
1.0
 92
        8
 66
     8
 43
1.0
 76
     1
 77
     6
 78
     2
 67
     7
 79
     5
170
     0
171
     0
290
     0
174
     0
 93
        1
 44
0.0
173
     0
291
     1
 45
0.0
1001
ACAD
1000
AcDbSavedByObjectVersion
1070
     0
  0
VISUALSTYLE
  5
9B
102
{ACAD_REACTORS
330
23
102
}
102
{ACAD_XDICTIONARY
360
CA
102
}
330
23
100
AcDbVisualStyle
  2
Conceptual
 70
     9
 71
     3
 72
     2
 73
     0
 90
        0
 40
0.6
 41
30.0
 62
     5
 63
     7
 74
     2
 91
        2
 64
     7
 65
   257
 75
     1
175
     1
 42
179.0
 92
        8
 66
     7
 43
1.0
 76
     1
 77
     6
 78
     2
 67
     7
 79
     3
170
     0
171
     0
290
     0
174
     0
 93
        1
 44
0.0
173
     0
291
     0
 45
0.0
1001
ACAD
1000
AcDbSavedByObjectVersion
1070
     0
  0
VISUALSTYLE
  5
9C
102
{ACAD_REACTORS
330
23
102
}
102
{ACAD_XDICTIONARY
360
CC
102
}
330
23
100
AcDbVisualStyle
  2
Dim
 70
    11
 71
     2
 72
     2
 73
     0
 90
        0
 40
0.6
 41
30.0
 62
     5
 63
     7
 74
     1
 91
        4
 64
     7
 65
   257
 75
     1
175
     1
 42
1.0
 92
        8
 66
     7
 43
1.0
 76
     1
 77
     6
 78
     2
 67
     7
 79
     5
170
     0
171
     0
290
     0
174
     0
 93
        1
 44
-50.0
173
     0
291
     1
 45
0.0
1001
ACAD
1000
AcDbSavedByObjectVersion
1070
     0
  0
VISUALSTYLE
  5
A4
102
{ACAD_REACTORS
330
23
102
}
102
{ACAD_XDICTIONARY
360
DC
102
}
330
23
100
AcDbVisualStyle
  2
EdgeColorOff
 70
    22
 71
     2
 72
     2
 73
     0
 90
        0
 40
0.6
 41
30.0
 62
     5
 63
     7
 74
     1
 91
        4
 64
     7
 65
   257
 75
     1
175
     1
 42
1.0
 92
        8
 66
     7
 43
1.0
 76
     1
 77
     6
 78
     2
 67
     7
 79
     5
170
     0
171
     0
290
     0
174
     0
 93
        1
 44
0.0
173
     0
291
     1
 45
0.0
1001
ACAD
1000
AcDbSavedByObjectVersion
1070
     0
  0
VISUALSTYLE
  5
A0
102
{ACAD_REACTORS
330
23
102
}
102
{ACAD_XDICTIONARY
360
D4
102
}
330
23
100
AcDbVisualStyle
  2
Facepattern
 70
    15
 71
     2
 72
     2
 73
     0
 90
        0
 40
0.6
 41
30.0
 62
     5
 63
     7
 74
     1
 91
        4
 64
     7
 65
   257
 75
     1
175
     1
 42
1.0
 92
        8
 66
     7
 43
1.0
 76
     1
 77
     6
 78
     2
 67
     7
 79
     5
170
     0
171
     0
290
     0
174
     0
 93
        1
 44
0.0
173
     0
291
     1
 45
0.0
1001
ACAD
1000
AcDbSavedByObjectVersion
1070
     0
  0
VISUALSTYLE
  5
93
102
{ACAD_REACTORS
330
23
102
}
102
{ACAD_XDICTIONARY
360
BA
102
}
330
23
100
AcDbVisualStyle
  2
Flat
 70
     0
 71
     2
 72
     1
 73
     1
 90
        2
 40
0.6
 41
30.0
 62
     5
 63
     7
 74
     0
 91
        0
 64
     7
 65
   257
 75
     1
175
     1
 42
1.0
 92
        8
 66
     7
 43
1.0
 76
     1
 77
     6
 78
     2
 67
     7
 79
     5
170
     0
171
     0
290
     0
174
     0
 93
       13
 44
0.0
173
     0
291
     1
 45
0.0
1001
ACAD
1000
AcDbSavedByObjectVersion
1070
     0
  0
VISUALSTYLE
  5
94
102
{ACAD_REACTORS
330
23
102
}
102
{ACAD_XDICTIONARY
360
BC
102
}
330
23
100
AcDbVisualStyle
  2
FlatWithEdges
 70
     1
 71
     2
 72
     1
 73
     1
 90
        2
 40
0.6
 41
30.0
 62
     5
 63
     7
 74
     1
 91
        0
 64
     7
 65
   257
 75
     1
175
     1
 42
1.0
 92
        0
 66
   257
 43
1.0
 76
     1
 77
     6
 78
     2
 67
     7
 79
     5
170
     0
171
     0
290
     0
174
     0
 93
       13
 44
0.0
173
     0
291
     1
 45
0.0
1001
ACAD
1000
AcDbSavedByObjectVersion
1070
     0
  0
VISUALSTYLE
  5
95
102
{ACAD_REACTORS
330
23
102
}
102
{ACAD_XDICTIONARY
360
BE
102
}
330
23
100
AcDbVisualStyle
  2
Gouraud
 70
     2
 71
     2
 72
     2
 73
     1
 90
        2
 40
0.6
 41
30.0
 62
     5
 63
     7
 74
     0
 91
        0
 64
     7
 65
   257
 75
     1
175
     1
 42
1.0
 92
        0
 66
     7
 43
1.0
 76
     1
 77
     6
 78
     2
 67
     7
 79
     5
170
     0
171
     0
290
     0
174
     0
 93
       13
 44
0.0
173
     0
291
     1
 45
0.0
1001
ACAD
1000
AcDbSavedByObjectVersion
1070
     0
  0
VISUALSTYLE
  5
96
102
{ACAD_REACTORS
330
23
102
}
102
{ACAD_XDICTIONARY
360
C0
102
}
330
23
100
AcDbVisualStyle
  2
GouraudWithEdges
 70
     3
 71
     2
 72
     2
 73
     1
 90
        2
 40
0.6
 41
30.0
 62
     5
 63
     7
 74
     1
 91
        0
 64
     7
 65
   257
 75
     1
175
     1
 42
1.0
 92
        0
 66
   257
 43
1.0
 76
     1
 77
     6
 78
     2
 67
     7
 79
     5
170
     0
171
     0
290
     0
174
     0
 93
       13
 44
0.0
173
     0
291
     1
 45
0.0
1001
ACAD
1000
AcDbSavedByObjectVersion
1070
     0
  0
VISUALSTYLE
  5
98
102
{ACAD_REACTORS
330
23
102
}
102
{ACAD_XDICTIONARY
360
C4
102
}
330
23
100
AcDbVisualStyle
  2
Hidden
 70
     6
 71
     1
 72
     2
 73
     2
 90
        0
 40
0.6
 41
30.0
 62
     5
 63
     7
 74
     2
 91
        2
 64
     7
 65
   257
 75
     2
175
     1
 42
40.0
 92
        0
 66
   257
 43
1.0
 76
     1
 77
     6
 78
     2
 67
     7
 79
     3
170
     0
171
     0
290
     0
174
     0
 93
        1
 44
0.0
173
     0
291
     0
 45
0.0
1001
ACAD
1000
AcDbSavedByObjectVersion
1070
     0
  0
VISUALSTYLE
  5
A2
102
{ACAD_REACTORS
330
23
102
}
102
{ACAD_XDICTIONARY
360
D8
102
}
330
23
100
AcDbVisualStyle
  2
JitterOff
 70
    20
 71
     2
 72
     2
 73
     0
 90
        0
 40
0.6
 41
30.0
 62
     5
 63
     7
 74
     1
 91
        4
 64
     7
 65
   257
 75
     1
175
     1
 42
1.0
 92
       10
 66
     7
 43
1.0
 76
     1
 77
     6
 78
     2
 67
     7
 79
     5
170
     0
171
     0
290
     0
174
     0
 93
        1
 44
0.0
173
     0
291
     1
 45
0.0
1001
ACAD
1000
AcDbSavedByObjectVersion
1070
     0
  0
VISUALSTYLE
  5
9F
102
{ACAD_REACTORS
330
23
102
}
102
{ACAD_XDICTIONARY
360
D2
102
}
330
23
100
AcDbVisualStyle
  2
Linepattern
 70
    14
 71
     2
 72
     2
 73
     0
 90
        0
 40
0.6
 41
30.0
 62
     5
 63
     7
 74
     1
 91
        4
 64
     7
 65
   257
 75
     7
175
     7
 42
1.0
 92
        8
 66
     7
 43
1.0
 76
     1
 77
     6
 78
     2
 67
     7
 79
     5
170
     0
171
     0
290
     0
174
     0
 93
        1
 44
0.0
173
     0
291
     1
 45
0.0
1001
ACAD
1000
AcDbSavedByObjectVersion
1070
     0
  0
VISUALSTYLE
  5
A3
102
{ACAD_REACTORS
330
23
102
}
102
{ACAD_XDICTIONARY
360
DA
102
}
330
23
100
AcDbVisualStyle
  2
OverhangOff
 70
    21
 71
     2
 72
     2
 73
     0
 90
        0
 40
0.6
 41
30.0
 62
     5
 63
     7
 74
     1
 91
        4
 64
     7
 65
   257
 75
     1
175
     1
 42
1.0
 92
        9
 66
     7
 43
1.0
 76
     1
 77
     6
 78
     2
 67
     7
 79
     5
170
     0
171
     0
290
     0
174
     0
 93
        1
 44
0.0
173
     0
291
     1
 45
0.0
1001
ACAD
1000
AcDbSavedByObjectVersion
1070
     0
  0
VISUALSTYLE
  5
9A
102
{ACAD_REACTORS
330
23
102
}
102
{ACAD_XDICTIONARY
360
C8
102
}
330
23
100
AcDbVisualStyle
  2
Realistic
 70
     8
 71
     2
 72
     3
 73
     0
 90
        2
 40
0.6
 41
30.0
 62
     5
 63
     7
 74
     0
 91
        0
 64
     7
 65
   257
 75
     1
175
     1
 42
1.0
 92
        8
 66
   257
 43
1.0
 76
     1
 77
     6
 78
     2
 67
     7
 79
     3
170
     0
171
     0
290
     0
174
     0
 93
       13
 44
0.0
173
     0
291
     0
 45
0.0
1001
ACAD
1000
AcDbSavedByObjectVersion
1070
     0
  0
VISUALSTYLE
  5
A9
102
{ACAD_REACTORS
330
23
102
}
102
{ACAD_XDICTIONARY
360
E6
102
}
330
23
100
AcDbVisualStyle
  2
Shaded
 70
    27
 71
     2
 72
     2
 73
     1
 90
        2
 40
0.6
 41
30.0
 62
     5
 63
     7
 74
     0
 91
        4
 64
     7
 65
   257
 75
     1
175
     1
 42
1.0
 92
        8
 66
   257
 43
1.0
 76
     1
 77
     6
 78
     2
 67
     8
 79
     3
170
     0
171
     0
290
     0
174
     0
 93
        5
 44
0.0
173
     0
291
     0
 45
0.0
1001
ACAD
1000
AcDbSavedByObjectVersion
1070
     0
  0
VISUALSTYLE
  5
A8
102
{ACAD_REACTORS
330
23
102
}
102
{ACAD_XDICTIONARY
360
E4
102
}
330
23
100
AcDbVisualStyle
  2
Shaded with edges
 70
    26
 71
     2
 72
     2
 73
     1
 90
        2
 40
0.6
 41
30.0
 62
     5
 63
     7
 74
     1
 91
       10
 64
     7
 65
   257
 75
     2
175
     1
 42
1.0
 92
        8
 66
   257
 43
1.0
 76
     1
 77
     6
 78
     2
 67
     7
 79
     3
170
     0
171
     0
290
     0
174
     0
 93
        5
 44
0.0
173
     0
291
     0
 45
0.0
1001
ACAD
1000
AcDbSavedByObjectVersion
1070
     0
  0
VISUALSTYLE
  5
A5
102
{ACAD_REACTORS
330
23
102
}
102
{ACAD_XDICTIONARY
360
DE
102
}
330
23
100
AcDbVisualStyle
  2
Shades of Gray
 70
    23
 71
     2
 72
     2
 73
     3
 90
        0
 40
0.6
 41
30.0
 62
     5
 63
     7
 74
     2
 91
        2
 64
     7
 65
     7
 75
     1
175
     1
 42
40.0
 92
        8
 66
     7
 43
1.0
 76
     1
 77
     6
 78
     2
 67
     7
 79
     3
170
     0
171
     0
290
     0
174
     0
 93
        1
 44
0.0
173
     0
291
     0
 45
0.0
1001
ACAD
1000
AcDbSavedByObjectVersion
1070
     0
  0
VISUALSTYLE
  5
A6
102
{ACAD_REACTORS
330
23
102
}
102
{ACAD_XDICTIONARY
360
E0
102
}
330
23
100
AcDbVisualStyle
  2
Sketchy
 70
    24
 71
     1
 72
     2
 73
     2
 90
        0
 40
0.6
 41
30.0
 62
     5
 63
     7
 74
     2
 91
        2
 64
     7
 65
     7
 75
     1
175
     1
 42
40.0
 92
       11
 66
     7
 43
1.0
 76
     1
 77
     6
 78
     2
 67
     7
 79
     6
170
     0
171
     0
290
     0
174
     0
 93
        1
 44
0.0
173
     0
291
     0
 45
0.0
1001
ACAD
1000
AcDbSavedByObjectVersion
1070
     0
  0
VISUALSTYLE
  5
9E
102
{ACAD_REACTORS
330
23
102
}
102
{ACAD_XDICTIONARY
360
D0
102
}
330
23
100
AcDbVisualStyle
  2
Thicken
 70
    13
 71
     2
 72
     2
 73
     0
 90
        0
 40
0.6
 41
30.0
 62
     5
 63
     7
 74
     1
 91
        4
 64
     7
 65
   257
 75
     1
175
     1
 42
1.0
 92
       12
 66
     7
 43
1.0
 76
     1
 77
     6
 78
     2
 67
     7
 79
     5
170
     0
171
     0
290
     0
174
     0
 93
        1
 44
0.0
173
     0
291
     1
 45
0.0
1001
ACAD
1000
AcDbSavedByObjectVersion
1070
     0
  0
VISUALSTYLE
  5
97
102
{ACAD_REACTORS
330
23
102
}
102
{ACAD_XDICTIONARY
360
C2
102
}
330
23
100
AcDbVisualStyle
  2
Wireframe
 70
     5
 71
     0
 72
     2
 73
     0
 90
        0
 40
0.6
 41
30.0
 62
     5
 63
     7
 74
     1
 91
        4
 64
     7
 65
   257
 75
     1
175
     1
 42
1.0
 92
        0
 66
   257
 43
1.0
 76
     1
 77
     6
 78
     2
 67
     7
 79
     3
170
     0
171
     0
290
     0
174
     0
 93
        1
 44
0.0
173
     0
291
     0
 45
0.0
1001
ACAD
1000
AcDbSavedByObjectVersion
1070
     0
  0
VISUALSTYLE
  5
A7
102
{ACAD_REACTORS
330
23
102
}
102
{ACAD_XDICTIONARY
360
E2
102
}
330
23
100
AcDbVisualStyle
  2
X-Ray
 70
    25
 71
     2
 72
     2
 73
     1
 90
        1
 40
0.5
 41
30.0
 62
     5
 63
     7
 74
     1
 91
        0
 64
     7
 65
   257
 75
     1
175
     1
 42
1.0
 92
        8
 66
     7
 43
1.0
 76
     1
 77
     6
 78
     2
 67
     7
 79
     3
170
     0
171
     0
290
     0
174
     0
 93
       13
 44
0.0
173
     0
291
     0
 45
0.0
1001
ACAD
1000
AcDbSavedByObjectVersion
1070
     0
  0
DICTIONARYVAR
  5
8D
102
{ACAD_REACTORS
330
8C
102
}
330
8C
100
DictionaryVariables
280
     0
  1
1:1
  0
DICTIONARYVAR
  5
AC
102
{ACAD_REACTORS
330
8C
102
}
330
8C
100
DictionaryVariables
280
     0
  1
Standard
  0
DICTIONARYVAR
  5
AB
102
{ACAD_REACTORS
330
8C
102
}
330
8C
100
DictionaryVariables
280
     0
  1
Standard
  0
DICTIONARYVAR
  5
AD
102
{ACAD_REACTORS
330
8C
102
}
330
8C
100
DictionaryVariables
280
     0
  1
2
  0
DICTIONARYVAR
  5
AE
102
{ACAD_REACTORS
330
8C
102
}
330
8C
100
DictionaryVariables
280
     0
  1
1
  0
DICTIONARYVAR
  5
B1
102
{ACAD_REACTORS
330
8C
102
}
330
8C
100
DictionaryVariables
280
     0
  1
1
  0
DICTIONARY
  5
B6
330
4C
100
AcDbDictionary
280
     1
281
     1
  3
ACAD_XREC_ROUNDTRIP
360
B7
  0
DICTIONARY
  5
B2
330
E
100
AcDbDictionary
280
     1
281
     1
  3
ACAD_XREC_ROUNDTRIP
360
B3
  0
DICTIONARY
  5
B4
330
6
100
AcDbDictionary
280
     1
281
     1
  3
ACAD_XREC_ROUNDTRIP
360
B5
  0
DICTIONARY
  5
E9
330
92
100
AcDbDictionary
280
     1
281
     1
  3
ACAD_XREC_ROUNDTRIP
360
EA
  0
DICTIONARY
  5
B8
330
26
100
AcDbDictionary
280
     1
281
     1
  3
ACAD_XREC_ROUNDTRIP
360
B9
  0
DICTIONARY
  5
C6
330
99
100
AcDbDictionary
280
     1
281
     1
  3
ACAD_XREC_ROUNDTRIP
360
C7
  0
DICTIONARY
  5
CE
330
9D
100
AcDbDictionary
280
     1
281
     1
  3
ACAD_XREC_ROUNDTRIP
360
CF
  0
DICTIONARY
  5
D6
330
A1
100
AcDbDictionary
280
     1
281
     1
  3
ACAD_XREC_ROUNDTRIP
360
D7
  0
DICTIONARY
  5
CA
330
9B
100
AcDbDictionary
280
     1
281
     1
  3
ACAD_XREC_ROUNDTRIP
360
CB
  0
DICTIONARY
  5
CC
330
9C
100
AcDbDictionary
280
     1
281
     1
  3
ACAD_XREC_ROUNDTRIP
360
CD
  0
DICTIONARY
  5
DC
330
A4
100
AcDbDictionary
280
     1
281
     1
  3
ACAD_XREC_ROUNDTRIP
360
DD
  0
DICTIONARY
  5
D4
330
A0
100
AcDbDictionary
280
     1
281
     1
  3
ACAD_XREC_ROUNDTRIP
360
D5
  0
DICTIONARY
  5
BA
330
93
100
AcDbDictionary
280
     1
281
     1
  3
ACAD_XREC_ROUNDTRIP
360
BB
  0
DICTIONARY
  5
BC
330
94
100
AcDbDictionary
280
     1
281
     1
  3
ACAD_XREC_ROUNDTRIP
360
BD
  0
DICTIONARY
  5
BE
330
95
100
AcDbDictionary
280
     1
281
     1
  3
ACAD_XREC_ROUNDTRIP
360
BF
  0
DICTIONARY
  5
C0
330
96
100
AcDbDictionary
280
     1
281
     1
  3
ACAD_XREC_ROUNDTRIP
360
C1
  0
DICTIONARY
  5
C4
330
98
100
AcDbDictionary
280
     1
281
     1
  3
ACAD_XREC_ROUNDTRIP
360
C5
  0
DICTIONARY
  5
D8
330
A2
100
AcDbDictionary
280
     1
281
     1
  3
ACAD_XREC_ROUNDTRIP
360
D9
  0
DICTIONARY
  5
D2
330
9F
100
AcDbDictionary
280
     1
281
     1
  3
ACAD_XREC_ROUNDTRIP
360
D3
  0
DICTIONARY
  5
DA
330
A3
100
AcDbDictionary
280
     1
281
     1
  3
ACAD_XREC_ROUNDTRIP
360
DB
  0
DICTIONARY
  5
C8
330
9A
100
AcDbDictionary
280
     1
281
     1
  3
ACAD_XREC_ROUNDTRIP
360
C9
  0
DICTIONARY
  5
E6
330
A9
100
AcDbDictionary
280
     1
281
     1
  3
ACAD_XREC_ROUNDTRIP
360
E7
  0
DICTIONARY
  5
E4
330
A8
100
AcDbDictionary
280
     1
281
     1
  3
ACAD_XREC_ROUNDTRIP
360
E5
  0
DICTIONARY
  5
DE
330
A5
100
AcDbDictionary
280
     1
281
     1
  3
ACAD_XREC_ROUNDTRIP
360
DF
  0
DICTIONARY
  5
E0
330
A6
100
AcDbDictionary
280
     1
281
     1
  3
ACAD_XREC_ROUNDTRIP
360
E1
  0
DICTIONARY
  5
D0
330
9E
100
AcDbDictionary
280
     1
281
     1
  3
ACAD_XREC_ROUNDTRIP
360
D1
  0
DICTIONARY
  5
C2
330
97
100
AcDbDictionary
280
     1
281
     1
  3
ACAD_XREC_ROUNDTRIP
360
C3
  0
DICTIONARY
  5
E2
330
A7
100
AcDbDictionary
280
     1
281
     1
  3
ACAD_XREC_ROUNDTRIP
360
E3
  0
XRECORD
  5
B7
102
{ACAD_REACTORS
330
B6
102
}
330
B6
100
AcDbXrecord
280
     1
102
MATERIAL
148
0.0
149
0.0
149
0.0
 93
        0
 94
      127
282
     0
 72
     1
 77
     1
171
     1
175
     1
179
     1
273
     0
  0
XRECORD
  5
B3
102
{ACAD_REACTORS
330
B2
102
}
330
B2
100
AcDbXrecord
280
     1
102
MATERIAL
148
0.0
149
0.0
149
0.0
 93
        0
 94
      127
282
     0
 72
     1
 77
     1
171
     1
175
     1
179
     1
273
     0
  0
XRECORD
  5
B5
102
{ACAD_REACTORS
330
B4
102
}
330
B4
100
AcDbXrecord
280
     1
102
MATERIAL
148
0.0
149
0.0
149
0.0
 93
        0
 94
      127
282
     0
 72
     1
 77
     1
171
     1
175
     1
179
     1
273
     0
  0
XRECORD
  5
EA
102
{ACAD_REACTORS
330
E9
102
}
330
E9
100
AcDbXrecord
280
     1
102
ACAD_ROUNDTRIP_2010_MLEADER_STYLE
  0
XRECORD
  5
B9
102
{ACAD_REACTORS
330
B8
102
}
330
B8
100
AcDbXrecord
280
     1
102
RTVSPropertyOp0
 70
     1
102
RTVSPropertyOp1
 70
     1
102
RTVSPropertyOp2
 70
     1
102
RTVSPropertyOp3
 70
     1
102
RTVSPropertyOp4
 70
     1
102
RTVSPropertyOp5
 70
     1
102
RTVSPropertyOp6
 70
     1
102
RTVSPropertyOp7
 70
     1
102
RTVSPropertyOp8
 70
     1
102
RTVSPropertyOp9
 70
     1
102
RTVSPropertyOp10
 70
     1
102
RTVSPropertyOp11
 70
     1
102
RTVSPropertyOp12
 70
     1
102
RTVSPropertyOp13
 70
     1
102
RTVSPropertyOp14
 70
     1
102
RTVSPropertyOp15
 70
     1
102
RTVSPropertyOp16
 70
     1
102
RTVSPropertyOp17
 70
     1
102
RTVSPropertyOp18
 70
     1
102
RTVSPropertyOp19
 70
     1
102
RTVSPropertyOp20
 70
     1
102
RTVSPropertyOp21
 70
     1
102
RTVSPropertyOp22
 70
     1
102
RTVSPropertyOp23
 70
     1
102
RTVSPropertyOp24
 70
     1
102
RTVSPropertyOp25
 70
     1
102
RTVSPropertyOp26
 70
     1
102
RTVSPropertyOp27
 70
     1
102
RTVSPropertyOp28
 70
     1
102
RTVSPropertyOp29
 70
     1
102
RTVSPropertyOp30
 70
     1
102
RTVSPropertyOp31
 70
     1
102
RTVSPropertyOp32
 70
     1
102
RTVSPropertyOp33
 70
     1
102
RTVSPropertyOp34
 70
     1
102
RTVSPropertyOp35
 70
     1
102
RTVSPropertyOp36
 70
     1
102
RTVSPropertyOp37
 70
     1
102
RTVSPropertyOp38
 70
     1
102
RTVSPropertyOp39
 70
     1
102
RTVSPropertyOp40
 70
     1
102
RTVSPropertyOp41
 70
     1
102
RTVSPropertyOp42
 70
     1
102
RTVSPropertyOp43
 70
     1
102
RTVSPropertyOp44
 70
     1
102
RTVSPropertyOp45
 70
     1
102
RTVSPropertyOp46
 70
     1
102
RTVSPropertyOp47
 70
     1
102
RTVSPropertyOp48
 70
     1
102
RTVSPropertyOp49
 70
     1
102
RTVSPropertyOp50
 70
     1
102
RTVSPropertyOp51
 70
     0
102
RTVSPropertyOp52
 70
     0
102
RTVSPropertyOp53
 70
     1
102
RTVSPropertyOp54
 70
     1
102
RTVSPropertyOp55
 70
     1
102
RTVSPropertyOp56
 70
     1
102
RTVSPropertyOp57
 70
     1
102
RTVSPost2010Prop28
280
     1
102
RTVSPost2010PropOp28
 70
     1
102
RTVSPost2010Prop29
280
     1
102
RTVSPost2010PropOp29
 70
     1
102
RTVSPost2010Prop30
280
     0
102
RTVSPost2010PropOp30
 70
     1
102
RTVSPost2010Prop31
280
     0
102
RTVSPost2010PropOp31
 70
     1
102
RTVSPost2010Prop32
280
     0
102
RTVSPost2010PropOp32
 70
     1
102
RTVSPost2010Prop33
280
     0
102
RTVSPost2010PropOp33
 70
     1
102
RTVSPost2010Prop34
280
     0
102
RTVSPost2010PropOp34
 70
     1
102
RTVSPost2010Prop35
280
     0
102
RTVSPost2010PropOp35
 70
     1
102
RTVSPost2010Prop36
280
     0
102
RTVSPost2010PropOp36
 70
     1
102
RTVSPost2010Prop37
 90
       50
102
RTVSPost2010PropOp37
 70
     1
102
RTVSPost2010Prop38
140
0.0
102
RTVSPost2010PropOp38
 70
     1
102
RTVSPost2010Prop39
140
1.0
102
RTVSPost2010PropOp39
 70
     1
102
RTVSPost2010Prop40
 90
        0
102
RTVSPost2010PropOp40
 70
     1
102
RTVSPost2010Prop41ColorIndex
 90
       18
102
RTVSPost2010Prop41ColorRGB
 90
        0
102
RTVSPost2010PropOp41
 70
     1
102
RTVSPost2010Prop42
 90
       50
102
RTVSPost2010PropOp42
 70
     1
102
RTVSPost2010Prop43
 90
        3
102
RTVSPost2010PropOp43
 70
     1
102
RTVSPost2010Prop44ColorIndex
 90
        5
102
RTVSPost2010Prop44ColorRGB
 90
      255
102
RTVSPost2010PropOp44
 70
     1
102
RTVSPost2010Prop45
280
     0
102
RTVSPost2010PropOp45
 70
     1
102
RTVSPost2010Prop46
 90
       50
102
RTVSPost2010PropOp46
 70
     1
102
RTVSPost2010Prop47
 90
       50
102
RTVSPost2010PropOp47
 70
     1
102
RTVSPost2010Prop48
 90
       50
102
RTVSPost2010PropOp48
 70
     1
102
RTVSPost2010Prop49
280
     0
102
RTVSPost2010PropOp49
 70
     1
102
RTVSPost2010Prop50
 90
       50
102
RTVSPost2010PropOp50
 70
     1
102
RTVSPost2010Prop51ColorIndex
 90
      256
102
RTVSPost2010Prop51ColorRGB
 90
-16777216
102
RTVSPost2010PropOp51
 70
     0
102
RTVSPost2010Prop52
140
1.0
102
RTVSPost2010PropOp52
 70
     0
102
RTVSPost2010Prop53
 90
        2
102
RTVSPost2010PropOp53
 70
     1
102
RTVSPost2010Prop54
  1
strokes_ogs.tif
102
RTVSPost2010PropOp54
 70
     1
102
RTVSPost2010Prop55
280
     0
102
RTVSPost2010PropOp55
 70
     1
102
RTVSPost2010Prop56
140
1.0
102
RTVSPost2010PropOp56
 70
     1
102
RTVSPost2010Prop57
140
1.0
102
RTVSPost2010PropOp57
 70
     1
  0
XRECORD
  5
C7
102
{ACAD_REACTORS
330
C6
102
}
330
C6
100
AcDbXrecord
280
     1
102
RTVSPropertyOp0
 70
     1
102
RTVSPropertyOp1
 70
     1
102
RTVSPropertyOp2
 70
     1
102
RTVSPropertyOp3
 70
     1
102
RTVSPropertyOp4
 70
     1
102
RTVSPropertyOp5
 70
     1
102
RTVSPropertyOp6
 70
     1
102
RTVSPropertyOp7
 70
     1
102
RTVSPropertyOp8
 70
     1
102
RTVSPropertyOp9
 70
     1
102
RTVSPropertyOp10
 70
     1
102
RTVSPropertyOp11
 70
     1
102
RTVSPropertyOp12
 70
     1
102
RTVSPropertyOp13
 70
     1
102
RTVSPropertyOp14
 70
     1
102
RTVSPropertyOp15
 70
     1
102
RTVSPropertyOp16
 70
     1
102
RTVSPropertyOp17
 70
     1
102
RTVSPropertyOp18
 70
     1
102
RTVSPropertyOp19
 70
     1
102
RTVSPropertyOp20
 70
     1
102
RTVSPropertyOp21
 70
     1
102
RTVSPropertyOp22
 70
     1
102
RTVSPropertyOp23
 70
     1
102
RTVSPropertyOp24
 70
     1
102
RTVSPropertyOp25
 70
     1
102
RTVSPropertyOp26
 70
     1
102
RTVSPropertyOp27
 70
     1
102
RTVSPropertyOp28
 70
     1
102
RTVSPropertyOp29
 70
     1
102
RTVSPropertyOp30
 70
     1
102
RTVSPropertyOp31
 70
     1
102
RTVSPropertyOp32
 70
     1
102
RTVSPropertyOp33
 70
     1
102
RTVSPropertyOp34
 70
     1
102
RTVSPropertyOp35
 70
     1
102
RTVSPropertyOp36
 70
     1
102
RTVSPropertyOp37
 70
     1
102
RTVSPropertyOp38
 70
     1
102
RTVSPropertyOp39
 70
     1
102
RTVSPropertyOp40
 70
     1
102
RTVSPropertyOp41
 70
     1
102
RTVSPropertyOp42
 70
     1
102
RTVSPropertyOp43
 70
     1
102
RTVSPropertyOp44
 70
     1
102
RTVSPropertyOp45
 70
     1
102
RTVSPropertyOp46
 70
     1
102
RTVSPropertyOp47
 70
     1
102
RTVSPropertyOp48
 70
     1
102
RTVSPropertyOp49
 70
     1
102
RTVSPropertyOp50
 70
     1
102
RTVSPropertyOp51
 70
     0
102
RTVSPropertyOp52
 70
     0
102
RTVSPropertyOp53
 70
     1
102
RTVSPropertyOp54
 70
     1
102
RTVSPropertyOp55
 70
     1
102
RTVSPropertyOp56
 70
     1
102
RTVSPropertyOp57
 70
     1
102
RTVSPost2010Prop28
280
     0
102
RTVSPost2010PropOp28
 70
     1
102
RTVSPost2010Prop29
280
     1
102
RTVSPost2010PropOp29
 70
     1
102
RTVSPost2010Prop30
280
     1
102
RTVSPost2010PropOp30
 70
     1
102
RTVSPost2010Prop31
280
     0
102
RTVSPost2010PropOp31
 70
     1
102
RTVSPost2010Prop32
280
     0
102
RTVSPost2010PropOp32
 70
     1
102
RTVSPost2010Prop33
280
     0
102
RTVSPost2010PropOp33
 70
     1
102
RTVSPost2010Prop34
280
     0
102
RTVSPost2010PropOp34
 70
     1
102
RTVSPost2010Prop35
280
     0
102
RTVSPost2010PropOp35
 70
     1
102
RTVSPost2010Prop36
280
     0
102
RTVSPost2010PropOp36
 70
     1
102
RTVSPost2010Prop37
 90
       50
102
RTVSPost2010PropOp37
 70
     1
102
RTVSPost2010Prop38
140
0.0
102
RTVSPost2010PropOp38
 70
     1
102
RTVSPost2010Prop39
140
1.0
102
RTVSPost2010PropOp39
 70
     1
102
RTVSPost2010Prop40
 90
        0
102
RTVSPost2010PropOp40
 70
     1
102
RTVSPost2010Prop41ColorIndex
 90
       18
102
RTVSPost2010Prop41ColorRGB
 90
        0
102
RTVSPost2010PropOp41
 70
     1
102
RTVSPost2010Prop42
 90
       50
102
RTVSPost2010PropOp42
 70
     1
102
RTVSPost2010Prop43
 90
        3
102
RTVSPost2010PropOp43
 70
     1
102
RTVSPost2010Prop44ColorIndex
 90
        5
102
RTVSPost2010Prop44ColorRGB
 90
      255
102
RTVSPost2010PropOp44
 70
     1
102
RTVSPost2010Prop45
280
     0
102
RTVSPost2010PropOp45
 70
     1
102
RTVSPost2010Prop46
 90
       50
102
RTVSPost2010PropOp46
 70
     1
102
RTVSPost2010Prop47
 90
       50
102
RTVSPost2010PropOp47
 70
     1
102
RTVSPost2010Prop48
 90
       50
102
RTVSPost2010PropOp48
 70
     1
102
RTVSPost2010Prop49
280
     0
102
RTVSPost2010PropOp49
 70
     1
102
RTVSPost2010Prop50
 90
       50
102
RTVSPost2010PropOp50
 70
     1
102
RTVSPost2010Prop51ColorIndex
 90
      256
102
RTVSPost2010Prop51ColorRGB
 90
-16777216
102
RTVSPost2010PropOp51
 70
     0
102
RTVSPost2010Prop52
140
1.0
102
RTVSPost2010PropOp52
 70
     0
102
RTVSPost2010Prop53
 90
        2
102
RTVSPost2010PropOp53
 70
     1
102
RTVSPost2010Prop54
  1
strokes_ogs.tif
102
RTVSPost2010PropOp54
 70
     1
102
RTVSPost2010Prop55
280
     0
102
RTVSPost2010PropOp55
 70
     1
102
RTVSPost2010Prop56
140
1.0
102
RTVSPost2010PropOp56
 70
     1
102
RTVSPost2010Prop57
140
1.0
102
RTVSPost2010PropOp57
 70
     1
  0
XRECORD
  5
CF
102
{ACAD_REACTORS
330
CE
102
}
330
CE
100
AcDbXrecord
280
     1
102
RTVSPropertyOp0
 70
     1
102
RTVSPropertyOp1
 70
     1
102
RTVSPropertyOp2
 70
     1
102
RTVSPropertyOp3
 70
     1
102
RTVSPropertyOp4
 70
     1
102
RTVSPropertyOp5
 70
     1
102
RTVSPropertyOp6
 70
     1
102
RTVSPropertyOp7
 70
     1
102
RTVSPropertyOp8
 70
     1
102
RTVSPropertyOp9
 70
     1
102
RTVSPropertyOp10
 70
     1
102
RTVSPropertyOp11
 70
     1
102
RTVSPropertyOp12
 70
     1
102
RTVSPropertyOp13
 70
     1
102
RTVSPropertyOp14
 70
     1
102
RTVSPropertyOp15
 70
     1
102
RTVSPropertyOp16
 70
     1
102
RTVSPropertyOp17
 70
     1
102
RTVSPropertyOp18
 70
     1
102
RTVSPropertyOp19
 70
     1
102
RTVSPropertyOp20
 70
     1
102
RTVSPropertyOp21
 70
     1
102
RTVSPropertyOp22
 70
     1
102
RTVSPropertyOp23
 70
     1
102
RTVSPropertyOp24
 70
     1
102
RTVSPropertyOp25
 70
     1
102
RTVSPropertyOp26
 70
     1
102
RTVSPropertyOp27
 70
     1
102
RTVSPropertyOp28
 70
     1
102
RTVSPropertyOp29
 70
     1
102
RTVSPropertyOp30
 70
     1
102
RTVSPropertyOp31
 70
     1
102
RTVSPropertyOp32
 70
     1
102
RTVSPropertyOp33
 70
     1
102
RTVSPropertyOp34
 70
     1
102
RTVSPropertyOp35
 70
     1
102
RTVSPropertyOp36
 70
     1
102
RTVSPropertyOp37
 70
     1
102
RTVSPropertyOp38
 70
     1
102
RTVSPropertyOp39
 70
     1
102
RTVSPropertyOp40
 70
     1
102
RTVSPropertyOp41
 70
     1
102
RTVSPropertyOp42
 70
     1
102
RTVSPropertyOp43
 70
     1
102
RTVSPropertyOp44
 70
     1
102
RTVSPropertyOp45
 70
     1
102
RTVSPropertyOp46
 70
     1
102
RTVSPropertyOp47
 70
     1
102
RTVSPropertyOp48
 70
     1
102
RTVSPropertyOp49
 70
     1
102
RTVSPropertyOp50
 70
     1
102
RTVSPropertyOp51
 70
     0
102
RTVSPropertyOp52
 70
     0
102
RTVSPropertyOp53
 70
     1
102
RTVSPropertyOp54
 70
     1
102
RTVSPropertyOp55
 70
     1
102
RTVSPropertyOp56
 70
     1
102
RTVSPropertyOp57
 70
     1
102
RTVSPost2010Prop28
280
     0
102
RTVSPost2010PropOp28
 70
     1
102
RTVSPost2010Prop29
280
     1
102
RTVSPost2010PropOp29
 70
     1
102
RTVSPost2010Prop30
280
     1
102
RTVSPost2010PropOp30
 70
     1
102
RTVSPost2010Prop31
280
     0
102
RTVSPost2010PropOp31
 70
     1
102
RTVSPost2010Prop32
280
     0
102
RTVSPost2010PropOp32
 70
     1
102
RTVSPost2010Prop33
280
     0
102
RTVSPost2010PropOp33
 70
     1
102
RTVSPost2010Prop34
280
     0
102
RTVSPost2010PropOp34
 70
     1
102
RTVSPost2010Prop35
280
     0
102
RTVSPost2010PropOp35
 70
     1
102
RTVSPost2010Prop36
280
     0
102
RTVSPost2010PropOp36
 70
     1
102
RTVSPost2010Prop37
 90
       50
102
RTVSPost2010PropOp37
 70
     1
102
RTVSPost2010Prop38
140
0.0
102
RTVSPost2010PropOp38
 70
     1
102
RTVSPost2010Prop39
140
1.0
102
RTVSPost2010PropOp39
 70
     1
102
RTVSPost2010Prop40
 90
        0
102
RTVSPost2010PropOp40
 70
     1
102
RTVSPost2010Prop41ColorIndex
 90
       18
102
RTVSPost2010Prop41ColorRGB
 90
        0
102
RTVSPost2010PropOp41
 70
     1
102
RTVSPost2010Prop42
 90
       50
102
RTVSPost2010PropOp42
 70
     1
102
RTVSPost2010Prop43
 90
        3
102
RTVSPost2010PropOp43
 70
     1
102
RTVSPost2010Prop44ColorIndex
 90
        5
102
RTVSPost2010Prop44ColorRGB
 90
      255
102
RTVSPost2010PropOp44
 70
     1
102
RTVSPost2010Prop45
280
     0
102
RTVSPost2010PropOp45
 70
     1
102
RTVSPost2010Prop46
 90
       50
102
RTVSPost2010PropOp46
 70
     1
102
RTVSPost2010Prop47
 90
       50
102
RTVSPost2010PropOp47
 70
     1
102
RTVSPost2010Prop48
 90
       50
102
RTVSPost2010PropOp48
 70
     1
102
RTVSPost2010Prop49
280
     0
102
RTVSPost2010PropOp49
 70
     1
102
RTVSPost2010Prop50
 90
       50
102
RTVSPost2010PropOp50
 70
     1
102
RTVSPost2010Prop51ColorIndex
 90
      256
102
RTVSPost2010Prop51ColorRGB
 90
-16777216
102
RTVSPost2010PropOp51
 70
     0
102
RTVSPost2010Prop52
140
1.0
102
RTVSPost2010PropOp52
 70
     0
102
RTVSPost2010Prop53
 90
        2
102
RTVSPost2010PropOp53
 70
     1
102
RTVSPost2010Prop54
  1
strokes_ogs.tif
102
RTVSPost2010PropOp54
 70
     1
102
RTVSPost2010Prop55
280
     0
102
RTVSPost2010PropOp55
 70
     1
102
RTVSPost2010Prop56
140
1.0
102
RTVSPost2010PropOp56
 70
     1
102
RTVSPost2010Prop57
140
1.0
102
RTVSPost2010PropOp57
 70
     1
  0
XRECORD
  5
D7
102
{ACAD_REACTORS
330
D6
102
}
330
D6
100
AcDbXrecord
280
     1
102
RTVSPropertyOp0
 70
     1
102
RTVSPropertyOp1
 70
     1
102
RTVSPropertyOp2
 70
     1
102
RTVSPropertyOp3
 70
     1
102
RTVSPropertyOp4
 70
     1
102
RTVSPropertyOp5
 70
     1
102
RTVSPropertyOp6
 70
     1
102
RTVSPropertyOp7
 70
     1
102
RTVSPropertyOp8
 70
     1
102
RTVSPropertyOp9
 70
     1
102
RTVSPropertyOp10
 70
     1
102
RTVSPropertyOp11
 70
     1
102
RTVSPropertyOp12
 70
     1
102
RTVSPropertyOp13
 70
     1
102
RTVSPropertyOp14
 70
     1
102
RTVSPropertyOp15
 70
     1
102
RTVSPropertyOp16
 70
     1
102
RTVSPropertyOp17
 70
     1
102
RTVSPropertyOp18
 70
     1
102
RTVSPropertyOp19
 70
     1
102
RTVSPropertyOp20
 70
     1
102
RTVSPropertyOp21
 70
     1
102
RTVSPropertyOp22
 70
     1
102
RTVSPropertyOp23
 70
     1
102
RTVSPropertyOp24
 70
     1
102
RTVSPropertyOp25
 70
     1
102
RTVSPropertyOp26
 70
     1
102
RTVSPropertyOp27
 70
     1
102
RTVSPropertyOp28
 70
     1
102
RTVSPropertyOp29
 70
     1
102
RTVSPropertyOp30
 70
     1
102
RTVSPropertyOp31
 70
     1
102
RTVSPropertyOp32
 70
     1
102
RTVSPropertyOp33
 70
     1
102
RTVSPropertyOp34
 70
     1
102
RTVSPropertyOp35
 70
     1
102
RTVSPropertyOp36
 70
     1
102
RTVSPropertyOp37
 70
     1
102
RTVSPropertyOp38
 70
     1
102
RTVSPropertyOp39
 70
     1
102
RTVSPropertyOp40
 70
     1
102
RTVSPropertyOp41
 70
     1
102
RTVSPropertyOp42
 70
     1
102
RTVSPropertyOp43
 70
     1
102
RTVSPropertyOp44
 70
     1
102
RTVSPropertyOp45
 70
     1
102
RTVSPropertyOp46
 70
     1
102
RTVSPropertyOp47
 70
     1
102
RTVSPropertyOp48
 70
     1
102
RTVSPropertyOp49
 70
     1
102
RTVSPropertyOp50
 70
     1
102
RTVSPropertyOp51
 70
     0
102
RTVSPropertyOp52
 70
     0
102
RTVSPropertyOp53
 70
     1
102
RTVSPropertyOp54
 70
     1
102
RTVSPropertyOp55
 70
     1
102
RTVSPropertyOp56
 70
     1
102
RTVSPropertyOp57
 70
     1
102
RTVSPost2010Prop28
280
     0
102
RTVSPost2010PropOp28
 70
     1
102
RTVSPost2010Prop29
280
     1
102
RTVSPost2010PropOp29
 70
     1
102
RTVSPost2010Prop30
280
     1
102
RTVSPost2010PropOp30
 70
     1
102
RTVSPost2010Prop31
280
     0
102
RTVSPost2010PropOp31
 70
     1
102
RTVSPost2010Prop32
280
     0
102
RTVSPost2010PropOp32
 70
     1
102
RTVSPost2010Prop33
280
     0
102
RTVSPost2010PropOp33
 70
     1
102
RTVSPost2010Prop34
280
     0
102
RTVSPost2010PropOp34
 70
     1
102
RTVSPost2010Prop35
280
     0
102
RTVSPost2010PropOp35
 70
     1
102
RTVSPost2010Prop36
280
     0
102
RTVSPost2010PropOp36
 70
     1
102
RTVSPost2010Prop37
 90
       50
102
RTVSPost2010PropOp37
 70
     1
102
RTVSPost2010Prop38
140
0.0
102
RTVSPost2010PropOp38
 70
     1
102
RTVSPost2010Prop39
140
1.0
102
RTVSPost2010PropOp39
 70
     1
102
RTVSPost2010Prop40
 90
        0
102
RTVSPost2010PropOp40
 70
     1
102
RTVSPost2010Prop41ColorIndex
 90
       18
102
RTVSPost2010Prop41ColorRGB
 90
        0
102
RTVSPost2010PropOp41
 70
     1
102
RTVSPost2010Prop42
 90
       50
102
RTVSPost2010PropOp42
 70
     1
102
RTVSPost2010Prop43
 90
        3
102
RTVSPost2010PropOp43
 70
     1
102
RTVSPost2010Prop44ColorIndex
 90
        5
102
RTVSPost2010Prop44ColorRGB
 90
      255
102
RTVSPost2010PropOp44
 70
     1
102
RTVSPost2010Prop45
280
     0
102
RTVSPost2010PropOp45
 70
     1
102
RTVSPost2010Prop46
 90
       50
102
RTVSPost2010PropOp46
 70
     1
102
RTVSPost2010Prop47
 90
       50
102
RTVSPost2010PropOp47
 70
     1
102
RTVSPost2010Prop48
 90
       50
102
RTVSPost2010PropOp48
 70
     1
102
RTVSPost2010Prop49
280
     0
102
RTVSPost2010PropOp49
 70
     1
102
RTVSPost2010Prop50
 90
       50
102
RTVSPost2010PropOp50
 70
     1
102
RTVSPost2010Prop51ColorIndex
 90
      256
102
RTVSPost2010Prop51ColorRGB
 90
-16777216
102
RTVSPost2010PropOp51
 70
     0
102
RTVSPost2010Prop52
140
1.0
102
RTVSPost2010PropOp52
 70
     0
102
RTVSPost2010Prop53
 90
        2
102
RTVSPost2010PropOp53
 70
     1
102
RTVSPost2010Prop54
  1
strokes_ogs.tif
102
RTVSPost2010PropOp54
 70
     1
102
RTVSPost2010Prop55
280
     0
102
RTVSPost2010PropOp55
 70
     1
102
RTVSPost2010Prop56
140
1.0
102
RTVSPost2010PropOp56
 70
     1
102
RTVSPost2010Prop57
140
1.0
102
RTVSPost2010PropOp57
 70
     1
  0
XRECORD
  5
CB
102
{ACAD_REACTORS
330
CA
102
}
330
CA
100
AcDbXrecord
280
     1
102
RTVSPropertyOp0
 70
     1
102
RTVSPropertyOp1
 70
     1
102
RTVSPropertyOp2
 70
     1
102
RTVSPropertyOp3
 70
     1
102
RTVSPropertyOp4
 70
     1
102
RTVSPropertyOp5
 70
     1
102
RTVSPropertyOp6
 70
     1
102
RTVSPropertyOp7
 70
     1
102
RTVSPropertyOp8
 70
     1
102
RTVSPropertyOp9
 70
     1
102
RTVSPropertyOp10
 70
     1
102
RTVSPropertyOp11
 70
     1
102
RTVSPropertyOp12
 70
     1
102
RTVSPropertyOp13
 70
     1
102
RTVSPropertyOp14
 70
     1
102
RTVSPropertyOp15
 70
     1
102
RTVSPropertyOp16
 70
     1
102
RTVSPropertyOp17
 70
     1
102
RTVSPropertyOp18
 70
     1
102
RTVSPropertyOp19
 70
     1
102
RTVSPropertyOp20
 70
     1
102
RTVSPropertyOp21
 70
     1
102
RTVSPropertyOp22
 70
     1
102
RTVSPropertyOp23
 70
     1
102
RTVSPropertyOp24
 70
     1
102
RTVSPropertyOp25
 70
     1
102
RTVSPropertyOp26
 70
     1
102
RTVSPropertyOp27
 70
     1
102
RTVSPropertyOp28
 70
     1
102
RTVSPropertyOp29
 70
     1
102
RTVSPropertyOp30
 70
     1
102
RTVSPropertyOp31
 70
     1
102
RTVSPropertyOp32
 70
     1
102
RTVSPropertyOp33
 70
     1
102
RTVSPropertyOp34
 70
     1
102
RTVSPropertyOp35
 70
     1
102
RTVSPropertyOp36
 70
     1
102
RTVSPropertyOp37
 70
     1
102
RTVSPropertyOp38
 70
     1
102
RTVSPropertyOp39
 70
     1
102
RTVSPropertyOp40
 70
     1
102
RTVSPropertyOp41
 70
     1
102
RTVSPropertyOp42
 70
     1
102
RTVSPropertyOp43
 70
     1
102
RTVSPropertyOp44
 70
     1
102
RTVSPropertyOp45
 70
     1
102
RTVSPropertyOp46
 70
     1
102
RTVSPropertyOp47
 70
     1
102
RTVSPropertyOp48
 70
     1
102
RTVSPropertyOp49
 70
     1
102
RTVSPropertyOp50
 70
     1
102
RTVSPropertyOp51
 70
     0
102
RTVSPropertyOp52
 70
     0
102
RTVSPropertyOp53
 70
     1
102
RTVSPropertyOp54
 70
     1
102
RTVSPropertyOp55
 70
     1
102
RTVSPropertyOp56
 70
     1
102
RTVSPropertyOp57
 70
     1
102
RTVSPost2010Prop28
280
     0
102
RTVSPost2010PropOp28
 70
     1
102
RTVSPost2010Prop29
280
     1
102
RTVSPost2010PropOp29
 70
     1
102
RTVSPost2010Prop30
280
     1
102
RTVSPost2010PropOp30
 70
     1
102
RTVSPost2010Prop31
280
     0
102
RTVSPost2010PropOp31
 70
     1
102
RTVSPost2010Prop32
280
     0
102
RTVSPost2010PropOp32
 70
     1
102
RTVSPost2010Prop33
280
     0
102
RTVSPost2010PropOp33
 70
     1
102
RTVSPost2010Prop34
280
     0
102
RTVSPost2010PropOp34
 70
     1
102
RTVSPost2010Prop35
280
     0
102
RTVSPost2010PropOp35
 70
     1
102
RTVSPost2010Prop36
280
     0
102
RTVSPost2010PropOp36
 70
     1
102
RTVSPost2010Prop37
 90
       50
102
RTVSPost2010PropOp37
 70
     1
102
RTVSPost2010Prop38
140
0.0
102
RTVSPost2010PropOp38
 70
     1
102
RTVSPost2010Prop39
140
1.0
102
RTVSPost2010PropOp39
 70
     1
102
RTVSPost2010Prop40
 90
        0
102
RTVSPost2010PropOp40
 70
     1
102
RTVSPost2010Prop41ColorIndex
 90
       18
102
RTVSPost2010Prop41ColorRGB
 90
        0
102
RTVSPost2010PropOp41
 70
     1
102
RTVSPost2010Prop42
 90
       50
102
RTVSPost2010PropOp42
 70
     1
102
RTVSPost2010Prop43
 90
        3
102
RTVSPost2010PropOp43
 70
     1
102
RTVSPost2010Prop44ColorIndex
 90
        5
102
RTVSPost2010Prop44ColorRGB
 90
      255
102
RTVSPost2010PropOp44
 70
     1
102
RTVSPost2010Prop45
280
     0
102
RTVSPost2010PropOp45
 70
     1
102
RTVSPost2010Prop46
 90
       50
102
RTVSPost2010PropOp46
 70
     1
102
RTVSPost2010Prop47
 90
       50
102
RTVSPost2010PropOp47
 70
     1
102
RTVSPost2010Prop48
 90
       50
102
RTVSPost2010PropOp48
 70
     1
102
RTVSPost2010Prop49
280
     0
102
RTVSPost2010PropOp49
 70
     1
102
RTVSPost2010Prop50
 90
       50
102
RTVSPost2010PropOp50
 70
     1
102
RTVSPost2010Prop51ColorIndex
 90
      256
102
RTVSPost2010Prop51ColorRGB
 90
-16777216
102
RTVSPost2010PropOp51
 70
     0
102
RTVSPost2010Prop52
140
1.0
102
RTVSPost2010PropOp52
 70
     0
102
RTVSPost2010Prop53
 90
        2
102
RTVSPost2010PropOp53
 70
     1
102
RTVSPost2010Prop54
  1
strokes_ogs.tif
102
RTVSPost2010PropOp54
 70
     1
102
RTVSPost2010Prop55
280
     0
102
RTVSPost2010PropOp55
 70
     1
102
RTVSPost2010Prop56
140
1.0
102
RTVSPost2010PropOp56
 70
     1
102
RTVSPost2010Prop57
140
1.0
102
RTVSPost2010PropOp57
 70
     1
  0
XRECORD
  5
CD
102
{ACAD_REACTORS
330
CC
102
}
330
CC
100
AcDbXrecord
280
     1
102
RTVSPropertyOp0
 70
     1
102
RTVSPropertyOp1
 70
     1
102
RTVSPropertyOp2
 70
     1
102
RTVSPropertyOp3
 70
     1
102
RTVSPropertyOp4
 70
     1
102
RTVSPropertyOp5
 70
     1
102
RTVSPropertyOp6
 70
     1
102
RTVSPropertyOp7
 70
     1
102
RTVSPropertyOp8
 70
     1
102
RTVSPropertyOp9
 70
     1
102
RTVSPropertyOp10
 70
     1
102
RTVSPropertyOp11
 70
     1
102
RTVSPropertyOp12
 70
     1
102
RTVSPropertyOp13
 70
     1
102
RTVSPropertyOp14
 70
     1
102
RTVSPropertyOp15
 70
     1
102
RTVSPropertyOp16
 70
     1
102
RTVSPropertyOp17
 70
     1
102
RTVSPropertyOp18
 70
     1
102
RTVSPropertyOp19
 70
     1
102
RTVSPropertyOp20
 70
     1
102
RTVSPropertyOp21
 70
     1
102
RTVSPropertyOp22
 70
     1
102
RTVSPropertyOp23
 70
     1
102
RTVSPropertyOp24
 70
     1
102
RTVSPropertyOp25
 70
     1
102
RTVSPropertyOp26
 70
     1
102
RTVSPropertyOp27
 70
     1
102
RTVSPropertyOp28
 70
     1
102
RTVSPropertyOp29
 70
     1
102
RTVSPropertyOp30
 70
     1
102
RTVSPropertyOp31
 70
     1
102
RTVSPropertyOp32
 70
     1
102
RTVSPropertyOp33
 70
     1
102
RTVSPropertyOp34
 70
     1
102
RTVSPropertyOp35
 70
     1
102
RTVSPropertyOp36
 70
     1
102
RTVSPropertyOp37
 70
     1
102
RTVSPropertyOp38
 70
     1
102
RTVSPropertyOp39
 70
     1
102
RTVSPropertyOp40
 70
     1
102
RTVSPropertyOp41
 70
     1
102
RTVSPropertyOp42
 70
     1
102
RTVSPropertyOp43
 70
     1
102
RTVSPropertyOp44
 70
     1
102
RTVSPropertyOp45
 70
     1
102
RTVSPropertyOp46
 70
     1
102
RTVSPropertyOp47
 70
     1
102
RTVSPropertyOp48
 70
     1
102
RTVSPropertyOp49
 70
     1
102
RTVSPropertyOp50
 70
     1
102
RTVSPropertyOp51
 70
     0
102
RTVSPropertyOp52
 70
     0
102
RTVSPropertyOp53
 70
     1
102
RTVSPropertyOp54
 70
     1
102
RTVSPropertyOp55
 70
     1
102
RTVSPropertyOp56
 70
     1
102
RTVSPropertyOp57
 70
     1
102
RTVSPost2010Prop28
280
     0
102
RTVSPost2010PropOp28
 70
     1
102
RTVSPost2010Prop29
280
     1
102
RTVSPost2010PropOp29
 70
     1
102
RTVSPost2010Prop30
280
     1
102
RTVSPost2010PropOp30
 70
     1
102
RTVSPost2010Prop31
280
     0
102
RTVSPost2010PropOp31
 70
     1
102
RTVSPost2010Prop32
280
     0
102
RTVSPost2010PropOp32
 70
     1
102
RTVSPost2010Prop33
280
     0
102
RTVSPost2010PropOp33
 70
     1
102
RTVSPost2010Prop34
280
     0
102
RTVSPost2010PropOp34
 70
     1
102
RTVSPost2010Prop35
280
     0
102
RTVSPost2010PropOp35
 70
     1
102
RTVSPost2010Prop36
280
     0
102
RTVSPost2010PropOp36
 70
     1
102
RTVSPost2010Prop37
 90
       50
102
RTVSPost2010PropOp37
 70
     1
102
RTVSPost2010Prop38
140
0.0
102
RTVSPost2010PropOp38
 70
     1
102
RTVSPost2010Prop39
140
1.0
102
RTVSPost2010PropOp39
 70
     1
102
RTVSPost2010Prop40
 90
        0
102
RTVSPost2010PropOp40
 70
     1
102
RTVSPost2010Prop41ColorIndex
 90
       18
102
RTVSPost2010Prop41ColorRGB
 90
        0
102
RTVSPost2010PropOp41
 70
     1
102
RTVSPost2010Prop42
 90
       50
102
RTVSPost2010PropOp42
 70
     1
102
RTVSPost2010Prop43
 90
        3
102
RTVSPost2010PropOp43
 70
     1
102
RTVSPost2010Prop44ColorIndex
 90
        5
102
RTVSPost2010Prop44ColorRGB
 90
      255
102
RTVSPost2010PropOp44
 70
     1
102
RTVSPost2010Prop45
280
     0
102
RTVSPost2010PropOp45
 70
     1
102
RTVSPost2010Prop46
 90
       50
102
RTVSPost2010PropOp46
 70
     1
102
RTVSPost2010Prop47
 90
       50
102
RTVSPost2010PropOp47
 70
     1
102
RTVSPost2010Prop48
 90
       50
102
RTVSPost2010PropOp48
 70
     1
102
RTVSPost2010Prop49
280
     0
102
RTVSPost2010PropOp49
 70
     1
102
RTVSPost2010Prop50
 90
       50
102
RTVSPost2010PropOp50
 70
     1
102
RTVSPost2010Prop51ColorIndex
 90
      256
102
RTVSPost2010Prop51ColorRGB
 90
-16777216
102
RTVSPost2010PropOp51
 70
     0
102
RTVSPost2010Prop52
140
1.0
102
RTVSPost2010PropOp52
 70
     0
102
RTVSPost2010Prop53
 90
        2
102
RTVSPost2010PropOp53
 70
     1
102
RTVSPost2010Prop54
  1
strokes_ogs.tif
102
RTVSPost2010PropOp54
 70
     1
102
RTVSPost2010Prop55
280
     0
102
RTVSPost2010PropOp55
 70
     1
102
RTVSPost2010Prop56
140
1.0
102
RTVSPost2010PropOp56
 70
     1
102
RTVSPost2010Prop57
140
1.0
102
RTVSPost2010PropOp57
 70
     1
  0
XRECORD
  5
DD
102
{ACAD_REACTORS
330
DC
102
}
330
DC
100
AcDbXrecord
280
     1
102
RTVSPropertyOp0
 70
     0
102
RTVSPropertyOp1
 70
     0
102
RTVSPropertyOp2
 70
     0
102
RTVSPropertyOp3
 70
     0
102
RTVSPropertyOp4
 70
     0
102
RTVSPropertyOp5
 70
     0
102
RTVSPropertyOp6
 70
     0
102
RTVSPropertyOp7
 70
     0
102
RTVSPropertyOp8
 70
     0
102
RTVSPropertyOp9
 70
     0
102
RTVSPropertyOp10
 70
     0
102
RTVSPropertyOp11
 70
     0
102
RTVSPropertyOp12
 70
     0
102
RTVSPropertyOp13
 70
     0
102
RTVSPropertyOp14
 70
     2
102
RTVSPropertyOp15
 70
     0
102
RTVSPropertyOp16
 70
     0
102
RTVSPropertyOp17
 70
     0
102
RTVSPropertyOp18
 70
     0
102
RTVSPropertyOp19
 70
     0
102
RTVSPropertyOp20
 70
     0
102
RTVSPropertyOp21
 70
     0
102
RTVSPropertyOp22
 70
     0
102
RTVSPropertyOp23
 70
     0
102
RTVSPropertyOp24
 70
     0
102
RTVSPropertyOp25
 70
     0
102
RTVSPropertyOp26
 70
     0
102
RTVSPropertyOp27
 70
     0
102
RTVSPropertyOp28
 70
     0
102
RTVSPropertyOp29
 70
     0
102
RTVSPropertyOp30
 70
     0
102
RTVSPropertyOp31
 70
     0
102
RTVSPropertyOp32
 70
     0
102
RTVSPropertyOp33
 70
     0
102
RTVSPropertyOp34
 70
     0
102
RTVSPropertyOp35
 70
     0
102
RTVSPropertyOp36
 70
     0
102
RTVSPropertyOp37
 70
     0
102
RTVSPropertyOp38
 70
     0
102
RTVSPropertyOp39
 70
     0
102
RTVSPropertyOp40
 70
     0
102
RTVSPropertyOp41
 70
     0
102
RTVSPropertyOp42
 70
     0
102
RTVSPropertyOp43
 70
     0
102
RTVSPropertyOp44
 70
     0
102
RTVSPropertyOp45
 70
     0
102
RTVSPropertyOp46
 70
     0
102
RTVSPropertyOp47
 70
     0
102
RTVSPropertyOp48
 70
     0
102
RTVSPropertyOp49
 70
     0
102
RTVSPropertyOp50
 70
     0
102
RTVSPropertyOp51
 70
     0
102
RTVSPropertyOp52
 70
     0
102
RTVSPropertyOp53
 70
     0
102
RTVSPropertyOp54
 70
     0
102
RTVSPropertyOp55
 70
     0
102
RTVSPropertyOp56
 70
     0
102
RTVSPropertyOp57
 70
     0
102
RTVSPost2010Prop28
280
     0
102
RTVSPost2010PropOp28
 70
     0
102
RTVSPost2010Prop29
280
     1
102
RTVSPost2010PropOp29
 70
     0
102
RTVSPost2010Prop30
280
     1
102
RTVSPost2010PropOp30
 70
     0
102
RTVSPost2010Prop31
280
     0
102
RTVSPost2010PropOp31
 70
     0
102
RTVSPost2010Prop32
280
     0
102
RTVSPost2010PropOp32
 70
     0
102
RTVSPost2010Prop33
280
     0
102
RTVSPost2010PropOp33
 70
     0
102
RTVSPost2010Prop34
280
     0
102
RTVSPost2010PropOp34
 70
     0
102
RTVSPost2010Prop35
280
     0
102
RTVSPost2010PropOp35
 70
     0
102
RTVSPost2010Prop36
280
     0
102
RTVSPost2010PropOp36
 70
     0
102
RTVSPost2010Prop37
 90
       50
102
RTVSPost2010PropOp37
 70
     0
102
RTVSPost2010Prop38
140
0.0
102
RTVSPost2010PropOp38
 70
     0
102
RTVSPost2010Prop39
140
1.0
102
RTVSPost2010PropOp39
 70
     0
102
RTVSPost2010Prop40
 90
        0
102
RTVSPost2010PropOp40
 70
     0
102
RTVSPost2010Prop41ColorIndex
 90
       18
102
RTVSPost2010Prop41ColorRGB
 90
        0
102
RTVSPost2010PropOp41
 70
     0
102
RTVSPost2010Prop42
 90
       50
102
RTVSPost2010PropOp42
 70
     0
102
RTVSPost2010Prop43
 90
        3
102
RTVSPost2010PropOp43
 70
     0
102
RTVSPost2010Prop44ColorIndex
 90
        5
102
RTVSPost2010Prop44ColorRGB
 90
      255
102
RTVSPost2010PropOp44
 70
     0
102
RTVSPost2010Prop45
280
     0
102
RTVSPost2010PropOp45
 70
     0
102
RTVSPost2010Prop46
 90
       50
102
RTVSPost2010PropOp46
 70
     0
102
RTVSPost2010Prop47
 90
       50
102
RTVSPost2010PropOp47
 70
     0
102
RTVSPost2010Prop48
 90
       50
102
RTVSPost2010PropOp48
 70
     0
102
RTVSPost2010Prop49
280
     0
102
RTVSPost2010PropOp49
 70
     0
102
RTVSPost2010Prop50
 90
       50
102
RTVSPost2010PropOp50
 70
     0
102
RTVSPost2010Prop51ColorIndex
 90
      256
102
RTVSPost2010Prop51ColorRGB
 90
-16777216
102
RTVSPost2010PropOp51
 70
     0
102
RTVSPost2010Prop52
140
1.0
102
RTVSPost2010PropOp52
 70
     0
102
RTVSPost2010Prop53
 90
        2
102
RTVSPost2010PropOp53
 70
     0
102
RTVSPost2010Prop54
  1
strokes_ogs.tif
102
RTVSPost2010PropOp54
 70
     0
102
RTVSPost2010Prop55
280
     0
102
RTVSPost2010PropOp55
 70
     0
102
RTVSPost2010Prop56
140
1.0
102
RTVSPost2010PropOp56
 70
     0
102
RTVSPost2010Prop57
140
1.0
102
RTVSPost2010PropOp57
 70
     0
  0
XRECORD
  5
D5
102
{ACAD_REACTORS
330
D4
102
}
330
D4
100
AcDbXrecord
280
     1
102
RTVSPropertyOp0
 70
     1
102
RTVSPropertyOp1
 70
     1
102
RTVSPropertyOp2
 70
     1
102
RTVSPropertyOp3
 70
     1
102
RTVSPropertyOp4
 70
     1
102
RTVSPropertyOp5
 70
     1
102
RTVSPropertyOp6
 70
     1
102
RTVSPropertyOp7
 70
     1
102
RTVSPropertyOp8
 70
     1
102
RTVSPropertyOp9
 70
     1
102
RTVSPropertyOp10
 70
     1
102
RTVSPropertyOp11
 70
     1
102
RTVSPropertyOp12
 70
     1
102
RTVSPropertyOp13
 70
     1
102
RTVSPropertyOp14
 70
     1
102
RTVSPropertyOp15
 70
     1
102
RTVSPropertyOp16
 70
     1
102
RTVSPropertyOp17
 70
     1
102
RTVSPropertyOp18
 70
     1
102
RTVSPropertyOp19
 70
     1
102
RTVSPropertyOp20
 70
     1
102
RTVSPropertyOp21
 70
     1
102
RTVSPropertyOp22
 70
     1
102
RTVSPropertyOp23
 70
     1
102
RTVSPropertyOp24
 70
     1
102
RTVSPropertyOp25
 70
     1
102
RTVSPropertyOp26
 70
     1
102
RTVSPropertyOp27
 70
     1
102
RTVSPropertyOp28
 70
     1
102
RTVSPropertyOp29
 70
     1
102
RTVSPropertyOp30
 70
     1
102
RTVSPropertyOp31
 70
     1
102
RTVSPropertyOp32
 70
     1
102
RTVSPropertyOp33
 70
     1
102
RTVSPropertyOp34
 70
     1
102
RTVSPropertyOp35
 70
     1
102
RTVSPropertyOp36
 70
     1
102
RTVSPropertyOp37
 70
     1
102
RTVSPropertyOp38
 70
     1
102
RTVSPropertyOp39
 70
     1
102
RTVSPropertyOp40
 70
     1
102
RTVSPropertyOp41
 70
     1
102
RTVSPropertyOp42
 70
     1
102
RTVSPropertyOp43
 70
     1
102
RTVSPropertyOp44
 70
     1
102
RTVSPropertyOp45
 70
     1
102
RTVSPropertyOp46
 70
     1
102
RTVSPropertyOp47
 70
     1
102
RTVSPropertyOp48
 70
     1
102
RTVSPropertyOp49
 70
     1
102
RTVSPropertyOp50
 70
     1
102
RTVSPropertyOp51
 70
     0
102
RTVSPropertyOp52
 70
     0
102
RTVSPropertyOp53
 70
     1
102
RTVSPropertyOp54
 70
     1
102
RTVSPropertyOp55
 70
     1
102
RTVSPropertyOp56
 70
     1
102
RTVSPropertyOp57
 70
     1
102
RTVSPost2010Prop28
280
     0
102
RTVSPost2010PropOp28
 70
     1
102
RTVSPost2010Prop29
280
     1
102
RTVSPost2010PropOp29
 70
     1
102
RTVSPost2010Prop30
280
     1
102
RTVSPost2010PropOp30
 70
     1
102
RTVSPost2010Prop31
280
     0
102
RTVSPost2010PropOp31
 70
     1
102
RTVSPost2010Prop32
280
     0
102
RTVSPost2010PropOp32
 70
     1
102
RTVSPost2010Prop33
280
     0
102
RTVSPost2010PropOp33
 70
     1
102
RTVSPost2010Prop34
280
     0
102
RTVSPost2010PropOp34
 70
     1
102
RTVSPost2010Prop35
280
     0
102
RTVSPost2010PropOp35
 70
     1
102
RTVSPost2010Prop36
280
     0
102
RTVSPost2010PropOp36
 70
     1
102
RTVSPost2010Prop37
 90
       50
102
RTVSPost2010PropOp37
 70
     1
102
RTVSPost2010Prop38
140
0.0
102
RTVSPost2010PropOp38
 70
     1
102
RTVSPost2010Prop39
140
1.0
102
RTVSPost2010PropOp39
 70
     1
102
RTVSPost2010Prop40
 90
        0
102
RTVSPost2010PropOp40
 70
     1
102
RTVSPost2010Prop41ColorIndex
 90
       18
102
RTVSPost2010Prop41ColorRGB
 90
        0
102
RTVSPost2010PropOp41
 70
     1
102
RTVSPost2010Prop42
 90
       50
102
RTVSPost2010PropOp42
 70
     1
102
RTVSPost2010Prop43
 90
        3
102
RTVSPost2010PropOp43
 70
     1
102
RTVSPost2010Prop44ColorIndex
 90
        5
102
RTVSPost2010Prop44ColorRGB
 90
      255
102
RTVSPost2010PropOp44
 70
     1
102
RTVSPost2010Prop45
280
     0
102
RTVSPost2010PropOp45
 70
     1
102
RTVSPost2010Prop46
 90
       50
102
RTVSPost2010PropOp46
 70
     1
102
RTVSPost2010Prop47
 90
       50
102
RTVSPost2010PropOp47
 70
     1
102
RTVSPost2010Prop48
 90
       50
102
RTVSPost2010PropOp48
 70
     1
102
RTVSPost2010Prop49
280
     0
102
RTVSPost2010PropOp49
 70
     1
102
RTVSPost2010Prop50
 90
       50
102
RTVSPost2010PropOp50
 70
     1
102
RTVSPost2010Prop51ColorIndex
 90
      256
102
RTVSPost2010Prop51ColorRGB
 90
-16777216
102
RTVSPost2010PropOp51
 70
     0
102
RTVSPost2010Prop52
140
1.0
102
RTVSPost2010PropOp52
 70
     0
102
RTVSPost2010Prop53
 90
        2
102
RTVSPost2010PropOp53
 70
     1
102
RTVSPost2010Prop54
  1
strokes_ogs.tif
102
RTVSPost2010PropOp54
 70
     1
102
RTVSPost2010Prop55
280
     0
102
RTVSPost2010PropOp55
 70
     1
102
RTVSPost2010Prop56
140
1.0
102
RTVSPost2010PropOp56
 70
     1
102
RTVSPost2010Prop57
140
1.0
102
RTVSPost2010PropOp57
 70
     1
  0
XRECORD
  5
BB
102
{ACAD_REACTORS
330
BA
102
}
330
BA
100
AcDbXrecord
280
     1
102
RTVSPropertyOp0
 70
     1
102
RTVSPropertyOp1
 70
     1
102
RTVSPropertyOp2
 70
     1
102
RTVSPropertyOp3
 70
     1
102
RTVSPropertyOp4
 70
     1
102
RTVSPropertyOp5
 70
     1
102
RTVSPropertyOp6
 70
     1
102
RTVSPropertyOp7
 70
     1
102
RTVSPropertyOp8
 70
     1
102
RTVSPropertyOp9
 70
     1
102
RTVSPropertyOp10
 70
     1
102
RTVSPropertyOp11
 70
     1
102
RTVSPropertyOp12
 70
     1
102
RTVSPropertyOp13
 70
     1
102
RTVSPropertyOp14
 70
     1
102
RTVSPropertyOp15
 70
     1
102
RTVSPropertyOp16
 70
     1
102
RTVSPropertyOp17
 70
     1
102
RTVSPropertyOp18
 70
     1
102
RTVSPropertyOp19
 70
     1
102
RTVSPropertyOp20
 70
     1
102
RTVSPropertyOp21
 70
     1
102
RTVSPropertyOp22
 70
     1
102
RTVSPropertyOp23
 70
     1
102
RTVSPropertyOp24
 70
     1
102
RTVSPropertyOp25
 70
     1
102
RTVSPropertyOp26
 70
     1
102
RTVSPropertyOp27
 70
     1
102
RTVSPropertyOp28
 70
     1
102
RTVSPropertyOp29
 70
     1
102
RTVSPropertyOp30
 70
     1
102
RTVSPropertyOp31
 70
     1
102
RTVSPropertyOp32
 70
     1
102
RTVSPropertyOp33
 70
     1
102
RTVSPropertyOp34
 70
     1
102
RTVSPropertyOp35
 70
     1
102
RTVSPropertyOp36
 70
     1
102
RTVSPropertyOp37
 70
     1
102
RTVSPropertyOp38
 70
     1
102
RTVSPropertyOp39
 70
     1
102
RTVSPropertyOp40
 70
     1
102
RTVSPropertyOp41
 70
     1
102
RTVSPropertyOp42
 70
     1
102
RTVSPropertyOp43
 70
     1
102
RTVSPropertyOp44
 70
     1
102
RTVSPropertyOp45
 70
     1
102
RTVSPropertyOp46
 70
     1
102
RTVSPropertyOp47
 70
     1
102
RTVSPropertyOp48
 70
     1
102
RTVSPropertyOp49
 70
     1
102
RTVSPropertyOp50
 70
     1
102
RTVSPropertyOp51
 70
     0
102
RTVSPropertyOp52
 70
     0
102
RTVSPropertyOp53
 70
     1
102
RTVSPropertyOp54
 70
     1
102
RTVSPropertyOp55
 70
     1
102
RTVSPropertyOp56
 70
     1
102
RTVSPropertyOp57
 70
     1
102
RTVSPost2010Prop28
280
     0
102
RTVSPost2010PropOp28
 70
     1
102
RTVSPost2010Prop29
280
     1
102
RTVSPost2010PropOp29
 70
     1
102
RTVSPost2010Prop30
280
     1
102
RTVSPost2010PropOp30
 70
     1
102
RTVSPost2010Prop31
280
     0
102
RTVSPost2010PropOp31
 70
     1
102
RTVSPost2010Prop32
280
     0
102
RTVSPost2010PropOp32
 70
     1
102
RTVSPost2010Prop33
280
     0
102
RTVSPost2010PropOp33
 70
     1
102
RTVSPost2010Prop34
280
     0
102
RTVSPost2010PropOp34
 70
     1
102
RTVSPost2010Prop35
280
     0
102
RTVSPost2010PropOp35
 70
     1
102
RTVSPost2010Prop36
280
     0
102
RTVSPost2010PropOp36
 70
     1
102
RTVSPost2010Prop37
 90
       50
102
RTVSPost2010PropOp37
 70
     1
102
RTVSPost2010Prop38
140
0.0
102
RTVSPost2010PropOp38
 70
     1
102
RTVSPost2010Prop39
140
1.0
102
RTVSPost2010PropOp39
 70
     1
102
RTVSPost2010Prop40
 90
        0
102
RTVSPost2010PropOp40
 70
     1
102
RTVSPost2010Prop41ColorIndex
 90
       18
102
RTVSPost2010Prop41ColorRGB
 90
        0
102
RTVSPost2010PropOp41
 70
     1
102
RTVSPost2010Prop42
 90
       50
102
RTVSPost2010PropOp42
 70
     1
102
RTVSPost2010Prop43
 90
        3
102
RTVSPost2010PropOp43
 70
     1
102
RTVSPost2010Prop44ColorIndex
 90
        5
102
RTVSPost2010Prop44ColorRGB
 90
      255
102
RTVSPost2010PropOp44
 70
     1
102
RTVSPost2010Prop45
280
     0
102
RTVSPost2010PropOp45
 70
     1
102
RTVSPost2010Prop46
 90
       50
102
RTVSPost2010PropOp46
 70
     1
102
RTVSPost2010Prop47
 90
       50
102
RTVSPost2010PropOp47
 70
     1
102
RTVSPost2010Prop48
 90
       50
102
RTVSPost2010PropOp48
 70
     1
102
RTVSPost2010Prop49
280
     0
102
RTVSPost2010PropOp49
 70
     1
102
RTVSPost2010Prop50
 90
       50
102
RTVSPost2010PropOp50
 70
     1
102
RTVSPost2010Prop51ColorIndex
 90
      256
102
RTVSPost2010Prop51ColorRGB
 90
-16777216
102
RTVSPost2010PropOp51
 70
     0
102
RTVSPost2010Prop52
140
1.0
102
RTVSPost2010PropOp52
 70
     0
102
RTVSPost2010Prop53
 90
        2
102
RTVSPost2010PropOp53
 70
     1
102
RTVSPost2010Prop54
  1
strokes_ogs.tif
102
RTVSPost2010PropOp54
 70
     1
102
RTVSPost2010Prop55
280
     0
102
RTVSPost2010PropOp55
 70
     1
102
RTVSPost2010Prop56
140
1.0
102
RTVSPost2010PropOp56
 70
     1
102
RTVSPost2010Prop57
140
1.0
102
RTVSPost2010PropOp57
 70
     1
  0
XRECORD
  5
BD
102
{ACAD_REACTORS
330
BC
102
}
330
BC
100
AcDbXrecord
280
     1
102
RTVSPropertyOp0
 70
     1
102
RTVSPropertyOp1
 70
     1
102
RTVSPropertyOp2
 70
     1
102
RTVSPropertyOp3
 70
     1
102
RTVSPropertyOp4
 70
     1
102
RTVSPropertyOp5
 70
     1
102
RTVSPropertyOp6
 70
     1
102
RTVSPropertyOp7
 70
     1
102
RTVSPropertyOp8
 70
     1
102
RTVSPropertyOp9
 70
     1
102
RTVSPropertyOp10
 70
     1
102
RTVSPropertyOp11
 70
     1
102
RTVSPropertyOp12
 70
     1
102
RTVSPropertyOp13
 70
     1
102
RTVSPropertyOp14
 70
     1
102
RTVSPropertyOp15
 70
     1
102
RTVSPropertyOp16
 70
     1
102
RTVSPropertyOp17
 70
     1
102
RTVSPropertyOp18
 70
     1
102
RTVSPropertyOp19
 70
     1
102
RTVSPropertyOp20
 70
     1
102
RTVSPropertyOp21
 70
     1
102
RTVSPropertyOp22
 70
     1
102
RTVSPropertyOp23
 70
     1
102
RTVSPropertyOp24
 70
     1
102
RTVSPropertyOp25
 70
     1
102
RTVSPropertyOp26
 70
     1
102
RTVSPropertyOp27
 70
     1
102
RTVSPropertyOp28
 70
     1
102
RTVSPropertyOp29
 70
     1
102
RTVSPropertyOp30
 70
     1
102
RTVSPropertyOp31
 70
     1
102
RTVSPropertyOp32
 70
     1
102
RTVSPropertyOp33
 70
     1
102
RTVSPropertyOp34
 70
     1
102
RTVSPropertyOp35
 70
     1
102
RTVSPropertyOp36
 70
     1
102
RTVSPropertyOp37
 70
     1
102
RTVSPropertyOp38
 70
     1
102
RTVSPropertyOp39
 70
     1
102
RTVSPropertyOp40
 70
     1
102
RTVSPropertyOp41
 70
     1
102
RTVSPropertyOp42
 70
     1
102
RTVSPropertyOp43
 70
     1
102
RTVSPropertyOp44
 70
     1
102
RTVSPropertyOp45
 70
     1
102
RTVSPropertyOp46
 70
     1
102
RTVSPropertyOp47
 70
     1
102
RTVSPropertyOp48
 70
     1
102
RTVSPropertyOp49
 70
     1
102
RTVSPropertyOp50
 70
     1
102
RTVSPropertyOp51
 70
     0
102
RTVSPropertyOp52
 70
     0
102
RTVSPropertyOp53
 70
     1
102
RTVSPropertyOp54
 70
     1
102
RTVSPropertyOp55
 70
     1
102
RTVSPropertyOp56
 70
     1
102
RTVSPropertyOp57
 70
     1
102
RTVSPost2010Prop28
280
     0
102
RTVSPost2010PropOp28
 70
     1
102
RTVSPost2010Prop29
280
     1
102
RTVSPost2010PropOp29
 70
     1
102
RTVSPost2010Prop30
280
     1
102
RTVSPost2010PropOp30
 70
     1
102
RTVSPost2010Prop31
280
     0
102
RTVSPost2010PropOp31
 70
     1
102
RTVSPost2010Prop32
280
     0
102
RTVSPost2010PropOp32
 70
     1
102
RTVSPost2010Prop33
280
     0
102
RTVSPost2010PropOp33
 70
     1
102
RTVSPost2010Prop34
280
     0
102
RTVSPost2010PropOp34
 70
     1
102
RTVSPost2010Prop35
280
     0
102
RTVSPost2010PropOp35
 70
     1
102
RTVSPost2010Prop36
280
     0
102
RTVSPost2010PropOp36
 70
     1
102
RTVSPost2010Prop37
 90
       50
102
RTVSPost2010PropOp37
 70
     1
102
RTVSPost2010Prop38
140
0.0
102
RTVSPost2010PropOp38
 70
     1
102
RTVSPost2010Prop39
140
1.0
102
RTVSPost2010PropOp39
 70
     1
102
RTVSPost2010Prop40
 90
        0
102
RTVSPost2010PropOp40
 70
     1
102
RTVSPost2010Prop41ColorIndex
 90
       18
102
RTVSPost2010Prop41ColorRGB
 90
        0
102
RTVSPost2010PropOp41
 70
     1
102
RTVSPost2010Prop42
 90
       50
102
RTVSPost2010PropOp42
 70
     1
102
RTVSPost2010Prop43
 90
        3
102
RTVSPost2010PropOp43
 70
     1
102
RTVSPost2010Prop44ColorIndex
 90
        5
102
RTVSPost2010Prop44ColorRGB
 90
      255
102
RTVSPost2010PropOp44
 70
     1
102
RTVSPost2010Prop45
280
     0
102
RTVSPost2010PropOp45
 70
     1
102
RTVSPost2010Prop46
 90
       50
102
RTVSPost2010PropOp46
 70
     1
102
RTVSPost2010Prop47
 90
       50
102
RTVSPost2010PropOp47
 70
     1
102
RTVSPost2010Prop48
 90
       50
102
RTVSPost2010PropOp48
 70
     1
102
RTVSPost2010Prop49
280
     0
102
RTVSPost2010PropOp49
 70
     1
102
RTVSPost2010Prop50
 90
       50
102
RTVSPost2010PropOp50
 70
     1
102
RTVSPost2010Prop51ColorIndex
 90
      256
102
RTVSPost2010Prop51ColorRGB
 90
-16777216
102
RTVSPost2010PropOp51
 70
     0
102
RTVSPost2010Prop52
140
1.0
102
RTVSPost2010PropOp52
 70
     0
102
RTVSPost2010Prop53
 90
        2
102
RTVSPost2010PropOp53
 70
     1
102
RTVSPost2010Prop54
  1
strokes_ogs.tif
102
RTVSPost2010PropOp54
 70
     1
102
RTVSPost2010Prop55
280
     0
102
RTVSPost2010PropOp55
 70
     1
102
RTVSPost2010Prop56
140
1.0
102
RTVSPost2010PropOp56
 70
     1
102
RTVSPost2010Prop57
140
1.0
102
RTVSPost2010PropOp57
 70
     1
  0
XRECORD
  5
BF
102
{ACAD_REACTORS
330
BE
102
}
330
BE
100
AcDbXrecord
280
     1
102
RTVSPropertyOp0
 70
     1
102
RTVSPropertyOp1
 70
     1
102
RTVSPropertyOp2
 70
     1
102
RTVSPropertyOp3
 70
     1
102
RTVSPropertyOp4
 70
     1
102
RTVSPropertyOp5
 70
     1
102
RTVSPropertyOp6
 70
     1
102
RTVSPropertyOp7
 70
     1
102
RTVSPropertyOp8
 70
     1
102
RTVSPropertyOp9
 70
     1
102
RTVSPropertyOp10
 70
     1
102
RTVSPropertyOp11
 70
     1
102
RTVSPropertyOp12
 70
     1
102
RTVSPropertyOp13
 70
     1
102
RTVSPropertyOp14
 70
     1
102
RTVSPropertyOp15
 70
     1
102
RTVSPropertyOp16
 70
     1
102
RTVSPropertyOp17
 70
     1
102
RTVSPropertyOp18
 70
     1
102
RTVSPropertyOp19
 70
     1
102
RTVSPropertyOp20
 70
     1
102
RTVSPropertyOp21
 70
     1
102
RTVSPropertyOp22
 70
     1
102
RTVSPropertyOp23
 70
     1
102
RTVSPropertyOp24
 70
     1
102
RTVSPropertyOp25
 70
     1
102
RTVSPropertyOp26
 70
     1
102
RTVSPropertyOp27
 70
     1
102
RTVSPropertyOp28
 70
     1
102
RTVSPropertyOp29
 70
     1
102
RTVSPropertyOp30
 70
     1
102
RTVSPropertyOp31
 70
     1
102
RTVSPropertyOp32
 70
     1
102
RTVSPropertyOp33
 70
     1
102
RTVSPropertyOp34
 70
     1
102
RTVSPropertyOp35
 70
     1
102
RTVSPropertyOp36
 70
     1
102
RTVSPropertyOp37
 70
     1
102
RTVSPropertyOp38
 70
     1
102
RTVSPropertyOp39
 70
     1
102
RTVSPropertyOp40
 70
     1
102
RTVSPropertyOp41
 70
     1
102
RTVSPropertyOp42
 70
     1
102
RTVSPropertyOp43
 70
     1
102
RTVSPropertyOp44
 70
     1
102
RTVSPropertyOp45
 70
     1
102
RTVSPropertyOp46
 70
     1
102
RTVSPropertyOp47
 70
     1
102
RTVSPropertyOp48
 70
     1
102
RTVSPropertyOp49
 70
     1
102
RTVSPropertyOp50
 70
     1
102
RTVSPropertyOp51
 70
     0
102
RTVSPropertyOp52
 70
     0
102
RTVSPropertyOp53
 70
     1
102
RTVSPropertyOp54
 70
     1
102
RTVSPropertyOp55
 70
     1
102
RTVSPropertyOp56
 70
     1
102
RTVSPropertyOp57
 70
     1
102
RTVSPost2010Prop28
280
     0
102
RTVSPost2010PropOp28
 70
     1
102
RTVSPost2010Prop29
280
     1
102
RTVSPost2010PropOp29
 70
     1
102
RTVSPost2010Prop30
280
     1
102
RTVSPost2010PropOp30
 70
     1
102
RTVSPost2010Prop31
280
     0
102
RTVSPost2010PropOp31
 70
     1
102
RTVSPost2010Prop32
280
     0
102
RTVSPost2010PropOp32
 70
     1
102
RTVSPost2010Prop33
280
     0
102
RTVSPost2010PropOp33
 70
     1
102
RTVSPost2010Prop34
280
     0
102
RTVSPost2010PropOp34
 70
     1
102
RTVSPost2010Prop35
280
     0
102
RTVSPost2010PropOp35
 70
     1
102
RTVSPost2010Prop36
280
     0
102
RTVSPost2010PropOp36
 70
     1
102
RTVSPost2010Prop37
 90
       50
102
RTVSPost2010PropOp37
 70
     1
102
RTVSPost2010Prop38
140
0.0
102
RTVSPost2010PropOp38
 70
     1
102
RTVSPost2010Prop39
140
1.0
102
RTVSPost2010PropOp39
 70
     1
102
RTVSPost2010Prop40
 90
        0
102
RTVSPost2010PropOp40
 70
     1
102
RTVSPost2010Prop41ColorIndex
 90
       18
102
RTVSPost2010Prop41ColorRGB
 90
        0
102
RTVSPost2010PropOp41
 70
     1
102
RTVSPost2010Prop42
 90
       50
102
RTVSPost2010PropOp42
 70
     1
102
RTVSPost2010Prop43
 90
        3
102
RTVSPost2010PropOp43
 70
     1
102
RTVSPost2010Prop44ColorIndex
 90
        5
102
RTVSPost2010Prop44ColorRGB
 90
      255
102
RTVSPost2010PropOp44
 70
     1
102
RTVSPost2010Prop45
280
     0
102
RTVSPost2010PropOp45
 70
     1
102
RTVSPost2010Prop46
 90
       50
102
RTVSPost2010PropOp46
 70
     1
102
RTVSPost2010Prop47
 90
       50
102
RTVSPost2010PropOp47
 70
     1
102
RTVSPost2010Prop48
 90
       50
102
RTVSPost2010PropOp48
 70
     1
102
RTVSPost2010Prop49
280
     0
102
RTVSPost2010PropOp49
 70
     1
102
RTVSPost2010Prop50
 90
       50
102
RTVSPost2010PropOp50
 70
     1
102
RTVSPost2010Prop51ColorIndex
 90
      256
102
RTVSPost2010Prop51ColorRGB
 90
-16777216
102
RTVSPost2010PropOp51
 70
     0
102
RTVSPost2010Prop52
140
1.0
102
RTVSPost2010PropOp52
 70
     0
102
RTVSPost2010Prop53
 90
        2
102
RTVSPost2010PropOp53
 70
     1
102
RTVSPost2010Prop54
  1
strokes_ogs.tif
102
RTVSPost2010PropOp54
 70
     1
102
RTVSPost2010Prop55
280
     0
102
RTVSPost2010PropOp55
 70
     1
102
RTVSPost2010Prop56
140
1.0
102
RTVSPost2010PropOp56
 70
     1
102
RTVSPost2010Prop57
140
1.0
102
RTVSPost2010PropOp57
 70
     1
  0
XRECORD
  5
C1
102
{ACAD_REACTORS
330
C0
102
}
330
C0
100
AcDbXrecord
280
     1
102
RTVSPropertyOp0
 70
     1
102
RTVSPropertyOp1
 70
     1
102
RTVSPropertyOp2
 70
     1
102
RTVSPropertyOp3
 70
     1
102
RTVSPropertyOp4
 70
     1
102
RTVSPropertyOp5
 70
     1
102
RTVSPropertyOp6
 70
     1
102
RTVSPropertyOp7
 70
     1
102
RTVSPropertyOp8
 70
     1
102
RTVSPropertyOp9
 70
     1
102
RTVSPropertyOp10
 70
     1
102
RTVSPropertyOp11
 70
     1
102
RTVSPropertyOp12
 70
     1
102
RTVSPropertyOp13
 70
     1
102
RTVSPropertyOp14
 70
     1
102
RTVSPropertyOp15
 70
     1
102
RTVSPropertyOp16
 70
     1
102
RTVSPropertyOp17
 70
     1
102
RTVSPropertyOp18
 70
     1
102
RTVSPropertyOp19
 70
     1
102
RTVSPropertyOp20
 70
     1
102
RTVSPropertyOp21
 70
     1
102
RTVSPropertyOp22
 70
     1
102
RTVSPropertyOp23
 70
     1
102
RTVSPropertyOp24
 70
     1
102
RTVSPropertyOp25
 70
     1
102
RTVSPropertyOp26
 70
     1
102
RTVSPropertyOp27
 70
     1
102
RTVSPropertyOp28
 70
     1
102
RTVSPropertyOp29
 70
     1
102
RTVSPropertyOp30
 70
     1
102
RTVSPropertyOp31
 70
     1
102
RTVSPropertyOp32
 70
     1
102
RTVSPropertyOp33
 70
     1
102
RTVSPropertyOp34
 70
     1
102
RTVSPropertyOp35
 70
     1
102
RTVSPropertyOp36
 70
     1
102
RTVSPropertyOp37
 70
     1
102
RTVSPropertyOp38
 70
     1
102
RTVSPropertyOp39
 70
     1
102
RTVSPropertyOp40
 70
     1
102
RTVSPropertyOp41
 70
     1
102
RTVSPropertyOp42
 70
     1
102
RTVSPropertyOp43
 70
     1
102
RTVSPropertyOp44
 70
     1
102
RTVSPropertyOp45
 70
     1
102
RTVSPropertyOp46
 70
     1
102
RTVSPropertyOp47
 70
     1
102
RTVSPropertyOp48
 70
     1
102
RTVSPropertyOp49
 70
     1
102
RTVSPropertyOp50
 70
     1
102
RTVSPropertyOp51
 70
     0
102
RTVSPropertyOp52
 70
     0
102
RTVSPropertyOp53
 70
     1
102
RTVSPropertyOp54
 70
     1
102
RTVSPropertyOp55
 70
     1
102
RTVSPropertyOp56
 70
     1
102
RTVSPropertyOp57
 70
     1
102
RTVSPost2010Prop28
280
     0
102
RTVSPost2010PropOp28
 70
     1
102
RTVSPost2010Prop29
280
     1
102
RTVSPost2010PropOp29
 70
     1
102
RTVSPost2010Prop30
280
     1
102
RTVSPost2010PropOp30
 70
     1
102
RTVSPost2010Prop31
280
     0
102
RTVSPost2010PropOp31
 70
     1
102
RTVSPost2010Prop32
280
     0
102
RTVSPost2010PropOp32
 70
     1
102
RTVSPost2010Prop33
280
     0
102
RTVSPost2010PropOp33
 70
     1
102
RTVSPost2010Prop34
280
     0
102
RTVSPost2010PropOp34
 70
     1
102
RTVSPost2010Prop35
280
     0
102
RTVSPost2010PropOp35
 70
     1
102
RTVSPost2010Prop36
280
     0
102
RTVSPost2010PropOp36
 70
     1
102
RTVSPost2010Prop37
 90
       50
102
RTVSPost2010PropOp37
 70
     1
102
RTVSPost2010Prop38
140
0.0
102
RTVSPost2010PropOp38
 70
     1
102
RTVSPost2010Prop39
140
1.0
102
RTVSPost2010PropOp39
 70
     1
102
RTVSPost2010Prop40
 90
        0
102
RTVSPost2010PropOp40
 70
     1
102
RTVSPost2010Prop41ColorIndex
 90
       18
102
RTVSPost2010Prop41ColorRGB
 90
        0
102
RTVSPost2010PropOp41
 70
     1
102
RTVSPost2010Prop42
 90
       50
102
RTVSPost2010PropOp42
 70
     1
102
RTVSPost2010Prop43
 90
        3
102
RTVSPost2010PropOp43
 70
     1
102
RTVSPost2010Prop44ColorIndex
 90
        5
102
RTVSPost2010Prop44ColorRGB
 90
      255
102
RTVSPost2010PropOp44
 70
     1
102
RTVSPost2010Prop45
280
     0
102
RTVSPost2010PropOp45
 70
     1
102
RTVSPost2010Prop46
 90
       50
102
RTVSPost2010PropOp46
 70
     1
102
RTVSPost2010Prop47
 90
       50
102
RTVSPost2010PropOp47
 70
     1
102
RTVSPost2010Prop48
 90
       50
102
RTVSPost2010PropOp48
 70
     1
102
RTVSPost2010Prop49
280
     0
102
RTVSPost2010PropOp49
 70
     1
102
RTVSPost2010Prop50
 90
       50
102
RTVSPost2010PropOp50
 70
     1
102
RTVSPost2010Prop51ColorIndex
 90
      256
102
RTVSPost2010Prop51ColorRGB
 90
-16777216
102
RTVSPost2010PropOp51
 70
     0
102
RTVSPost2010Prop52
140
1.0
102
RTVSPost2010PropOp52
 70
     0
102
RTVSPost2010Prop53
 90
        2
102
RTVSPost2010PropOp53
 70
     1
102
RTVSPost2010Prop54
  1
strokes_ogs.tif
102
RTVSPost2010PropOp54
 70
     1
102
RTVSPost2010Prop55
280
     0
102
RTVSPost2010PropOp55
 70
     1
102
RTVSPost2010Prop56
140
1.0
102
RTVSPost2010PropOp56
 70
     1
102
RTVSPost2010Prop57
140
1.0
102
RTVSPost2010PropOp57
 70
     1
  0
XRECORD
  5
C5
102
{ACAD_REACTORS
330
C4
102
}
330
C4
100
AcDbXrecord
280
     1
102
RTVSPropertyOp0
 70
     1
102
RTVSPropertyOp1
 70
     1
102
RTVSPropertyOp2
 70
     1
102
RTVSPropertyOp3
 70
     1
102
RTVSPropertyOp4
 70
     1
102
RTVSPropertyOp5
 70
     1
102
RTVSPropertyOp6
 70
     1
102
RTVSPropertyOp7
 70
     1
102
RTVSPropertyOp8
 70
     1
102
RTVSPropertyOp9
 70
     1
102
RTVSPropertyOp10
 70
     1
102
RTVSPropertyOp11
 70
     1
102
RTVSPropertyOp12
 70
     1
102
RTVSPropertyOp13
 70
     1
102
RTVSPropertyOp14
 70
     1
102
RTVSPropertyOp15
 70
     1
102
RTVSPropertyOp16
 70
     1
102
RTVSPropertyOp17
 70
     1
102
RTVSPropertyOp18
 70
     1
102
RTVSPropertyOp19
 70
     1
102
RTVSPropertyOp20
 70
     1
102
RTVSPropertyOp21
 70
     1
102
RTVSPropertyOp22
 70
     1
102
RTVSPropertyOp23
 70
     1
102
RTVSPropertyOp24
 70
     1
102
RTVSPropertyOp25
 70
     1
102
RTVSPropertyOp26
 70
     1
102
RTVSPropertyOp27
 70
     1
102
RTVSPropertyOp28
 70
     1
102
RTVSPropertyOp29
 70
     1
102
RTVSPropertyOp30
 70
     1
102
RTVSPropertyOp31
 70
     1
102
RTVSPropertyOp32
 70
     1
102
RTVSPropertyOp33
 70
     1
102
RTVSPropertyOp34
 70
     1
102
RTVSPropertyOp35
 70
     1
102
RTVSPropertyOp36
 70
     1
102
RTVSPropertyOp37
 70
     1
102
RTVSPropertyOp38
 70
     1
102
RTVSPropertyOp39
 70
     1
102
RTVSPropertyOp40
 70
     1
102
RTVSPropertyOp41
 70
     1
102
RTVSPropertyOp42
 70
     1
102
RTVSPropertyOp43
 70
     1
102
RTVSPropertyOp44
 70
     1
102
RTVSPropertyOp45
 70
     1
102
RTVSPropertyOp46
 70
     1
102
RTVSPropertyOp47
 70
     1
102
RTVSPropertyOp48
 70
     1
102
RTVSPropertyOp49
 70
     1
102
RTVSPropertyOp50
 70
     1
102
RTVSPropertyOp51
 70
     0
102
RTVSPropertyOp52
 70
     0
102
RTVSPropertyOp53
 70
     1
102
RTVSPropertyOp54
 70
     1
102
RTVSPropertyOp55
 70
     1
102
RTVSPropertyOp56
 70
     1
102
RTVSPropertyOp57
 70
     1
102
RTVSPost2010Prop28
280
     0
102
RTVSPost2010PropOp28
 70
     1
102
RTVSPost2010Prop29
280
     1
102
RTVSPost2010PropOp29
 70
     1
102
RTVSPost2010Prop30
280
     1
102
RTVSPost2010PropOp30
 70
     1
102
RTVSPost2010Prop31
280
     0
102
RTVSPost2010PropOp31
 70
     1
102
RTVSPost2010Prop32
280
     0
102
RTVSPost2010PropOp32
 70
     1
102
RTVSPost2010Prop33
280
     0
102
RTVSPost2010PropOp33
 70
     1
102
RTVSPost2010Prop34
280
     0
102
RTVSPost2010PropOp34
 70
     1
102
RTVSPost2010Prop35
280
     0
102
RTVSPost2010PropOp35
 70
     1
102
RTVSPost2010Prop36
280
     0
102
RTVSPost2010PropOp36
 70
     1
102
RTVSPost2010Prop37
 90
       50
102
RTVSPost2010PropOp37
 70
     1
102
RTVSPost2010Prop38
140
0.0
102
RTVSPost2010PropOp38
 70
     1
102
RTVSPost2010Prop39
140
1.0
102
RTVSPost2010PropOp39
 70
     1
102
RTVSPost2010Prop40
 90
        0
102
RTVSPost2010PropOp40
 70
     1
102
RTVSPost2010Prop41ColorIndex
 90
       18
102
RTVSPost2010Prop41ColorRGB
 90
        0
102
RTVSPost2010PropOp41
 70
     1
102
RTVSPost2010Prop42
 90
       50
102
RTVSPost2010PropOp42
 70
     1
102
RTVSPost2010Prop43
 90
        3
102
RTVSPost2010PropOp43
 70
     1
102
RTVSPost2010Prop44ColorIndex
 90
        5
102
RTVSPost2010Prop44ColorRGB
 90
      255
102
RTVSPost2010PropOp44
 70
     1
102
RTVSPost2010Prop45
280
     0
102
RTVSPost2010PropOp45
 70
     1
102
RTVSPost2010Prop46
 90
       50
102
RTVSPost2010PropOp46
 70
     1
102
RTVSPost2010Prop47
 90
       50
102
RTVSPost2010PropOp47
 70
     1
102
RTVSPost2010Prop48
 90
       50
102
RTVSPost2010PropOp48
 70
     1
102
RTVSPost2010Prop49
280
     0
102
RTVSPost2010PropOp49
 70
     1
102
RTVSPost2010Prop50
 90
       50
102
RTVSPost2010PropOp50
 70
     1
102
RTVSPost2010Prop51ColorIndex
 90
      256
102
RTVSPost2010Prop51ColorRGB
 90
-16777216
102
RTVSPost2010PropOp51
 70
     0
102
RTVSPost2010Prop52
140
1.0
102
RTVSPost2010PropOp52
 70
     0
102
RTVSPost2010Prop53
 90
        2
102
RTVSPost2010PropOp53
 70
     1
102
RTVSPost2010Prop54
  1
strokes_ogs.tif
102
RTVSPost2010PropOp54
 70
     1
102
RTVSPost2010Prop55
280
     0
102
RTVSPost2010PropOp55
 70
     1
102
RTVSPost2010Prop56
140
1.0
102
RTVSPost2010PropOp56
 70
     1
102
RTVSPost2010Prop57
140
1.0
102
RTVSPost2010PropOp57
 70
     1
  0
XRECORD
  5
D9
102
{ACAD_REACTORS
330
D8
102
}
330
D8
100
AcDbXrecord
280
     1
102
RTVSPropertyOp0
 70
     0
102
RTVSPropertyOp1
 70
     0
102
RTVSPropertyOp2
 70
     0
102
RTVSPropertyOp3
 70
     0
102
RTVSPropertyOp4
 70
     0
102
RTVSPropertyOp5
 70
     0
102
RTVSPropertyOp6
 70
     0
102
RTVSPropertyOp7
 70
     0
102
RTVSPropertyOp8
 70
     0
102
RTVSPropertyOp9
 70
     0
102
RTVSPropertyOp10
 70
     0
102
RTVSPropertyOp11
 70
     0
102
RTVSPropertyOp12
 70
     0
102
RTVSPropertyOp13
 70
     0
102
RTVSPropertyOp14
 70
     2
102
RTVSPropertyOp15
 70
     0
102
RTVSPropertyOp16
 70
     0
102
RTVSPropertyOp17
 70
     0
102
RTVSPropertyOp18
 70
     0
102
RTVSPropertyOp19
 70
     0
102
RTVSPropertyOp20
 70
     0
102
RTVSPropertyOp21
 70
     0
102
RTVSPropertyOp22
 70
     0
102
RTVSPropertyOp23
 70
     0
102
RTVSPropertyOp24
 70
     0
102
RTVSPropertyOp25
 70
     0
102
RTVSPropertyOp26
 70
     0
102
RTVSPropertyOp27
 70
     0
102
RTVSPropertyOp28
 70
     0
102
RTVSPropertyOp29
 70
     0
102
RTVSPropertyOp30
 70
     0
102
RTVSPropertyOp31
 70
     0
102
RTVSPropertyOp32
 70
     0
102
RTVSPropertyOp33
 70
     0
102
RTVSPropertyOp34
 70
     0
102
RTVSPropertyOp35
 70
     0
102
RTVSPropertyOp36
 70
     0
102
RTVSPropertyOp37
 70
     0
102
RTVSPropertyOp38
 70
     0
102
RTVSPropertyOp39
 70
     0
102
RTVSPropertyOp40
 70
     0
102
RTVSPropertyOp41
 70
     0
102
RTVSPropertyOp42
 70
     0
102
RTVSPropertyOp43
 70
     0
102
RTVSPropertyOp44
 70
     0
102
RTVSPropertyOp45
 70
     0
102
RTVSPropertyOp46
 70
     0
102
RTVSPropertyOp47
 70
     0
102
RTVSPropertyOp48
 70
     0
102
RTVSPropertyOp49
 70
     0
102
RTVSPropertyOp50
 70
     0
102
RTVSPropertyOp51
 70
     0
102
RTVSPropertyOp52
 70
     0
102
RTVSPropertyOp53
 70
     0
102
RTVSPropertyOp54
 70
     0
102
RTVSPropertyOp55
 70
     0
102
RTVSPropertyOp56
 70
     0
102
RTVSPropertyOp57
 70
     0
102
RTVSPost2010Prop28
280
     0
102
RTVSPost2010PropOp28
 70
     0
102
RTVSPost2010Prop29
280
     1
102
RTVSPost2010PropOp29
 70
     0
102
RTVSPost2010Prop30
280
     1
102
RTVSPost2010PropOp30
 70
     0
102
RTVSPost2010Prop31
280
     0
102
RTVSPost2010PropOp31
 70
     0
102
RTVSPost2010Prop32
280
     0
102
RTVSPost2010PropOp32
 70
     0
102
RTVSPost2010Prop33
280
     0
102
RTVSPost2010PropOp33
 70
     0
102
RTVSPost2010Prop34
280
     0
102
RTVSPost2010PropOp34
 70
     0
102
RTVSPost2010Prop35
280
     0
102
RTVSPost2010PropOp35
 70
     0
102
RTVSPost2010Prop36
280
     0
102
RTVSPost2010PropOp36
 70
     0
102
RTVSPost2010Prop37
 90
       50
102
RTVSPost2010PropOp37
 70
     0
102
RTVSPost2010Prop38
140
0.0
102
RTVSPost2010PropOp38
 70
     0
102
RTVSPost2010Prop39
140
1.0
102
RTVSPost2010PropOp39
 70
     0
102
RTVSPost2010Prop40
 90
        0
102
RTVSPost2010PropOp40
 70
     0
102
RTVSPost2010Prop41ColorIndex
 90
       18
102
RTVSPost2010Prop41ColorRGB
 90
        0
102
RTVSPost2010PropOp41
 70
     0
102
RTVSPost2010Prop42
 90
       50
102
RTVSPost2010PropOp42
 70
     0
102
RTVSPost2010Prop43
 90
        3
102
RTVSPost2010PropOp43
 70
     0
102
RTVSPost2010Prop44ColorIndex
 90
        5
102
RTVSPost2010Prop44ColorRGB
 90
      255
102
RTVSPost2010PropOp44
 70
     0
102
RTVSPost2010Prop45
280
     0
102
RTVSPost2010PropOp45
 70
     0
102
RTVSPost2010Prop46
 90
       50
102
RTVSPost2010PropOp46
 70
     0
102
RTVSPost2010Prop47
 90
       50
102
RTVSPost2010PropOp47
 70
     0
102
RTVSPost2010Prop48
 90
       50
102
RTVSPost2010PropOp48
 70
     0
102
RTVSPost2010Prop49
280
     0
102
RTVSPost2010PropOp49
 70
     0
102
RTVSPost2010Prop50
 90
       50
102
RTVSPost2010PropOp50
 70
     0
102
RTVSPost2010Prop51ColorIndex
 90
      256
102
RTVSPost2010Prop51ColorRGB
 90
-16777216
102
RTVSPost2010PropOp51
 70
     0
102
RTVSPost2010Prop52
140
1.0
102
RTVSPost2010PropOp52
 70
     0
102
RTVSPost2010Prop53
 90
        2
102
RTVSPost2010PropOp53
 70
     0
102
RTVSPost2010Prop54
  1
strokes_ogs.tif
102
RTVSPost2010PropOp54
 70
     0
102
RTVSPost2010Prop55
280
     0
102
RTVSPost2010PropOp55
 70
     0
102
RTVSPost2010Prop56
140
1.0
102
RTVSPost2010PropOp56
 70
     0
102
RTVSPost2010Prop57
140
1.0
102
RTVSPost2010PropOp57
 70
     0
  0
XRECORD
  5
D3
102
{ACAD_REACTORS
330
D2
102
}
330
D2
100
AcDbXrecord
280
     1
102
RTVSPropertyOp0
 70
     1
102
RTVSPropertyOp1
 70
     1
102
RTVSPropertyOp2
 70
     1
102
RTVSPropertyOp3
 70
     1
102
RTVSPropertyOp4
 70
     1
102
RTVSPropertyOp5
 70
     1
102
RTVSPropertyOp6
 70
     1
102
RTVSPropertyOp7
 70
     1
102
RTVSPropertyOp8
 70
     1
102
RTVSPropertyOp9
 70
     1
102
RTVSPropertyOp10
 70
     1
102
RTVSPropertyOp11
 70
     1
102
RTVSPropertyOp12
 70
     1
102
RTVSPropertyOp13
 70
     1
102
RTVSPropertyOp14
 70
     1
102
RTVSPropertyOp15
 70
     1
102
RTVSPropertyOp16
 70
     1
102
RTVSPropertyOp17
 70
     1
102
RTVSPropertyOp18
 70
     1
102
RTVSPropertyOp19
 70
     1
102
RTVSPropertyOp20
 70
     1
102
RTVSPropertyOp21
 70
     1
102
RTVSPropertyOp22
 70
     1
102
RTVSPropertyOp23
 70
     1
102
RTVSPropertyOp24
 70
     1
102
RTVSPropertyOp25
 70
     1
102
RTVSPropertyOp26
 70
     1
102
RTVSPropertyOp27
 70
     1
102
RTVSPropertyOp28
 70
     1
102
RTVSPropertyOp29
 70
     1
102
RTVSPropertyOp30
 70
     1
102
RTVSPropertyOp31
 70
     1
102
RTVSPropertyOp32
 70
     1
102
RTVSPropertyOp33
 70
     1
102
RTVSPropertyOp34
 70
     1
102
RTVSPropertyOp35
 70
     1
102
RTVSPropertyOp36
 70
     1
102
RTVSPropertyOp37
 70
     1
102
RTVSPropertyOp38
 70
     1
102
RTVSPropertyOp39
 70
     1
102
RTVSPropertyOp40
 70
     1
102
RTVSPropertyOp41
 70
     1
102
RTVSPropertyOp42
 70
     1
102
RTVSPropertyOp43
 70
     1
102
RTVSPropertyOp44
 70
     1
102
RTVSPropertyOp45
 70
     1
102
RTVSPropertyOp46
 70
     1
102
RTVSPropertyOp47
 70
     1
102
RTVSPropertyOp48
 70
     1
102
RTVSPropertyOp49
 70
     1
102
RTVSPropertyOp50
 70
     1
102
RTVSPropertyOp51
 70
     0
102
RTVSPropertyOp52
 70
     0
102
RTVSPropertyOp53
 70
     1
102
RTVSPropertyOp54
 70
     1
102
RTVSPropertyOp55
 70
     1
102
RTVSPropertyOp56
 70
     1
102
RTVSPropertyOp57
 70
     1
102
RTVSPost2010Prop28
280
     0
102
RTVSPost2010PropOp28
 70
     1
102
RTVSPost2010Prop29
280
     1
102
RTVSPost2010PropOp29
 70
     1
102
RTVSPost2010Prop30
280
     1
102
RTVSPost2010PropOp30
 70
     1
102
RTVSPost2010Prop31
280
     0
102
RTVSPost2010PropOp31
 70
     1
102
RTVSPost2010Prop32
280
     0
102
RTVSPost2010PropOp32
 70
     1
102
RTVSPost2010Prop33
280
     0
102
RTVSPost2010PropOp33
 70
     1
102
RTVSPost2010Prop34
280
     0
102
RTVSPost2010PropOp34
 70
     1
102
RTVSPost2010Prop35
280
     0
102
RTVSPost2010PropOp35
 70
     1
102
RTVSPost2010Prop36
280
     0
102
RTVSPost2010PropOp36
 70
     1
102
RTVSPost2010Prop37
 90
       50
102
RTVSPost2010PropOp37
 70
     1
102
RTVSPost2010Prop38
140
0.0
102
RTVSPost2010PropOp38
 70
     1
102
RTVSPost2010Prop39
140
1.0
102
RTVSPost2010PropOp39
 70
     1
102
RTVSPost2010Prop40
 90
        0
102
RTVSPost2010PropOp40
 70
     1
102
RTVSPost2010Prop41ColorIndex
 90
       18
102
RTVSPost2010Prop41ColorRGB
 90
        0
102
RTVSPost2010PropOp41
 70
     1
102
RTVSPost2010Prop42
 90
       50
102
RTVSPost2010PropOp42
 70
     1
102
RTVSPost2010Prop43
 90
        3
102
RTVSPost2010PropOp43
 70
     1
102
RTVSPost2010Prop44ColorIndex
 90
        5
102
RTVSPost2010Prop44ColorRGB
 90
      255
102
RTVSPost2010PropOp44
 70
     1
102
RTVSPost2010Prop45
280
     0
102
RTVSPost2010PropOp45
 70
     1
102
RTVSPost2010Prop46
 90
       50
102
RTVSPost2010PropOp46
 70
     1
102
RTVSPost2010Prop47
 90
       50
102
RTVSPost2010PropOp47
 70
     1
102
RTVSPost2010Prop48
 90
       50
102
RTVSPost2010PropOp48
 70
     1
102
RTVSPost2010Prop49
280
     0
102
RTVSPost2010PropOp49
 70
     1
102
RTVSPost2010Prop50
 90
       50
102
RTVSPost2010PropOp50
 70
     1
102
RTVSPost2010Prop51ColorIndex
 90
      256
102
RTVSPost2010Prop51ColorRGB
 90
-16777216
102
RTVSPost2010PropOp51
 70
     0
102
RTVSPost2010Prop52
140
1.0
102
RTVSPost2010PropOp52
 70
     0
102
RTVSPost2010Prop53
 90
        2
102
RTVSPost2010PropOp53
 70
     1
102
RTVSPost2010Prop54
  1
strokes_ogs.tif
102
RTVSPost2010PropOp54
 70
     1
102
RTVSPost2010Prop55
280
     0
102
RTVSPost2010PropOp55
 70
     1
102
RTVSPost2010Prop56
140
1.0
102
RTVSPost2010PropOp56
 70
     1
102
RTVSPost2010Prop57
140
1.0
102
RTVSPost2010PropOp57
 70
     1
  0
XRECORD
  5
DB
102
{ACAD_REACTORS
330
DA
102
}
330
DA
100
AcDbXrecord
280
     1
102
RTVSPropertyOp0
 70
     0
102
RTVSPropertyOp1
 70
     0
102
RTVSPropertyOp2
 70
     0
102
RTVSPropertyOp3
 70
     0
102
RTVSPropertyOp4
 70
     0
102
RTVSPropertyOp5
 70
     0
102
RTVSPropertyOp6
 70
     0
102
RTVSPropertyOp7
 70
     0
102
RTVSPropertyOp8
 70
     0
102
RTVSPropertyOp9
 70
     0
102
RTVSPropertyOp10
 70
     0
102
RTVSPropertyOp11
 70
     0
102
RTVSPropertyOp12
 70
     0
102
RTVSPropertyOp13
 70
     0
102
RTVSPropertyOp14
 70
     2
102
RTVSPropertyOp15
 70
     0
102
RTVSPropertyOp16
 70
     0
102
RTVSPropertyOp17
 70
     0
102
RTVSPropertyOp18
 70
     0
102
RTVSPropertyOp19
 70
     0
102
RTVSPropertyOp20
 70
     0
102
RTVSPropertyOp21
 70
     0
102
RTVSPropertyOp22
 70
     0
102
RTVSPropertyOp23
 70
     0
102
RTVSPropertyOp24
 70
     0
102
RTVSPropertyOp25
 70
     0
102
RTVSPropertyOp26
 70
     0
102
RTVSPropertyOp27
 70
     0
102
RTVSPropertyOp28
 70
     0
102
RTVSPropertyOp29
 70
     0
102
RTVSPropertyOp30
 70
     0
102
RTVSPropertyOp31
 70
     0
102
RTVSPropertyOp32
 70
     0
102
RTVSPropertyOp33
 70
     0
102
RTVSPropertyOp34
 70
     0
102
RTVSPropertyOp35
 70
     0
102
RTVSPropertyOp36
 70
     0
102
RTVSPropertyOp37
 70
     0
102
RTVSPropertyOp38
 70
     0
102
RTVSPropertyOp39
 70
     0
102
RTVSPropertyOp40
 70
     0
102
RTVSPropertyOp41
 70
     0
102
RTVSPropertyOp42
 70
     0
102
RTVSPropertyOp43
 70
     0
102
RTVSPropertyOp44
 70
     0
102
RTVSPropertyOp45
 70
     0
102
RTVSPropertyOp46
 70
     0
102
RTVSPropertyOp47
 70
     0
102
RTVSPropertyOp48
 70
     0
102
RTVSPropertyOp49
 70
     0
102
RTVSPropertyOp50
 70
     0
102
RTVSPropertyOp51
 70
     0
102
RTVSPropertyOp52
 70
     0
102
RTVSPropertyOp53
 70
     0
102
RTVSPropertyOp54
 70
     0
102
RTVSPropertyOp55
 70
     0
102
RTVSPropertyOp56
 70
     0
102
RTVSPropertyOp57
 70
     0
102
RTVSPost2010Prop28
280
     0
102
RTVSPost2010PropOp28
 70
     0
102
RTVSPost2010Prop29
280
     1
102
RTVSPost2010PropOp29
 70
     0
102
RTVSPost2010Prop30
280
     1
102
RTVSPost2010PropOp30
 70
     0
102
RTVSPost2010Prop31
280
     0
102
RTVSPost2010PropOp31
 70
     0
102
RTVSPost2010Prop32
280
     0
102
RTVSPost2010PropOp32
 70
     0
102
RTVSPost2010Prop33
280
     0
102
RTVSPost2010PropOp33
 70
     0
102
RTVSPost2010Prop34
280
     0
102
RTVSPost2010PropOp34
 70
     0
102
RTVSPost2010Prop35
280
     0
102
RTVSPost2010PropOp35
 70
     0
102
RTVSPost2010Prop36
280
     0
102
RTVSPost2010PropOp36
 70
     0
102
RTVSPost2010Prop37
 90
       50
102
RTVSPost2010PropOp37
 70
     0
102
RTVSPost2010Prop38
140
0.0
102
RTVSPost2010PropOp38
 70
     0
102
RTVSPost2010Prop39
140
1.0
102
RTVSPost2010PropOp39
 70
     0
102
RTVSPost2010Prop40
 90
        0
102
RTVSPost2010PropOp40
 70
     0
102
RTVSPost2010Prop41ColorIndex
 90
       18
102
RTVSPost2010Prop41ColorRGB
 90
        0
102
RTVSPost2010PropOp41
 70
     0
102
RTVSPost2010Prop42
 90
       50
102
RTVSPost2010PropOp42
 70
     0
102
RTVSPost2010Prop43
 90
        3
102
RTVSPost2010PropOp43
 70
     0
102
RTVSPost2010Prop44ColorIndex
 90
        5
102
RTVSPost2010Prop44ColorRGB
 90
      255
102
RTVSPost2010PropOp44
 70
     0
102
RTVSPost2010Prop45
280
     0
102
RTVSPost2010PropOp45
 70
     0
102
RTVSPost2010Prop46
 90
       50
102
RTVSPost2010PropOp46
 70
     0
102
RTVSPost2010Prop47
 90
       50
102
RTVSPost2010PropOp47
 70
     0
102
RTVSPost2010Prop48
 90
       50
102
RTVSPost2010PropOp48
 70
     0
102
RTVSPost2010Prop49
280
     0
102
RTVSPost2010PropOp49
 70
     0
102
RTVSPost2010Prop50
 90
       50
102
RTVSPost2010PropOp50
 70
     0
102
RTVSPost2010Prop51ColorIndex
 90
      256
102
RTVSPost2010Prop51ColorRGB
 90
-16777216
102
RTVSPost2010PropOp51
 70
     0
102
RTVSPost2010Prop52
140
1.0
102
RTVSPost2010PropOp52
 70
     0
102
RTVSPost2010Prop53
 90
        2
102
RTVSPost2010PropOp53
 70
     0
102
RTVSPost2010Prop54
  1
strokes_ogs.tif
102
RTVSPost2010PropOp54
 70
     0
102
RTVSPost2010Prop55
280
     0
102
RTVSPost2010PropOp55
 70
     0
102
RTVSPost2010Prop56
140
1.0
102
RTVSPost2010PropOp56
 70
     0
102
RTVSPost2010Prop57
140
1.0
102
RTVSPost2010PropOp57
 70
     0
  0
XRECORD
  5
C9
102
{ACAD_REACTORS
330
C8
102
}
330
C8
100
AcDbXrecord
280
     1
102
RTVSPropertyOp0
 70
     1
102
RTVSPropertyOp1
 70
     1
102
RTVSPropertyOp2
 70
     1
102
RTVSPropertyOp3
 70
     1
102
RTVSPropertyOp4
 70
     1
102
RTVSPropertyOp5
 70
     1
102
RTVSPropertyOp6
 70
     1
102
RTVSPropertyOp7
 70
     1
102
RTVSPropertyOp8
 70
     1
102
RTVSPropertyOp9
 70
     1
102
RTVSPropertyOp10
 70
     1
102
RTVSPropertyOp11
 70
     1
102
RTVSPropertyOp12
 70
     1
102
RTVSPropertyOp13
 70
     1
102
RTVSPropertyOp14
 70
     1
102
RTVSPropertyOp15
 70
     1
102
RTVSPropertyOp16
 70
     1
102
RTVSPropertyOp17
 70
     1
102
RTVSPropertyOp18
 70
     1
102
RTVSPropertyOp19
 70
     1
102
RTVSPropertyOp20
 70
     1
102
RTVSPropertyOp21
 70
     1
102
RTVSPropertyOp22
 70
     1
102
RTVSPropertyOp23
 70
     1
102
RTVSPropertyOp24
 70
     1
102
RTVSPropertyOp25
 70
     1
102
RTVSPropertyOp26
 70
     1
102
RTVSPropertyOp27
 70
     1
102
RTVSPropertyOp28
 70
     1
102
RTVSPropertyOp29
 70
     1
102
RTVSPropertyOp30
 70
     1
102
RTVSPropertyOp31
 70
     1
102
RTVSPropertyOp32
 70
     1
102
RTVSPropertyOp33
 70
     1
102
RTVSPropertyOp34
 70
     1
102
RTVSPropertyOp35
 70
     1
102
RTVSPropertyOp36
 70
     1
102
RTVSPropertyOp37
 70
     1
102
RTVSPropertyOp38
 70
     1
102
RTVSPropertyOp39
 70
     1
102
RTVSPropertyOp40
 70
     1
102
RTVSPropertyOp41
 70
     1
102
RTVSPropertyOp42
 70
     1
102
RTVSPropertyOp43
 70
     1
102
RTVSPropertyOp44
 70
     1
102
RTVSPropertyOp45
 70
     1
102
RTVSPropertyOp46
 70
     1
102
RTVSPropertyOp47
 70
     1
102
RTVSPropertyOp48
 70
     1
102
RTVSPropertyOp49
 70
     1
102
RTVSPropertyOp50
 70
     1
102
RTVSPropertyOp51
 70
     0
102
RTVSPropertyOp52
 70
     0
102
RTVSPropertyOp53
 70
     1
102
RTVSPropertyOp54
 70
     1
102
RTVSPropertyOp55
 70
     1
102
RTVSPropertyOp56
 70
     1
102
RTVSPropertyOp57
 70
     1
102
RTVSPost2010Prop28
280
     0
102
RTVSPost2010PropOp28
 70
     1
102
RTVSPost2010Prop29
280
     1
102
RTVSPost2010PropOp29
 70
     1
102
RTVSPost2010Prop30
280
     1
102
RTVSPost2010PropOp30
 70
     1
102
RTVSPost2010Prop31
280
     0
102
RTVSPost2010PropOp31
 70
     1
102
RTVSPost2010Prop32
280
     0
102
RTVSPost2010PropOp32
 70
     1
102
RTVSPost2010Prop33
280
     0
102
RTVSPost2010PropOp33
 70
     1
102
RTVSPost2010Prop34
280
     0
102
RTVSPost2010PropOp34
 70
     1
102
RTVSPost2010Prop35
280
     0
102
RTVSPost2010PropOp35
 70
     1
102
RTVSPost2010Prop36
280
     0
102
RTVSPost2010PropOp36
 70
     1
102
RTVSPost2010Prop37
 90
       50
102
RTVSPost2010PropOp37
 70
     1
102
RTVSPost2010Prop38
140
0.0
102
RTVSPost2010PropOp38
 70
     1
102
RTVSPost2010Prop39
140
1.0
102
RTVSPost2010PropOp39
 70
     1
102
RTVSPost2010Prop40
 90
        0
102
RTVSPost2010PropOp40
 70
     1
102
RTVSPost2010Prop41ColorIndex
 90
       18
102
RTVSPost2010Prop41ColorRGB
 90
        0
102
RTVSPost2010PropOp41
 70
     1
102
RTVSPost2010Prop42
 90
       50
102
RTVSPost2010PropOp42
 70
     1
102
RTVSPost2010Prop43
 90
        3
102
RTVSPost2010PropOp43
 70
     1
102
RTVSPost2010Prop44ColorIndex
 90
        5
102
RTVSPost2010Prop44ColorRGB
 90
      255
102
RTVSPost2010PropOp44
 70
     1
102
RTVSPost2010Prop45
280
     0
102
RTVSPost2010PropOp45
 70
     1
102
RTVSPost2010Prop46
 90
       50
102
RTVSPost2010PropOp46
 70
     1
102
RTVSPost2010Prop47
 90
       50
102
RTVSPost2010PropOp47
 70
     1
102
RTVSPost2010Prop48
 90
       50
102
RTVSPost2010PropOp48
 70
     1
102
RTVSPost2010Prop49
280
     0
102
RTVSPost2010PropOp49
 70
     1
102
RTVSPost2010Prop50
 90
       50
102
RTVSPost2010PropOp50
 70
     1
102
RTVSPost2010Prop51ColorIndex
 90
      256
102
RTVSPost2010Prop51ColorRGB
 90
-16777216
102
RTVSPost2010PropOp51
 70
     0
102
RTVSPost2010Prop52
140
1.0
102
RTVSPost2010PropOp52
 70
     0
102
RTVSPost2010Prop53
 90
        2
102
RTVSPost2010PropOp53
 70
     1
102
RTVSPost2010Prop54
  1
strokes_ogs.tif
102
RTVSPost2010PropOp54
 70
     1
102
RTVSPost2010Prop55
280
     0
102
RTVSPost2010PropOp55
 70
     1
102
RTVSPost2010Prop56
140
1.0
102
RTVSPost2010PropOp56
 70
     1
102
RTVSPost2010Prop57
140
1.0
102
RTVSPost2010PropOp57
 70
     1
  0
XRECORD
  5
E7
102
{ACAD_REACTORS
330
E6
102
}
330
E6
100
AcDbXrecord
280
     1
102
RTVSPropertyOp0
 70
     1
102
RTVSPropertyOp1
 70
     1
102
RTVSPropertyOp2
 70
     1
102
RTVSPropertyOp3
 70
     1
102
RTVSPropertyOp4
 70
     1
102
RTVSPropertyOp5
 70
     1
102
RTVSPropertyOp6
 70
     1
102
RTVSPropertyOp7
 70
     1
102
RTVSPropertyOp8
 70
     1
102
RTVSPropertyOp9
 70
     1
102
RTVSPropertyOp10
 70
     1
102
RTVSPropertyOp11
 70
     1
102
RTVSPropertyOp12
 70
     1
102
RTVSPropertyOp13
 70
     1
102
RTVSPropertyOp14
 70
     1
102
RTVSPropertyOp15
 70
     1
102
RTVSPropertyOp16
 70
     1
102
RTVSPropertyOp17
 70
     1
102
RTVSPropertyOp18
 70
     1
102
RTVSPropertyOp19
 70
     1
102
RTVSPropertyOp20
 70
     1
102
RTVSPropertyOp21
 70
     1
102
RTVSPropertyOp22
 70
     1
102
RTVSPropertyOp23
 70
     1
102
RTVSPropertyOp24
 70
     1
102
RTVSPropertyOp25
 70
     1
102
RTVSPropertyOp26
 70
     1
102
RTVSPropertyOp27
 70
     1
102
RTVSPropertyOp28
 70
     1
102
RTVSPropertyOp29
 70
     1
102
RTVSPropertyOp30
 70
     1
102
RTVSPropertyOp31
 70
     1
102
RTVSPropertyOp32
 70
     1
102
RTVSPropertyOp33
 70
     1
102
RTVSPropertyOp34
 70
     1
102
RTVSPropertyOp35
 70
     1
102
RTVSPropertyOp36
 70
     1
102
RTVSPropertyOp37
 70
     1
102
RTVSPropertyOp38
 70
     1
102
RTVSPropertyOp39
 70
     1
102
RTVSPropertyOp40
 70
     1
102
RTVSPropertyOp41
 70
     1
102
RTVSPropertyOp42
 70
     1
102
RTVSPropertyOp43
 70
     1
102
RTVSPropertyOp44
 70
     1
102
RTVSPropertyOp45
 70
     1
102
RTVSPropertyOp46
 70
     1
102
RTVSPropertyOp47
 70
     1
102
RTVSPropertyOp48
 70
     1
102
RTVSPropertyOp49
 70
     1
102
RTVSPropertyOp50
 70
     1
102
RTVSPropertyOp51
 70
     0
102
RTVSPropertyOp52
 70
     0
102
RTVSPropertyOp53
 70
     1
102
RTVSPropertyOp54
 70
     1
102
RTVSPropertyOp55
 70
     1
102
RTVSPropertyOp56
 70
     1
102
RTVSPropertyOp57
 70
     1
102
RTVSPost2010Prop28
280
     0
102
RTVSPost2010PropOp28
 70
     1
102
RTVSPost2010Prop29
280
     1
102
RTVSPost2010PropOp29
 70
     1
102
RTVSPost2010Prop30
280
     1
102
RTVSPost2010PropOp30
 70
     1
102
RTVSPost2010Prop31
280
     0
102
RTVSPost2010PropOp31
 70
     1
102
RTVSPost2010Prop32
280
     0
102
RTVSPost2010PropOp32
 70
     1
102
RTVSPost2010Prop33
280
     0
102
RTVSPost2010PropOp33
 70
     1
102
RTVSPost2010Prop34
280
     0
102
RTVSPost2010PropOp34
 70
     1
102
RTVSPost2010Prop35
280
     0
102
RTVSPost2010PropOp35
 70
     1
102
RTVSPost2010Prop36
280
     0
102
RTVSPost2010PropOp36
 70
     1
102
RTVSPost2010Prop37
 90
       50
102
RTVSPost2010PropOp37
 70
     1
102
RTVSPost2010Prop38
140
0.0
102
RTVSPost2010PropOp38
 70
     1
102
RTVSPost2010Prop39
140
1.0
102
RTVSPost2010PropOp39
 70
     1
102
RTVSPost2010Prop40
 90
        0
102
RTVSPost2010PropOp40
 70
     1
102
RTVSPost2010Prop41ColorIndex
 90
       18
102
RTVSPost2010Prop41ColorRGB
 90
        0
102
RTVSPost2010PropOp41
 70
     1
102
RTVSPost2010Prop42
 90
       50
102
RTVSPost2010PropOp42
 70
     1
102
RTVSPost2010Prop43
 90
        3
102
RTVSPost2010PropOp43
 70
     1
102
RTVSPost2010Prop44ColorIndex
 90
        5
102
RTVSPost2010Prop44ColorRGB
 90
      255
102
RTVSPost2010PropOp44
 70
     1
102
RTVSPost2010Prop45
280
     0
102
RTVSPost2010PropOp45
 70
     1
102
RTVSPost2010Prop46
 90
       50
102
RTVSPost2010PropOp46
 70
     1
102
RTVSPost2010Prop47
 90
       50
102
RTVSPost2010PropOp47
 70
     1
102
RTVSPost2010Prop48
 90
       50
102
RTVSPost2010PropOp48
 70
     1
102
RTVSPost2010Prop49
280
     0
102
RTVSPost2010PropOp49
 70
     1
102
RTVSPost2010Prop50
 90
       50
102
RTVSPost2010PropOp50
 70
     1
102
RTVSPost2010Prop51ColorIndex
 90
      256
102
RTVSPost2010Prop51ColorRGB
 90
-16777216
102
RTVSPost2010PropOp51
 70
     0
102
RTVSPost2010Prop52
140
1.0
102
RTVSPost2010PropOp52
 70
     0
102
RTVSPost2010Prop53
 90
        2
102
RTVSPost2010PropOp53
 70
     1
102
RTVSPost2010Prop54
  1
strokes_ogs.tif
102
RTVSPost2010PropOp54
 70
     1
102
RTVSPost2010Prop55
280
     0
102
RTVSPost2010PropOp55
 70
     1
102
RTVSPost2010Prop56
140
1.0
102
RTVSPost2010PropOp56
 70
     1
102
RTVSPost2010Prop57
140
1.0
102
RTVSPost2010PropOp57
 70
     1
  0
XRECORD
  5
E5
102
{ACAD_REACTORS
330
E4
102
}
330
E4
100
AcDbXrecord
280
     1
102
RTVSPropertyOp0
 70
     1
102
RTVSPropertyOp1
 70
     1
102
RTVSPropertyOp2
 70
     1
102
RTVSPropertyOp3
 70
     1
102
RTVSPropertyOp4
 70
     1
102
RTVSPropertyOp5
 70
     1
102
RTVSPropertyOp6
 70
     1
102
RTVSPropertyOp7
 70
     1
102
RTVSPropertyOp8
 70
     1
102
RTVSPropertyOp9
 70
     1
102
RTVSPropertyOp10
 70
     1
102
RTVSPropertyOp11
 70
     1
102
RTVSPropertyOp12
 70
     1
102
RTVSPropertyOp13
 70
     1
102
RTVSPropertyOp14
 70
     1
102
RTVSPropertyOp15
 70
     1
102
RTVSPropertyOp16
 70
     1
102
RTVSPropertyOp17
 70
     1
102
RTVSPropertyOp18
 70
     1
102
RTVSPropertyOp19
 70
     1
102
RTVSPropertyOp20
 70
     1
102
RTVSPropertyOp21
 70
     1
102
RTVSPropertyOp22
 70
     1
102
RTVSPropertyOp23
 70
     1
102
RTVSPropertyOp24
 70
     1
102
RTVSPropertyOp25
 70
     1
102
RTVSPropertyOp26
 70
     1
102
RTVSPropertyOp27
 70
     1
102
RTVSPropertyOp28
 70
     1
102
RTVSPropertyOp29
 70
     1
102
RTVSPropertyOp30
 70
     1
102
RTVSPropertyOp31
 70
     1
102
RTVSPropertyOp32
 70
     1
102
RTVSPropertyOp33
 70
     1
102
RTVSPropertyOp34
 70
     1
102
RTVSPropertyOp35
 70
     1
102
RTVSPropertyOp36
 70
     1
102
RTVSPropertyOp37
 70
     1
102
RTVSPropertyOp38
 70
     1
102
RTVSPropertyOp39
 70
     1
102
RTVSPropertyOp40
 70
     1
102
RTVSPropertyOp41
 70
     1
102
RTVSPropertyOp42
 70
     1
102
RTVSPropertyOp43
 70
     1
102
RTVSPropertyOp44
 70
     1
102
RTVSPropertyOp45
 70
     1
102
RTVSPropertyOp46
 70
     1
102
RTVSPropertyOp47
 70
     1
102
RTVSPropertyOp48
 70
     1
102
RTVSPropertyOp49
 70
     1
102
RTVSPropertyOp50
 70
     1
102
RTVSPropertyOp51
 70
     0
102
RTVSPropertyOp52
 70
     0
102
RTVSPropertyOp53
 70
     1
102
RTVSPropertyOp54
 70
     1
102
RTVSPropertyOp55
 70
     1
102
RTVSPropertyOp56
 70
     1
102
RTVSPropertyOp57
 70
     1
102
RTVSPost2010Prop28
280
     0
102
RTVSPost2010PropOp28
 70
     1
102
RTVSPost2010Prop29
280
     1
102
RTVSPost2010PropOp29
 70
     1
102
RTVSPost2010Prop30
280
     1
102
RTVSPost2010PropOp30
 70
     1
102
RTVSPost2010Prop31
280
     0
102
RTVSPost2010PropOp31
 70
     1
102
RTVSPost2010Prop32
280
     0
102
RTVSPost2010PropOp32
 70
     1
102
RTVSPost2010Prop33
280
     0
102
RTVSPost2010PropOp33
 70
     1
102
RTVSPost2010Prop34
280
     0
102
RTVSPost2010PropOp34
 70
     1
102
RTVSPost2010Prop35
280
     0
102
RTVSPost2010PropOp35
 70
     1
102
RTVSPost2010Prop36
280
     0
102
RTVSPost2010PropOp36
 70
     1
102
RTVSPost2010Prop37
 90
       50
102
RTVSPost2010PropOp37
 70
     1
102
RTVSPost2010Prop38
140
0.0
102
RTVSPost2010PropOp38
 70
     1
102
RTVSPost2010Prop39
140
1.0
102
RTVSPost2010PropOp39
 70
     1
102
RTVSPost2010Prop40
 90
        0
102
RTVSPost2010PropOp40
 70
     1
102
RTVSPost2010Prop41ColorIndex
 90
       18
102
RTVSPost2010Prop41ColorRGB
 90
        0
102
RTVSPost2010PropOp41
 70
     1
102
RTVSPost2010Prop42
 90
       50
102
RTVSPost2010PropOp42
 70
     1
102
RTVSPost2010Prop43
 90
        3
102
RTVSPost2010PropOp43
 70
     1
102
RTVSPost2010Prop44ColorIndex
 90
        5
102
RTVSPost2010Prop44ColorRGB
 90
      255
102
RTVSPost2010PropOp44
 70
     1
102
RTVSPost2010Prop45
280
     0
102
RTVSPost2010PropOp45
 70
     1
102
RTVSPost2010Prop46
 90
       50
102
RTVSPost2010PropOp46
 70
     1
102
RTVSPost2010Prop47
 90
       50
102
RTVSPost2010PropOp47
 70
     1
102
RTVSPost2010Prop48
 90
       50
102
RTVSPost2010PropOp48
 70
     1
102
RTVSPost2010Prop49
280
     0
102
RTVSPost2010PropOp49
 70
     1
102
RTVSPost2010Prop50
 90
       50
102
RTVSPost2010PropOp50
 70
     1
102
RTVSPost2010Prop51ColorIndex
 90
      256
102
RTVSPost2010Prop51ColorRGB
 90
-16777216
102
RTVSPost2010PropOp51
 70
     0
102
RTVSPost2010Prop52
140
1.0
102
RTVSPost2010PropOp52
 70
     0
102
RTVSPost2010Prop53
 90
        2
102
RTVSPost2010PropOp53
 70
     1
102
RTVSPost2010Prop54
  1
strokes_ogs.tif
102
RTVSPost2010PropOp54
 70
     1
102
RTVSPost2010Prop55
280
     0
102
RTVSPost2010PropOp55
 70
     1
102
RTVSPost2010Prop56
140
1.0
102
RTVSPost2010PropOp56
 70
     1
102
RTVSPost2010Prop57
140
1.0
102
RTVSPost2010PropOp57
 70
     1
  0
XRECORD
  5
DF
102
{ACAD_REACTORS
330
DE
102
}
330
DE
100
AcDbXrecord
280
     1
102
RTVSPropertyOp0
 70
     1
102
RTVSPropertyOp1
 70
     1
102
RTVSPropertyOp2
 70
     1
102
RTVSPropertyOp3
 70
     1
102
RTVSPropertyOp4
 70
     1
102
RTVSPropertyOp5
 70
     1
102
RTVSPropertyOp6
 70
     1
102
RTVSPropertyOp7
 70
     1
102
RTVSPropertyOp8
 70
     1
102
RTVSPropertyOp9
 70
     1
102
RTVSPropertyOp10
 70
     1
102
RTVSPropertyOp11
 70
     1
102
RTVSPropertyOp12
 70
     1
102
RTVSPropertyOp13
 70
     1
102
RTVSPropertyOp14
 70
     1
102
RTVSPropertyOp15
 70
     1
102
RTVSPropertyOp16
 70
     1
102
RTVSPropertyOp17
 70
     1
102
RTVSPropertyOp18
 70
     1
102
RTVSPropertyOp19
 70
     1
102
RTVSPropertyOp20
 70
     1
102
RTVSPropertyOp21
 70
     1
102
RTVSPropertyOp22
 70
     1
102
RTVSPropertyOp23
 70
     1
102
RTVSPropertyOp24
 70
     1
102
RTVSPropertyOp25
 70
     1
102
RTVSPropertyOp26
 70
     1
102
RTVSPropertyOp27
 70
     1
102
RTVSPropertyOp28
 70
     1
102
RTVSPropertyOp29
 70
     1
102
RTVSPropertyOp30
 70
     1
102
RTVSPropertyOp31
 70
     1
102
RTVSPropertyOp32
 70
     1
102
RTVSPropertyOp33
 70
     1
102
RTVSPropertyOp34
 70
     1
102
RTVSPropertyOp35
 70
     1
102
RTVSPropertyOp36
 70
     1
102
RTVSPropertyOp37
 70
     1
102
RTVSPropertyOp38
 70
     1
102
RTVSPropertyOp39
 70
     1
102
RTVSPropertyOp40
 70
     1
102
RTVSPropertyOp41
 70
     1
102
RTVSPropertyOp42
 70
     1
102
RTVSPropertyOp43
 70
     1
102
RTVSPropertyOp44
 70
     1
102
RTVSPropertyOp45
 70
     1
102
RTVSPropertyOp46
 70
     1
102
RTVSPropertyOp47
 70
     1
102
RTVSPropertyOp48
 70
     1
102
RTVSPropertyOp49
 70
     1
102
RTVSPropertyOp50
 70
     1
102
RTVSPropertyOp51
 70
     0
102
RTVSPropertyOp52
 70
     0
102
RTVSPropertyOp53
 70
     1
102
RTVSPropertyOp54
 70
     1
102
RTVSPropertyOp55
 70
     1
102
RTVSPropertyOp56
 70
     1
102
RTVSPropertyOp57
 70
     1
102
RTVSPost2010Prop28
280
     0
102
RTVSPost2010PropOp28
 70
     1
102
RTVSPost2010Prop29
280
     1
102
RTVSPost2010PropOp29
 70
     1
102
RTVSPost2010Prop30
280
     1
102
RTVSPost2010PropOp30
 70
     1
102
RTVSPost2010Prop31
280
     0
102
RTVSPost2010PropOp31
 70
     1
102
RTVSPost2010Prop32
280
     0
102
RTVSPost2010PropOp32
 70
     1
102
RTVSPost2010Prop33
280
     0
102
RTVSPost2010PropOp33
 70
     1
102
RTVSPost2010Prop34
280
     0
102
RTVSPost2010PropOp34
 70
     1
102
RTVSPost2010Prop35
280
     0
102
RTVSPost2010PropOp35
 70
     1
102
RTVSPost2010Prop36
280
     0
102
RTVSPost2010PropOp36
 70
     1
102
RTVSPost2010Prop37
 90
       50
102
RTVSPost2010PropOp37
 70
     1
102
RTVSPost2010Prop38
140
0.0
102
RTVSPost2010PropOp38
 70
     1
102
RTVSPost2010Prop39
140
1.0
102
RTVSPost2010PropOp39
 70
     1
102
RTVSPost2010Prop40
 90
        0
102
RTVSPost2010PropOp40
 70
     1
102
RTVSPost2010Prop41ColorIndex
 90
       18
102
RTVSPost2010Prop41ColorRGB
 90
        0
102
RTVSPost2010PropOp41
 70
     1
102
RTVSPost2010Prop42
 90
       50
102
RTVSPost2010PropOp42
 70
     1
102
RTVSPost2010Prop43
 90
        3
102
RTVSPost2010PropOp43
 70
     1
102
RTVSPost2010Prop44ColorIndex
 90
        5
102
RTVSPost2010Prop44ColorRGB
 90
      255
102
RTVSPost2010PropOp44
 70
     1
102
RTVSPost2010Prop45
280
     0
102
RTVSPost2010PropOp45
 70
     1
102
RTVSPost2010Prop46
 90
       50
102
RTVSPost2010PropOp46
 70
     1
102
RTVSPost2010Prop47
 90
       50
102
RTVSPost2010PropOp47
 70
     1
102
RTVSPost2010Prop48
 90
       50
102
RTVSPost2010PropOp48
 70
     1
102
RTVSPost2010Prop49
280
     0
102
RTVSPost2010PropOp49
 70
     1
102
RTVSPost2010Prop50
 90
       50
102
RTVSPost2010PropOp50
 70
     1
102
RTVSPost2010Prop51ColorIndex
 90
      256
102
RTVSPost2010Prop51ColorRGB
 90
-16777216
102
RTVSPost2010PropOp51
 70
     0
102
RTVSPost2010Prop52
140
1.0
102
RTVSPost2010PropOp52
 70
     0
102
RTVSPost2010Prop53
 90
        2
102
RTVSPost2010PropOp53
 70
     1
102
RTVSPost2010Prop54
  1
strokes_ogs.tif
102
RTVSPost2010PropOp54
 70
     1
102
RTVSPost2010Prop55
280
     0
102
RTVSPost2010PropOp55
 70
     1
102
RTVSPost2010Prop56
140
1.0
102
RTVSPost2010PropOp56
 70
     1
102
RTVSPost2010Prop57
140
1.0
102
RTVSPost2010PropOp57
 70
     1
  0
XRECORD
  5
E1
102
{ACAD_REACTORS
330
E0
102
}
330
E0
100
AcDbXrecord
280
     1
102
RTVSPropertyOp0
 70
     1
102
RTVSPropertyOp1
 70
     1
102
RTVSPropertyOp2
 70
     1
102
RTVSPropertyOp3
 70
     1
102
RTVSPropertyOp4
 70
     1
102
RTVSPropertyOp5
 70
     1
102
RTVSPropertyOp6
 70
     1
102
RTVSPropertyOp7
 70
     1
102
RTVSPropertyOp8
 70
     1
102
RTVSPropertyOp9
 70
     1
102
RTVSPropertyOp10
 70
     1
102
RTVSPropertyOp11
 70
     1
102
RTVSPropertyOp12
 70
     1
102
RTVSPropertyOp13
 70
     1
102
RTVSPropertyOp14
 70
     1
102
RTVSPropertyOp15
 70
     1
102
RTVSPropertyOp16
 70
     1
102
RTVSPropertyOp17
 70
     1
102
RTVSPropertyOp18
 70
     1
102
RTVSPropertyOp19
 70
     1
102
RTVSPropertyOp20
 70
     1
102
RTVSPropertyOp21
 70
     1
102
RTVSPropertyOp22
 70
     1
102
RTVSPropertyOp23
 70
     1
102
RTVSPropertyOp24
 70
     1
102
RTVSPropertyOp25
 70
     1
102
RTVSPropertyOp26
 70
     1
102
RTVSPropertyOp27
 70
     1
102
RTVSPropertyOp28
 70
     1
102
RTVSPropertyOp29
 70
     1
102
RTVSPropertyOp30
 70
     1
102
RTVSPropertyOp31
 70
     1
102
RTVSPropertyOp32
 70
     1
102
RTVSPropertyOp33
 70
     1
102
RTVSPropertyOp34
 70
     1
102
RTVSPropertyOp35
 70
     1
102
RTVSPropertyOp36
 70
     1
102
RTVSPropertyOp37
 70
     1
102
RTVSPropertyOp38
 70
     1
102
RTVSPropertyOp39
 70
     1
102
RTVSPropertyOp40
 70
     1
102
RTVSPropertyOp41
 70
     1
102
RTVSPropertyOp42
 70
     1
102
RTVSPropertyOp43
 70
     1
102
RTVSPropertyOp44
 70
     1
102
RTVSPropertyOp45
 70
     1
102
RTVSPropertyOp46
 70
     1
102
RTVSPropertyOp47
 70
     1
102
RTVSPropertyOp48
 70
     1
102
RTVSPropertyOp49
 70
     1
102
RTVSPropertyOp50
 70
     1
102
RTVSPropertyOp51
 70
     0
102
RTVSPropertyOp52
 70
     0
102
RTVSPropertyOp53
 70
     1
102
RTVSPropertyOp54
 70
     1
102
RTVSPropertyOp55
 70
     1
102
RTVSPropertyOp56
 70
     1
102
RTVSPropertyOp57
 70
     1
102
RTVSPost2010Prop28
280
     0
102
RTVSPost2010PropOp28
 70
     1
102
RTVSPost2010Prop29
280
     1
102
RTVSPost2010PropOp29
 70
     1
102
RTVSPost2010Prop30
280
     1
102
RTVSPost2010PropOp30
 70
     1
102
RTVSPost2010Prop31
280
     0
102
RTVSPost2010PropOp31
 70
     1
102
RTVSPost2010Prop32
280
     0
102
RTVSPost2010PropOp32
 70
     1
102
RTVSPost2010Prop33
280
     0
102
RTVSPost2010PropOp33
 70
     1
102
RTVSPost2010Prop34
280
     0
102
RTVSPost2010PropOp34
 70
     1
102
RTVSPost2010Prop35
280
     0
102
RTVSPost2010PropOp35
 70
     1
102
RTVSPost2010Prop36
280
     0
102
RTVSPost2010PropOp36
 70
     1
102
RTVSPost2010Prop37
 90
       50
102
RTVSPost2010PropOp37
 70
     1
102
RTVSPost2010Prop38
140
0.0
102
RTVSPost2010PropOp38
 70
     1
102
RTVSPost2010Prop39
140
1.0
102
RTVSPost2010PropOp39
 70
     1
102
RTVSPost2010Prop40
 90
        0
102
RTVSPost2010PropOp40
 70
     1
102
RTVSPost2010Prop41ColorIndex
 90
       18
102
RTVSPost2010Prop41ColorRGB
 90
        0
102
RTVSPost2010PropOp41
 70
     1
102
RTVSPost2010Prop42
 90
       50
102
RTVSPost2010PropOp42
 70
     1
102
RTVSPost2010Prop43
 90
        3
102
RTVSPost2010PropOp43
 70
     1
102
RTVSPost2010Prop44ColorIndex
 90
        5
102
RTVSPost2010Prop44ColorRGB
 90
      255
102
RTVSPost2010PropOp44
 70
     1
102
RTVSPost2010Prop45
280
     0
102
RTVSPost2010PropOp45
 70
     1
102
RTVSPost2010Prop46
 90
       50
102
RTVSPost2010PropOp46
 70
     1
102
RTVSPost2010Prop47
 90
       50
102
RTVSPost2010PropOp47
 70
     1
102
RTVSPost2010Prop48
 90
       50
102
RTVSPost2010PropOp48
 70
     1
102
RTVSPost2010Prop49
280
     0
102
RTVSPost2010PropOp49
 70
     1
102
RTVSPost2010Prop50
 90
       50
102
RTVSPost2010PropOp50
 70
     1
102
RTVSPost2010Prop51ColorIndex
 90
      256
102
RTVSPost2010Prop51ColorRGB
 90
-16777216
102
RTVSPost2010PropOp51
 70
     0
102
RTVSPost2010Prop52
140
1.0
102
RTVSPost2010PropOp52
 70
     0
102
RTVSPost2010Prop53
 90
        2
102
RTVSPost2010PropOp53
 70
     1
102
RTVSPost2010Prop54
  1
strokes_ogs.tif
102
RTVSPost2010PropOp54
 70
     1
102
RTVSPost2010Prop55
280
     0
102
RTVSPost2010PropOp55
 70
     1
102
RTVSPost2010Prop56
140
1.0
102
RTVSPost2010PropOp56
 70
     1
102
RTVSPost2010Prop57
140
1.0
102
RTVSPost2010PropOp57
 70
     1
  0
XRECORD
  5
D1
102
{ACAD_REACTORS
330
D0
102
}
330
D0
100
AcDbXrecord
280
     1
102
RTVSPropertyOp0
 70
     1
102
RTVSPropertyOp1
 70
     1
102
RTVSPropertyOp2
 70
     1
102
RTVSPropertyOp3
 70
     1
102
RTVSPropertyOp4
 70
     1
102
RTVSPropertyOp5
 70
     1
102
RTVSPropertyOp6
 70
     1
102
RTVSPropertyOp7
 70
     1
102
RTVSPropertyOp8
 70
     1
102
RTVSPropertyOp9
 70
     1
102
RTVSPropertyOp10
 70
     1
102
RTVSPropertyOp11
 70
     1
102
RTVSPropertyOp12
 70
     1
102
RTVSPropertyOp13
 70
     1
102
RTVSPropertyOp14
 70
     1
102
RTVSPropertyOp15
 70
     1
102
RTVSPropertyOp16
 70
     1
102
RTVSPropertyOp17
 70
     1
102
RTVSPropertyOp18
 70
     1
102
RTVSPropertyOp19
 70
     1
102
RTVSPropertyOp20
 70
     1
102
RTVSPropertyOp21
 70
     1
102
RTVSPropertyOp22
 70
     1
102
RTVSPropertyOp23
 70
     1
102
RTVSPropertyOp24
 70
     1
102
RTVSPropertyOp25
 70
     1
102
RTVSPropertyOp26
 70
     1
102
RTVSPropertyOp27
 70
     1
102
RTVSPropertyOp28
 70
     1
102
RTVSPropertyOp29
 70
     1
102
RTVSPropertyOp30
 70
     1
102
RTVSPropertyOp31
 70
     1
102
RTVSPropertyOp32
 70
     1
102
RTVSPropertyOp33
 70
     1
102
RTVSPropertyOp34
 70
     1
102
RTVSPropertyOp35
 70
     1
102
RTVSPropertyOp36
 70
     1
102
RTVSPropertyOp37
 70
     1
102
RTVSPropertyOp38
 70
     1
102
RTVSPropertyOp39
 70
     1
102
RTVSPropertyOp40
 70
     1
102
RTVSPropertyOp41
 70
     1
102
RTVSPropertyOp42
 70
     1
102
RTVSPropertyOp43
 70
     1
102
RTVSPropertyOp44
 70
     1
102
RTVSPropertyOp45
 70
     1
102
RTVSPropertyOp46
 70
     1
102
RTVSPropertyOp47
 70
     1
102
RTVSPropertyOp48
 70
     1
102
RTVSPropertyOp49
 70
     1
102
RTVSPropertyOp50
 70
     1
102
RTVSPropertyOp51
 70
     0
102
RTVSPropertyOp52
 70
     0
102
RTVSPropertyOp53
 70
     1
102
RTVSPropertyOp54
 70
     1
102
RTVSPropertyOp55
 70
     1
102
RTVSPropertyOp56
 70
     1
102
RTVSPropertyOp57
 70
     1
102
RTVSPost2010Prop28
280
     0
102
RTVSPost2010PropOp28
 70
     1
102
RTVSPost2010Prop29
280
     1
102
RTVSPost2010PropOp29
 70
     1
102
RTVSPost2010Prop30
280
     1
102
RTVSPost2010PropOp30
 70
     1
102
RTVSPost2010Prop31
280
     0
102
RTVSPost2010PropOp31
 70
     1
102
RTVSPost2010Prop32
280
     0
102
RTVSPost2010PropOp32
 70
     1
102
RTVSPost2010Prop33
280
     0
102
RTVSPost2010PropOp33
 70
     1
102
RTVSPost2010Prop34
280
     0
102
RTVSPost2010PropOp34
 70
     1
102
RTVSPost2010Prop35
280
     0
102
RTVSPost2010PropOp35
 70
     1
102
RTVSPost2010Prop36
280
     0
102
RTVSPost2010PropOp36
 70
     1
102
RTVSPost2010Prop37
 90
       50
102
RTVSPost2010PropOp37
 70
     1
102
RTVSPost2010Prop38
140
0.0
102
RTVSPost2010PropOp38
 70
     1
102
RTVSPost2010Prop39
140
1.0
102
RTVSPost2010PropOp39
 70
     1
102
RTVSPost2010Prop40
 90
        0
102
RTVSPost2010PropOp40
 70
     1
102
RTVSPost2010Prop41ColorIndex
 90
       18
102
RTVSPost2010Prop41ColorRGB
 90
        0
102
RTVSPost2010PropOp41
 70
     1
102
RTVSPost2010Prop42
 90
       50
102
RTVSPost2010PropOp42
 70
     1
102
RTVSPost2010Prop43
 90
        3
102
RTVSPost2010PropOp43
 70
     1
102
RTVSPost2010Prop44ColorIndex
 90
        5
102
RTVSPost2010Prop44ColorRGB
 90
      255
102
RTVSPost2010PropOp44
 70
     1
102
RTVSPost2010Prop45
280
     0
102
RTVSPost2010PropOp45
 70
     1
102
RTVSPost2010Prop46
 90
       50
102
RTVSPost2010PropOp46
 70
     1
102
RTVSPost2010Prop47
 90
       50
102
RTVSPost2010PropOp47
 70
     1
102
RTVSPost2010Prop48
 90
       50
102
RTVSPost2010PropOp48
 70
     1
102
RTVSPost2010Prop49
280
     0
102
RTVSPost2010PropOp49
 70
     1
102
RTVSPost2010Prop50
 90
       50
102
RTVSPost2010PropOp50
 70
     1
102
RTVSPost2010Prop51ColorIndex
 90
      256
102
RTVSPost2010Prop51ColorRGB
 90
-16777216
102
RTVSPost2010PropOp51
 70
     0
102
RTVSPost2010Prop52
140
1.0
102
RTVSPost2010PropOp52
 70
     0
102
RTVSPost2010Prop53
 90
        2
102
RTVSPost2010PropOp53
 70
     1
102
RTVSPost2010Prop54
  1
strokes_ogs.tif
102
RTVSPost2010PropOp54
 70
     1
102
RTVSPost2010Prop55
280
     0
102
RTVSPost2010PropOp55
 70
     1
102
RTVSPost2010Prop56
140
1.0
102
RTVSPost2010PropOp56
 70
     1
102
RTVSPost2010Prop57
140
1.0
102
RTVSPost2010PropOp57
 70
     1
  0
XRECORD
  5
C3
102
{ACAD_REACTORS
330
C2
102
}
330
C2
100
AcDbXrecord
280
     1
102
RTVSPropertyOp0
 70
     1
102
RTVSPropertyOp1
 70
     1
102
RTVSPropertyOp2
 70
     1
102
RTVSPropertyOp3
 70
     1
102
RTVSPropertyOp4
 70
     1
102
RTVSPropertyOp5
 70
     1
102
RTVSPropertyOp6
 70
     1
102
RTVSPropertyOp7
 70
     1
102
RTVSPropertyOp8
 70
     1
102
RTVSPropertyOp9
 70
     1
102
RTVSPropertyOp10
 70
     1
102
RTVSPropertyOp11
 70
     1
102
RTVSPropertyOp12
 70
     1
102
RTVSPropertyOp13
 70
     1
102
RTVSPropertyOp14
 70
     1
102
RTVSPropertyOp15
 70
     1
102
RTVSPropertyOp16
 70
     1
102
RTVSPropertyOp17
 70
     1
102
RTVSPropertyOp18
 70
     1
102
RTVSPropertyOp19
 70
     1
102
RTVSPropertyOp20
 70
     1
102
RTVSPropertyOp21
 70
     1
102
RTVSPropertyOp22
 70
     1
102
RTVSPropertyOp23
 70
     1
102
RTVSPropertyOp24
 70
     1
102
RTVSPropertyOp25
 70
     1
102
RTVSPropertyOp26
 70
     1
102
RTVSPropertyOp27
 70
     1
102
RTVSPropertyOp28
 70
     1
102
RTVSPropertyOp29
 70
     1
102
RTVSPropertyOp30
 70
     1
102
RTVSPropertyOp31
 70
     1
102
RTVSPropertyOp32
 70
     1
102
RTVSPropertyOp33
 70
     1
102
RTVSPropertyOp34
 70
     1
102
RTVSPropertyOp35
 70
     1
102
RTVSPropertyOp36
 70
     1
102
RTVSPropertyOp37
 70
     1
102
RTVSPropertyOp38
 70
     1
102
RTVSPropertyOp39
 70
     1
102
RTVSPropertyOp40
 70
     1
102
RTVSPropertyOp41
 70
     1
102
RTVSPropertyOp42
 70
     1
102
RTVSPropertyOp43
 70
     1
102
RTVSPropertyOp44
 70
     1
102
RTVSPropertyOp45
 70
     1
102
RTVSPropertyOp46
 70
     1
102
RTVSPropertyOp47
 70
     1
102
RTVSPropertyOp48
 70
     1
102
RTVSPropertyOp49
 70
     1
102
RTVSPropertyOp50
 70
     1
102
RTVSPropertyOp51
 70
     0
102
RTVSPropertyOp52
 70
     0
102
RTVSPropertyOp53
 70
     1
102
RTVSPropertyOp54
 70
     1
102
RTVSPropertyOp55
 70
     1
102
RTVSPropertyOp56
 70
     1
102
RTVSPropertyOp57
 70
     1
102
RTVSPost2010Prop28
280
     0
102
RTVSPost2010PropOp28
 70
     1
102
RTVSPost2010Prop29
280
     1
102
RTVSPost2010PropOp29
 70
     1
102
RTVSPost2010Prop30
280
     1
102
RTVSPost2010PropOp30
 70
     1
102
RTVSPost2010Prop31
280
     0
102
RTVSPost2010PropOp31
 70
     1
102
RTVSPost2010Prop32
280
     0
102
RTVSPost2010PropOp32
 70
     1
102
RTVSPost2010Prop33
280
     0
102
RTVSPost2010PropOp33
 70
     1
102
RTVSPost2010Prop34
280
     0
102
RTVSPost2010PropOp34
 70
     1
102
RTVSPost2010Prop35
280
     0
102
RTVSPost2010PropOp35
 70
     1
102
RTVSPost2010Prop36
280
     0
102
RTVSPost2010PropOp36
 70
     1
102
RTVSPost2010Prop37
 90
       50
102
RTVSPost2010PropOp37
 70
     1
102
RTVSPost2010Prop38
140
0.0
102
RTVSPost2010PropOp38
 70
     1
102
RTVSPost2010Prop39
140
1.0
102
RTVSPost2010PropOp39
 70
     1
102
RTVSPost2010Prop40
 90
        0
102
RTVSPost2010PropOp40
 70
     1
102
RTVSPost2010Prop41ColorIndex
 90
       18
102
RTVSPost2010Prop41ColorRGB
 90
        0
102
RTVSPost2010PropOp41
 70
     1
102
RTVSPost2010Prop42
 90
       50
102
RTVSPost2010PropOp42
 70
     1
102
RTVSPost2010Prop43
 90
        3
102
RTVSPost2010PropOp43
 70
     1
102
RTVSPost2010Prop44ColorIndex
 90
        5
102
RTVSPost2010Prop44ColorRGB
 90
      255
102
RTVSPost2010PropOp44
 70
     1
102
RTVSPost2010Prop45
280
     0
102
RTVSPost2010PropOp45
 70
     1
102
RTVSPost2010Prop46
 90
       50
102
RTVSPost2010PropOp46
 70
     1
102
RTVSPost2010Prop47
 90
       50
102
RTVSPost2010PropOp47
 70
     1
102
RTVSPost2010Prop48
 90
       50
102
RTVSPost2010PropOp48
 70
     1
102
RTVSPost2010Prop49
280
     0
102
RTVSPost2010PropOp49
 70
     1
102
RTVSPost2010Prop50
 90
       50
102
RTVSPost2010PropOp50
 70
     1
102
RTVSPost2010Prop51ColorIndex
 90
      256
102
RTVSPost2010Prop51ColorRGB
 90
-16777216
102
RTVSPost2010PropOp51
 70
     0
102
RTVSPost2010Prop52
140
1.0
102
RTVSPost2010PropOp52
 70
     0
102
RTVSPost2010Prop53
 90
        2
102
RTVSPost2010PropOp53
 70
     1
102
RTVSPost2010Prop54
  1
strokes_ogs.tif
102
RTVSPost2010PropOp54
 70
     1
102
RTVSPost2010Prop55
280
     0
102
RTVSPost2010PropOp55
 70
     1
102
RTVSPost2010Prop56
140
1.0
102
RTVSPost2010PropOp56
 70
     1
102
RTVSPost2010Prop57
140
1.0
102
RTVSPost2010PropOp57
 70
     1
  0
XRECORD
  5
E3
102
{ACAD_REACTORS
330
E2
102
}
330
E2
100
AcDbXrecord
280
     1
102
RTVSPropertyOp0
 70
     1
102
RTVSPropertyOp1
 70
     1
102
RTVSPropertyOp2
 70
     1
102
RTVSPropertyOp3
 70
     1
102
RTVSPropertyOp4
 70
     1
102
RTVSPropertyOp5
 70
     1
102
RTVSPropertyOp6
 70
     1
102
RTVSPropertyOp7
 70
     1
102
RTVSPropertyOp8
 70
     1
102
RTVSPropertyOp9
 70
     1
102
RTVSPropertyOp10
 70
     1
102
RTVSPropertyOp11
 70
     1
102
RTVSPropertyOp12
 70
     1
102
RTVSPropertyOp13
 70
     1
102
RTVSPropertyOp14
 70
     1
102
RTVSPropertyOp15
 70
     1
102
RTVSPropertyOp16
 70
     1
102
RTVSPropertyOp17
 70
     1
102
RTVSPropertyOp18
 70
     1
102
RTVSPropertyOp19
 70
     1
102
RTVSPropertyOp20
 70
     1
102
RTVSPropertyOp21
 70
     1
102
RTVSPropertyOp22
 70
     1
102
RTVSPropertyOp23
 70
     1
102
RTVSPropertyOp24
 70
     1
102
RTVSPropertyOp25
 70
     1
102
RTVSPropertyOp26
 70
     1
102
RTVSPropertyOp27
 70
     1
102
RTVSPropertyOp28
 70
     1
102
RTVSPropertyOp29
 70
     1
102
RTVSPropertyOp30
 70
     1
102
RTVSPropertyOp31
 70
     1
102
RTVSPropertyOp32
 70
     1
102
RTVSPropertyOp33
 70
     1
102
RTVSPropertyOp34
 70
     1
102
RTVSPropertyOp35
 70
     1
102
RTVSPropertyOp36
 70
     1
102
RTVSPropertyOp37
 70
     1
102
RTVSPropertyOp38
 70
     1
102
RTVSPropertyOp39
 70
     1
102
RTVSPropertyOp40
 70
     1
102
RTVSPropertyOp41
 70
     1
102
RTVSPropertyOp42
 70
     1
102
RTVSPropertyOp43
 70
     1
102
RTVSPropertyOp44
 70
     1
102
RTVSPropertyOp45
 70
     1
102
RTVSPropertyOp46
 70
     1
102
RTVSPropertyOp47
 70
     1
102
RTVSPropertyOp48
 70
     1
102
RTVSPropertyOp49
 70
     1
102
RTVSPropertyOp50
 70
     1
102
RTVSPropertyOp51
 70
     0
102
RTVSPropertyOp52
 70
     0
102
RTVSPropertyOp53
 70
     1
102
RTVSPropertyOp54
 70
     1
102
RTVSPropertyOp55
 70
     1
102
RTVSPropertyOp56
 70
     1
102
RTVSPropertyOp57
 70
     1
102
RTVSPost2010Prop28
280
     0
102
RTVSPost2010PropOp28
 70
     1
102
RTVSPost2010Prop29
280
     1
102
RTVSPost2010PropOp29
 70
     1
102
RTVSPost2010Prop30
280
     1
102
RTVSPost2010PropOp30
 70
     1
102
RTVSPost2010Prop31
280
     0
102
RTVSPost2010PropOp31
 70
     1
102
RTVSPost2010Prop32
280
     0
102
RTVSPost2010PropOp32
 70
     1
102
RTVSPost2010Prop33
280
     0
102
RTVSPost2010PropOp33
 70
     1
102
RTVSPost2010Prop34
280
     0
102
RTVSPost2010PropOp34
 70
     1
102
RTVSPost2010Prop35
280
     0
102
RTVSPost2010PropOp35
 70
     1
102
RTVSPost2010Prop36
280
     0
102
RTVSPost2010PropOp36
 70
     1
102
RTVSPost2010Prop37
 90
       50
102
RTVSPost2010PropOp37
 70
     1
102
RTVSPost2010Prop38
140
0.0
102
RTVSPost2010PropOp38
 70
     1
102
RTVSPost2010Prop39
140
1.0
102
RTVSPost2010PropOp39
 70
     1
102
RTVSPost2010Prop40
 90
        0
102
RTVSPost2010PropOp40
 70
     1
102
RTVSPost2010Prop41ColorIndex
 90
       18
102
RTVSPost2010Prop41ColorRGB
 90
        0
102
RTVSPost2010PropOp41
 70
     1
102
RTVSPost2010Prop42
 90
       50
102
RTVSPost2010PropOp42
 70
     1
102
RTVSPost2010Prop43
 90
        3
102
RTVSPost2010PropOp43
 70
     1
102
RTVSPost2010Prop44ColorIndex
 90
        5
102
RTVSPost2010Prop44ColorRGB
 90
      255
102
RTVSPost2010PropOp44
 70
     1
102
RTVSPost2010Prop45
280
     0
102
RTVSPost2010PropOp45
 70
     1
102
RTVSPost2010Prop46
 90
       50
102
RTVSPost2010PropOp46
 70
     1
102
RTVSPost2010Prop47
 90
       50
102
RTVSPost2010PropOp47
 70
     1
102
RTVSPost2010Prop48
 90
       50
102
RTVSPost2010PropOp48
 70
     1
102
RTVSPost2010Prop49
280
     0
102
RTVSPost2010PropOp49
 70
     1
102
RTVSPost2010Prop50
 90
       50
102
RTVSPost2010PropOp50
 70
     1
102
RTVSPost2010Prop51ColorIndex
 90
      256
102
RTVSPost2010Prop51ColorRGB
 90
-16777216
102
RTVSPost2010PropOp51
 70
     0
102
RTVSPost2010Prop52
140
1.0
102
RTVSPost2010PropOp52
 70
     0
102
RTVSPost2010Prop53
 90
        2
102
RTVSPost2010PropOp53
 70
     1
102
RTVSPost2010Prop54
  1
strokes_ogs.tif
102
RTVSPost2010PropOp54
 70
     1
102
RTVSPost2010Prop55
280
     0
102
RTVSPost2010PropOp55
 70
     1
102
RTVSPost2010Prop56
140
1.0
102
RTVSPost2010PropOp56
 70
     1
102
RTVSPost2010Prop57
140
1.0
102
RTVSPost2010PropOp57
 70
     1
  0
ENDSEC
  0
EOF
