  0
SECTION
  2
HEADER
  9
$ACADVER
  1
AC1015
  9
$ACADMAINTVER
 70
     6
  9
$DWGCODEPAGE
  3
ANSI_1252
  9
$INSBASE
 10
161.6175065736567
 20
518.1740460109146
 30
0.0
  9
$EXTMIN
 10
144.9890409340325
 20
506.7592871981833
 30
0.0
  9
$EXTMAX
 10
178.3510954944722
 20
526.657122340053
 30
0.0
  9
$LIMMIN
 10
0.0
 20
0.0
  9
$LIMMAX
 10
12.0
 20
9.0
  9
$ORTHOMODE
 70
     0
  9
$REGENMODE
 70
     1
  9
$FILLMODE
 70
     1
  9
$QTEXTMODE
 70
     0
  9
$MIRRTEXT
 70
     1
  9
$LTSCALE
 40
1.0
  9
$ATTMODE
 70
     1
  9
$TEXTSIZE
 40
0.2
  9
$TRACEWID
 40
0.05
  9
$TEXTSTYLE
  7
Standard
  9
$CLAYER
  8
0
  9
$CELTYPE
  6
ByLayer
  9
$CECOLOR
 62
   256
  9
$CELTSCALE
 40
1.0
  9
$DISPSILH
 70
     0
  9
$DIMSCALE
 40
1.0
  9
$DIMASZ
 40
0.18
  9
$DIMEXO
 40
0.0625
  9
$DIMDLI
 40
0.38
  9
$DIMRND
 40
0.0
  9
$DIMDLE
 40
0.0
  9
$DIMEXE
 40
0.18
  9
$DIMTP
 40
0.0
  9
$DIMTM
 40
0.0
  9
$DIMTXT
 40
0.18
  9
$DIMCEN
 40
0.09
  9
$DIMTSZ
 40
0.0
  9
$DIMTOL
 70
     0
  9
$DIMLIM
 70
     0
  9
$DIMTIH
 70
     1
  9
$DIMTOH
 70
     1
  9
$DIMSE1
 70
     0
  9
$DIMSE2
 70
     0
  9
$DIMTAD
 70
     0
  9
$DIMZIN
 70
     0
  9
$DIMBLK
  1

  9
$DIMASO
 70
     1
  9
$DIMSHO
 70
     1
  9
$DIMPOST
  1

  9
$DIMAPOST
  1

  9
$DIMALT
 70
     0
  9
$DIMALTD
 70
     2
  9
$DIMALTF
 40
25.4
  9
$DIMLFAC
 40
1.0
  9
$DIMTOFL
 70
     0
  9
$DIMTVP
 40
0.0
  9
$DIMTIX
 70
     0
  9
$DIMSOXD
 70
     0
  9
$DIMSAH
 70
     0
  9
$DIMBLK1
  1

  9
$DIMBLK2
  1

  9
$DIMSTYLE
  2
Standard
  9
$DIMCLRD
 70
     0
  9
$DIMCLRE
 70
     0
  9
$DIMCLRT
 70
     0
  9
$DIMTFAC
 40
1.0
  9
$DIMGAP
 40
0.09
  9
$DIMJUST
 70
     0
  9
$DIMSD1
 70
     0
  9
$DIMSD2
 70
     0
  9
$DIMTOLJ
 70
     1
  9
$DIMTZIN
 70
     0
  9
$DIMALTZ
 70
     0
  9
$DIMALTTZ
 70
     0
  9
$DIMUPT
 70
     0
  9
$DIMDEC
 70
     4
  9
$DIMTDEC
 70
     4
  9
$DIMALTU
 70
     2
  9
$DIMALTTD
 70
     2
  9
$DIMTXSTY
  7
Standard
  9
$DIMAUNIT
 70
     0
  9
$DIMADEC
 70
     0
  9
$DIMALTRND
 40
0.0
  9
$DIMAZIN
 70
     0
  9
$DIMDSEP
 70
    46
  9
$DIMATFIT
 70
     3
  9
$DIMFRAC
 70
     0
  9
$DIMLDRBLK
  1

  9
$DIMLUNIT
 70
     2
  9
$DIMLWD
 70
    -2
  9
$DIMLWE
 70
    -2
  9
$DIMTMOVE
 70
     0
  9
$LUNITS
 70
     2
  9
$LUPREC
 70
     4
  9
$SKETCHINC
 40
0.1
  9
$FILLETRAD
 40
0.5
  9
$AUNITS
 70
     0
  9
$AUPREC
 70
     0
  9
$MENU
  1
.
  9
$ELEVATION
 40
0.0
  9
$PELEVATION
 40
0.0
  9
$THICKNESS
 40
0.0
  9
$LIMCHECK
 70
     0
  9
$CHAMFERA
 40
0.5
  9
$CHAMFERB
 40
0.5
  9
$CHAMFERC
 40
1.0
  9
$CHAMFERD
 40
0.0
  9
$SKPOLY
 70
     0
  9
$TDCREATE
 40
2458676.485268229
  9
$TDUCREATE
 40
2458676.651934896
  9
$TDUPDATE
 40
2458708.506885324
  9
$TDUUPDATE
 40
2458708.673551991
  9
$TDINDWG
 40
0.0332955324
  9
$TDUSRTIMER
 40
0.0332955324
  9
$USRTIMER
 70
     1
  9
$ANGBASE
 50
0.0
  9
$ANGDIR
 70
     0
  9
$PDMODE
 70
     0
  9
$PDSIZE
 40
0.0
  9
$PLINEWID
 40
0.0
  9
$SPLFRAME
 70
     0
  9
$SPLINETYPE
 70
     6
  9
$SPLINESEGS
 70
     8
  9
$HANDSEED
  5
BF
  9
$SURFTAB1
 70
     6
  9
$SURFTAB2
 70
     6
  9
$SURFTYPE
 70
     6
  9
$SURFU
 70
     6
  9
$SURFV
 70
     6
  9
$UCSBASE
  2

  9
$UCSNAME
  2

  9
$UCSORG
 10
0.0
 20
0.0
 30
0.0
  9
$UCSXDIR
 10
1.0
 20
0.0
 30
0.0
  9
$UCSYDIR
 10
0.0
 20
1.0
 30
0.0
  9
$UCSORTHOREF
  2

  9
$UCSORTHOVIEW
 70
     0
  9
$UCSORGTOP
 10
0.0
 20
0.0
 30
0.0
  9
$UCSORGBOTTOM
 10
0.0
 20
0.0
 30
0.0
  9
$UCSORGLEFT
 10
0.0
 20
0.0
 30
0.0
  9
$UCSORGRIGHT
 10
0.0
 20
0.0
 30
0.0
  9
$UCSORGFRONT
 10
0.0
 20
0.0
 30
0.0
  9
$UCSORGBACK
 10
0.0
 20
0.0
 30
0.0
  9
$PUCSBASE
  2

  9
$PUCSNAME
  2

  9
$PUCSORG
 10
0.0
 20
0.0
 30
0.0
  9
$PUCSXDIR
 10
1.0
 20
0.0
 30
0.0
  9
$PUCSYDIR
 10
0.0
 20
1.0
 30
0.0
  9
$PUCSORTHOREF
  2

  9
$PUCSORTHOVIEW
 70
     0
  9
$PUCSORGTOP
 10
0.0
 20
0.0
 30
0.0
  9
$PUCSORGBOTTOM
 10
0.0
 20
0.0
 30
0.0
  9
$PUCSORGLEFT
 10
0.0
 20
0.0
 30
0.0
  9
$PUCSORGRIGHT
 10
0.0
 20
0.0
 30
0.0
  9
$PUCSORGFRONT
 10
0.0
 20
0.0
 30
0.0
  9
$PUCSORGBACK
 10
0.0
 20
0.0
 30
0.0
  9
$USERI1
 70
     0
  9
$USERI2
 70
     0
  9
$USERI3
 70
     0
  9
$USERI4
 70
     0
  9
$USERI5
 70
     0
  9
$USERR1
 40
0.0
  9
$USERR2
 40
0.0
  9
$USERR3
 40
0.0
  9
$USERR4
 40
0.0
  9
$USERR5
 40
0.0
  9
$WORLDVIEW
 70
     1
  9
$SHADEDGE
 70
     3
  9
$SHADEDIF
 70
    70
  9
$TILEMODE
 70
     1
  9
$MAXACTVP
 70
    64
  9
$PINSBASE
 10
0.0
 20
0.0
 30
0.0
  9
$PLIMCHECK
 70
     0
  9
$PEXTMIN
 10
1.000000000000000E+20
 20
1.000000000000000E+20
 30
1.000000000000000E+20
  9
$PEXTMAX
 10
-1.000000000000000E+20
 20
-1.000000000000000E+20
 30
-1.000000000000000E+20
  9
$PLIMMIN
 10
-0.25
 20
-0.25
  9
$PLIMMAX
 10
10.75
 20
8.25
  9
$UNITMODE
 70
     0
  9
$VISRETAIN
 70
     1
  9
$PLINEGEN
 70
     0
  9
$PSLTSCALE
 70
     1
  9
$TREEDEPTH
 70
  3020
  9
$CMLSTYLE
  2
Standard
  9
$CMLJUST
 70
     0
  9
$CMLSCALE
 40
1.0
  9
$PROXYGRAPHICS
 70
     1
  9
$MEASUREMENT
 70
     0
  9
$CELWEIGHT
370
    -1
  9
$ENDCAPS
280
     0
  9
$JOINSTYLE
280
     0
  9
$LWDISPLAY
290
     1
  9
$INSUNITS
 70
     1
  9
$HYPERLINKBASE
  1

  9
$STYLESHEET
  1

  9
$XEDIT
290
     1
  9
$CEPSNTYPE
380
     0
  9
$PSTYLEMODE
290
     1
  9
$FINGERPRINTGUID
  2
{3FF96223-F9C2-48F7-A4C5-C732E40B2087}
  9
$VERSIONGUID
  2
{FAEB1C32-E019-11D5-929B-00C0DF256EC4}
  9
$EXTNAMES
290
     1
  9
$PSVPSCALE
 40
0.0
  9
$OLESTARTUP
290
     0
  0
ENDSEC
  0
SECTION
  2
CLASSES
  0
CLASS
  1
ACDBDICTIONARYWDFLT
  2
AcDbDictionaryWithDefault
  3
ObjectDBX Classes
 90
        0
280
     0
281
     0
  0
CLASS
  1
MATERIAL
  2
AcDbMaterial
  3
ObjectDBX Classes
 90
     1153
280
     0
281
     0
  0
CLASS
  1
VISUALSTYLE
  2
AcDbVisualStyle
  3
ObjectDBX Classes
 90
     4095
280
     0
281
     0
  0
CLASS
  1
SUN
  2
AcDbSun
  3
SCENEOE
 90
     1153
280
     0
281
     0
  0
CLASS
  1
SCALE
  2
AcDbScale
  3
ObjectDBX Classes
 90
     1153
280
     0
281
     0
  0
CLASS
  1
DICTIONARYVAR
  2
AcDbDictionaryVar
  3
ObjectDBX Classes
 90
        0
280
     0
281
     0
  0
CLASS
  1
MLEADERSTYLE
  2
AcDbMLeaderStyle
  3
ACDB_MLEADERSTYLE_CLASS
 90
     4095
280
     0
281
     0
  0
CLASS
  1
TABLESTYLE
  2
AcDbTableStyle
  3
ObjectDBX Classes
 90
     4095
280
     0
281
     0
  0
CLASS
  1
ACDBPLACEHOLDER
  2
AcDbPlaceHolder
  3
ObjectDBX Classes
 90
        0
280
     0
281
     0
  0
CLASS
  1
LAYOUT
  2
AcDbLayout
  3
ObjectDBX Classes
 90
        0
280
     0
281
     0
  0
ENDSEC
  0
SECTION
  2
TABLES
  0
TABLE
  2
VPORT
  5
1F
102
{ACAD_XDICTIONARY
360
83
102
}
330
0
100
AcDbSymbolTable
 70
     1
  0
VPORT
  5
25
330
1F
100
AcDbSymbolTableRecord
100
AcDbViewportTableRecord
  2
*Active
 70
     0
 10
0.0
 20
0.0
 11
1.0
 21
1.0
 12
161.6700682142524
 22
516.7082047691181
 13
0.0
 23
0.0
 14
0.5
 24
0.5
 15
0.5
 25
0.5
 16
0.0
 26
0.0
 36
1.0
 17
0.0
 27
0.0
 37
0.0
 40
20.29579184470707
 41
1.676667553156989
 42
50.0
 43
0.0
 44
0.0
 50
0.0
 51
0.0
 71
    16
 72
   100
 73
     1
 74
     3
 75
     0
 76
     0
 77
     0
 78
     0
281
     0
 65
     1
110
0.0
120
0.0
130
0.0
111
1.0
121
0.0
131
0.0
112
0.0
122
1.0
132
0.0
 79
     0
146
0.0
  0
ENDTAB
  0
TABLE
  2
LTYPE
  5
9
330
0
100
AcDbSymbolTable
 70
     1
  0
LTYPE
  5
A
330
9
100
AcDbSymbolTableRecord
100
AcDbLinetypeTableRecord
  2
ByBlock
 70
     0
  3

 72
    65
 73
     0
 40
0.0
  0
LTYPE
  5
B
330
9
100
AcDbSymbolTableRecord
100
AcDbLinetypeTableRecord
  2
ByLayer
 70
     0
  3

 72
    65
 73
     0
 40
0.0
  0
LTYPE
  5
8
330
9
100
AcDbSymbolTableRecord
100
AcDbLinetypeTableRecord
  2
Continuous
 70
     0
  3
Solid line
 72
    65
 73
     0
 40
0.0
  0
ENDTAB
  0
TABLE
  2
LAYER
  5
2
330
0
100
AcDbSymbolTable
 70
     2
  0
LAYER
  5
1
330
2
100
AcDbSymbolTableRecord
100
AcDbLayerTableRecord
  2
0
 70
     0
 62
     7
  6
Continuous
370
    -3
390
3
  0
LAYER
  5
4E
330
2
100
AcDbSymbolTableRecord
100
AcDbLayerTableRecord
  2
Layer 1
 70
     0
 62
     7
  6
Continuous
370
    -3
390
3
  0
ENDTAB
  0
TABLE
  2
STYLE
  5
D
330
0
100
AcDbSymbolTable
 70
     1
  0
STYLE
  5
C
330
D
100
AcDbSymbolTableRecord
100
AcDbTextStyleTableRecord
  2
Standard
 70
     0
 40
0.0
 41
1.0
 50
0.0
 71
     0
 42
0.2
  3
txt
  4

  0
ENDTAB
  0
TABLE
  2
VIEW
  5
1D
330
0
100
AcDbSymbolTable
 70
     0
  0
ENDTAB
  0
TABLE
  2
UCS
  5
1E
330
0
100
AcDbSymbolTable
 70
     0
  0
ENDTAB
  0
TABLE
  2
APPID
  5
20
330
0
100
AcDbSymbolTable
 70
     2
  0
APPID
  5
24
330
20
100
AcDbSymbolTableRecord
100
AcDbRegAppTableRecord
  2
ACAD
 70
     0
  0
APPID
  5
BC
330
20
100
AcDbSymbolTableRecord
100
AcDbRegAppTableRecord
  2
ACAD_MLEADERVER
 70
     0
  0
ENDTAB
  0
TABLE
  2
DIMSTYLE
  5
10
330
0
100
AcDbSymbolTable
 70
     1
100
AcDbDimStyleTable
  0
DIMSTYLE
105
F
330
10
100
AcDbSymbolTableRecord
100
AcDbDimStyleTableRecord
  2
Standard
 70
     0
178
     0
340
C
  0
ENDTAB
  0
TABLE
  2
BLOCK_RECORD
  5
13
330
0
100
AcDbSymbolTable
 70
     0
  0
BLOCK_RECORD
  5
14
330
13
100
AcDbSymbolTableRecord
100
AcDbBlockTableRecord
  2
*Model_Space
340
17
  0
BLOCK_RECORD
  5
19
330
13
100
AcDbSymbolTableRecord
100
AcDbBlockTableRecord
  2
*Paper_Space
340
1C
  0
ENDTAB
  0
ENDSEC
  0
SECTION
  2
BLOCKS
  0
BLOCK
  5
15
330
14
100
AcDbEntity
  8
0
100
AcDbBlockBegin
  2
*Model_Space
 70
     0
 10
0.0
 20
0.0
 30
0.0
  3
*Model_Space
  1

  0
ENDBLK
  5
16
330
14
100
AcDbEntity
  8
0
100
AcDbBlockEnd
  0
BLOCK
  5
1A
330
19
100
AcDbEntity
 67
     1
  8
0
100
AcDbBlockBegin
  2
*Paper_Space
 70
     0
 10
0.0
 20
0.0
 30
0.0
  3
*Paper_Space
  1

  0
ENDBLK
  5
1B
330
19
100
AcDbEntity
 67
     1
  8
0
100
AcDbBlockEnd
  0
ENDSEC
  0
SECTION
  2
ENTITIES
  0
SPLINE
  5
4D
330
14
100
AcDbEntity
  8
Layer 1
370
     0
100
AcDbSpline
210
0.0
220
0.0
230
1.0
 70
    11
 71
     3
 72
    35
 73
    31
 74
     0
 42
0.000000001
 43
0.0000000001
 40
0.0
 40
0.0
 40
0.0
 40
0.0
 40
1.0
 40
1.0
 40
1.0
 40
2.0
 40
2.0
 40
2.0
 40
3.0
 40
3.0
 40
3.0
 40
4.0
 40
4.0
 40
4.0
 40
5.0
 40
5.0
 40
5.0
 40
6.0
 40
6.0
 40
6.0
 40
7.0
 40
7.0
 40
7.0
 40
8.0
 40
8.0
 40
8.0
 40
9.0
 40
9.0
 40
9.0
 40
10.0
 40
10.0
 40
10.0
 40
10.0
 10
150.4555961991719
 20
513.3173870325118
 30
0.0
 10
150.4555961991719
 20
513.3173870325118
 30
0.0
 10
151.4608961737758
 20
513.5126870275781
 30
0.0
 10
151.4608961737758
 20
513.5126870275781
 30
0.0
 10
151.3051961777091
 20
513.5834870257895
 30
0.0
 10
151.1327961820643
 20
513.6229999999996
 30
0.0
 10
150.9511961866519
 20
513.6229999999996
 30
0.0
 10
150.6107961952512
 20
513.6229999999996
 30
0.0
 10
150.3031962030218
 20
513.4853870282677
 30
0.0
 10
150.0800962086578
 20
513.2616870339189
 30
0.0
 10
149.857896214271
 20
513.0395870395296
 30
0.0
 10
149.7196962177622
 20
512.7309999999998
 30
0.0
 10
149.7196962177622
 20
512.3905870559247
 30
0.0
 10
149.7196962177622
 20
512.0507870645088
 30
0.0
 10
149.857896214271
 20
511.7421870723047
 30
0.0
 10
150.0800962086578
 20
511.5200000000004
 30
0.0
 10
150.3031962030218
 20
511.2968870835539
 30
0.0
 10
150.6107961952512
 20
511.1586870870451
 30
0.0
 10
150.9511961866519
 20
511.1586870870451
 30
0.0
 10
151.2920000000004
 20
511.1586870870451
 30
0.0
 10
151.599596170272
 20
511.2968870835539
 30
0.0
 10
151.8231961646234
 20
511.5200000000004
 30
0.0
 10
151.875
 20
511.5717870766093
 30
0.0
 10
151.9223961621174
 20
511.6283870751795
 30
0.0
 10
151.963896161069
 20
511.6884870736612
 30
0.0
 10
151.963896161069
 20
511.6884870736612
 30
0.0
 10
150.8178961900194
 20
511.4652870792997
 30
0.0
 10
150.8178961900194
 20
511.4652870792997
 30
0.0
 10
150.8178961900194
 20
511.4652870792997
 30
0.0
 10
150.4555961991719
 20
513.3173870325118
 30
0.0
 10
150.4555961991719
 20
513.3173870325118
 30
0.0
  0
SPLINE
  5
4F
330
14
100
AcDbEntity
  8
Layer 1
370
     0
100
AcDbSpline
210
0.0
220
0.0
230
1.0
 70
    11
 71
     3
 72
    68
 73
    64
 74
     0
 42
0.000000001
 43
0.0000000001
 40
0.0
 40
0.0
 40
0.0
 40
0.0
 40
1.0
 40
1.0
 40
1.0
 40
2.0
 40
2.0
 40
2.0
 40
3.0
 40
3.0
 40
3.0
 40
4.0
 40
4.0
 40
4.0
 40
5.0
 40
5.0
 40
5.0
 40
6.0
 40
6.0
 40
6.0
 40
7.0
 40
7.0
 40
7.0
 40
8.0
 40
8.0
 40
8.0
 40
9.0
 40
9.0
 40
9.0
 40
10.0
 40
10.0
 40
10.0
 40
11.0
 40
11.0
 40
11.0
 40
12.0
 40
12.0
 40
12.0
 40
13.0
 40
13.0
 40
13.0
 40
14.0
 40
14.0
 40
14.0
 40
15.0
 40
15.0
 40
15.0
 40
16.0
 40
16.0
 40
16.0
 40
17.0
 40
17.0
 40
17.0
 40
18.0
 40
18.0
 40
18.0
 40
19.0
 40
19.0
 40
19.0
 40
20.0
 40
20.0
 40
20.0
 40
21.0
 40
21.0
 40
21.0
 40
21.0
 10
171.3510956713071
 20
513.7934870204845
 30
0.0
 10
171.3510956713071
 20
513.7934870204845
 30
0.0
 10
170.464395693707
 20
515.6440000000002
 30
0.0
 10
170.464395693707
 20
515.6440000000002
 30
0.0
 10
170.2700000000004
 20
515.508286977165
 30
0.0
 10
170.0868957032435
 20
515.3563869810023
 30
0.0
 10
169.9203957074496
 20
515.1894869852185
 30
0.0
 10
169.2045957255323
 20
514.4735870033037
 30
0.0
 10
168.7616957367209
 20
513.4838870283056
 30
0.0
 10
168.7616957367209
 20
512.3905870559247
 30
0.0
 10
168.7616957367209
 20
511.2973870835413
 30
0.0
 10
169.2045957255323
 20
510.3080871085331
 30
0.0
 10
169.9203957074496
 20
509.5927871266031
 30
0.0
 10
170.6366956893544
 20
508.8764871446983
 30
0.0
 10
171.6264956643499
 20
508.4325871559122
 30
0.0
 10
172.7196956367334
 20
508.4325871559122
 30
0.0
 10
173.8119999999999
 20
508.4325871559122
 30
0.0
 10
174.802195584125
 20
508.8764871446983
 30
0.0
 10
175.5175955660525
 20
509.5927871266031
 30
0.0
 10
176.2338955479572
 20
510.3080871085331
 30
0.0
 10
176.6776955367459
 20
511.2973870835413
 30
0.0
 10
176.6776955367459
 20
512.3905870559247
 30
0.0
 10
176.6776955367459
 20
513.4838870283056
 30
0.0
 10
176.2338955479572
 20
514.4735870033037
 30
0.0
 10
175.5175955660525
 20
515.1894869852185
 30
0.0
 10
174.802195584125
 20
515.9057869671233
 30
0.0
 10
173.8119999999999
 20
516.3485869559372
 30
0.0
 10
172.7196956367334
 20
516.3485869559372
 30
0.0
 10
172.3285956466134
 20
516.3485869559372
 30
0.0
 10
171.9511956561473
 20
516.2924869573544
 30
0.0
 10
171.5946956651533
 20
516.1864869600322
 30
0.0
 10
171.5946956651533
 20
516.1864869600322
 30
0.0
 10
172.4823956427281
 20
514.3353870067949
 30
0.0
 10
172.4823956427281
 20
514.3353870067949
 30
0.0
 10
172.5600956407652
 20
514.3451870065473
 30
0.0
 10
172.6386956387796
 20
514.3500870064236
 30
0.0
 10
172.7196956367334
 20
514.3500870064236
 30
0.0
 10
173.2602956230767
 20
514.3500870064236
 30
0.0
 10
173.7494956107184
 20
514.130887011961
 30
0.0
 10
174.1044956017504
 20
513.7758870209291
 30
0.0
 10
174.4594955927823
 20
513.4218870298719
 30
0.0
 10
174.6781955872575
 20
512.9315870422579
 30
0.0
 10
174.6781955872575
 20
512.3905870559247
 30
0.0
 10
174.6781955872575
 20
511.8500870695789
 30
0.0
 10
174.4594955927823
 20
511.3607870819396
 30
0.0
 10
174.1044956017504
 20
511.0058870909052
 30
0.0
 10
173.7494956107184
 20
510.6508870998732
 30
0.0
 10
173.2602956230767
 20
510.4320871054006
 30
0.0
 10
172.7196956367334
 20
510.4320871054006
 30
0.0
 10
172.1781956504128
 20
510.4320871054006
 30
0.0
 10
171.6884956627837
 20
510.6508870998732
 30
0.0
 10
171.3344956717265
 20
511.0058870909052
 30
0.0
 10
170.9794956806945
 20
511.3607870819396
 30
0.0
 10
170.7597956862446
 20
511.8500870695789
 30
0.0
 10
170.7597956862446
 20
512.3905870559247
 30
0.0
 10
170.7597956862446
 20
512.9315870422579
 30
0.0
 10
170.9794956806945
 20
513.4218870298719
 30
0.0
 10
171.3344956717265
 20
513.7758870209291
 30
0.0
 10
171.3344956717265
 20
513.7758870209291
 30
0.0
 10
171.3510956713071
 20
513.7934870204845
 30
0.0
 10
171.3510956713071
 20
513.7934870204845
 30
0.0
 10
171.3510956713071
 20
513.7934870204845
 30
0.0
 10
171.3510956713071
 20
513.7934870204845
 30
0.0
 10
171.3510956713071
 20
513.7934870204845
 30
0.0
  0
SPLINE
  5
50
330
14
100
AcDbEntity
  8
Layer 1
370
     0
100
AcDbSpline
210
0.0
220
0.0
230
1.0
 70
    11
 71
     3
 72
    38
 73
    34
 74
     0
 42
0.000000001
 43
0.0000000001
 40
0.0
 40
0.0
 40
0.0
 40
0.0
 40
1.0
 40
1.0
 40
1.0
 40
2.0
 40
2.0
 40
2.0
 40
3.0
 40
3.0
 40
3.0
 40
4.0
 40
4.0
 40
4.0
 40
5.0
 40
5.0
 40
5.0
 40
6.0
 40
6.0
 40
6.0
 40
7.0
 40
7.0
 40
7.0
 40
8.0
 40
8.0
 40
8.0
 40
9.0
 40
9.0
 40
9.0
 40
10.0
 40
10.0
 40
10.0
 40
11.0
 40
11.0
 40
11.0
 40
11.0
 10
172.1532956510418
 20
512.1205870627455
 30
0.0
 10
172.1532956510418
 20
512.1205870627455
 30
0.0
 10
171.6957956625993
 20
513.0766870385924
 30
0.0
 10
171.6957956625993
 20
513.0766870385924
 30
0.0
 10
171.5640000000003
 20
512.8798870435639
 30
0.0
 10
171.4867956678791
 20
512.6444870495106
 30
0.0
 10
171.4867956678791
 20
512.3905870559247
 30
0.0
 10
171.4867956678791
 20
512.0507870645088
 30
0.0
 10
171.625
 20
511.7421870723047
 30
0.0
 10
171.8485956587392
 20
511.5200000000004
 30
0.0
 10
172.070795653126
 20
511.2968870835539
 30
0.0
 10
172.3793956453301
 20
511.1586870870451
 30
0.0
 10
172.7196956367334
 20
511.1586870870451
 30
0.0
 10
173.0595956281468
 20
511.1586870870451
 30
0.0
 10
173.3681956203509
 20
511.2968870835539
 30
0.0
 10
173.5902956147402
 20
511.5200000000004
 30
0.0
 10
173.8134956091017
 20
511.7421870723047
 30
0.0
 10
173.9516956056104
 20
512.0507870645088
 30
0.0
 10
173.9516956056104
 20
512.3905870559247
 30
0.0
 10
173.9516956056104
 20
512.7309999999998
 30
0.0
 10
173.8134956091017
 20
513.0395870395296
 30
0.0
 10
173.5902956147402
 20
513.2616870339189
 30
0.0
 10
173.3910956197724
 20
513.4608870288866
 30
0.0
 10
173.1244956265073
 20
513.5922870255672
 30
0.0
 10
172.8256956340556
 20
513.6186870249003
 30
0.0
 10
172.8256956340556
 20
513.6186870249003
 30
0.0
 10
173.2855956224375
 20
512.6615870490787
 30
0.0
 10
173.2855956224375
 20
512.6615870490787
 30
0.0
 10
173.2855956224375
 20
512.6615870490787
 30
0.0
 10
172.1532956510418
 20
512.1205870627455
 30
0.0
 10
172.1532956510418
 20
512.1205870627455
 30
0.0
 10
172.1532956510418
 20
512.1205870627455
 30
0.0
 10
172.1532956510418
 20
512.1205870627455
 30
0.0
 10
172.1532956510418
 20
512.1205870627455
 30
0.0
  0
SPLINE
  5
51
330
14
100
AcDbEntity
  8
Layer 1
370
     0
100
AcDbSpline
210
0.0
220
0.0
230
1.0
 70
    11
 71
     3
 72
    29
 73
    25
 74
     0
 42
0.000000001
 43
0.0000000001
 40
0.0
 40
0.0
 40
0.0
 40
0.0
 40
1.0
 40
1.0
 40
1.0
 40
2.0
 40
2.0
 40
2.0
 40
3.0
 40
3.0
 40
3.0
 40
4.0
 40
4.0
 40
4.0
 40
5.0
 40
5.0
 40
5.0
 40
6.0
 40
6.0
 40
6.0
 40
7.0
 40
7.0
 40
7.0
 40
8.0
 40
8.0
 40
8.0
 40
8.0
 10
170.4170000000004
 20
520.2724868568112
 30
0.0
 10
170.1884957006769
 20
520.2020868585896
 30
0.0
 10
169.9677957062522
 20
520.1176868607217
 30
0.0
 10
169.7572957115699
 20
520.0194868632025
 30
0.0
 10
169.7572957115699
 20
520.0194868632025
 30
0.0
 10
170.9628956811139
 20
517.5048869267266
 30
0.0
 10
170.9628956811139
 20
517.5048869267266
 30
0.0
 10
170.9628956811139
 20
517.5048869267266
 30
0.0
 10
171.0238956795729
 20
517.5263869261835
 30
0.0
 10
171.0238956795729
 20
517.5263869261835
 30
0.0
 10
171.0238956795729
 20
517.5263869261835
 30
0.0
 10
170.9633956811012
 20
517.7504869205222
 30
0.0
 10
170.9633956811012
 20
517.7504869205222
 30
0.0
 10
170.9633956811012
 20
517.7504869205222
 30
0.0
 10
171.231395674331
 20
517.8222869187084
 30
0.0
 10
171.231395674331
 20
517.8222869187084
 30
0.0
 10
171.0878956779561
 20
518.0487869129865
 30
0.0
 10
170.9530956813614
 20
518.2904869068807
 30
0.0
 10
170.8627956836426
 20
518.518086901131
 30
0.0
 10
170.6049999999996
 20
519.1615868848749
 30
0.0
 10
170.4838956932144
 20
519.7416868702203
 30
0.0
 10
170.4170000000004
 20
520.2724868568112
 30
0.0
 10
170.4170000000004
 20
520.2724868568112
 30
0.0
 10
170.4170000000004
 20
520.2724868568112
 30
0.0
 10
170.4170000000004
 20
520.2724868568112
 30
0.0
  0
SPLINE
  5
52
330
14
100
AcDbEntity
  8
Layer 1
370
     0
100
AcDbSpline
210
0.0
220
0.0
230
1.0
 70
    11
 71
     3
 72
    20
 73
    16
 74
     0
 42
0.000000001
 43
0.0000000001
 40
0.0
 40
0.0
 40
0.0
 40
0.0
 40
1.0
 40
1.0
 40
1.0
 40
2.0
 40
2.0
 40
2.0
 40
3.0
 40
3.0
 40
3.0
 40
4.0
 40
4.0
 40
4.0
 40
5.0
 40
5.0
 40
5.0
 40
5.0
 10
167.9208957579613
 20
524.6078867472897
 30
0.0
 10
167.9208957579613
 20
524.6078867472897
 30
0.0
 10
167.5570957671516
 20
524.6078867472897
 30
0.0
 10
167.5570957671516
 20
524.6078867472897
 30
0.0
 10
167.5570957671516
 20
524.6078867472897
 30
0.0
 10
169.2143957252847
 20
521.1508868346209
 30
0.0
 10
169.2143957252847
 20
521.1508868346209
 30
0.0
 10
169.5673957163672
 20
521.2816868313166
 30
0.0
 10
169.9359999999997
 20
521.3852868286995
 30
0.0
 10
170.3168956974332
 20
521.4623868267518
 30
0.0
 10
170.2270956997017
 20
522.7157867950882
 30
0.0
 10
170.0410000000002
 20
523.6698867709856
 30
0.0
 10
167.9208957579613
 20
524.6078867472897
 30
0.0
 10
167.9208957579613
 20
524.6078867472897
 30
0.0
 10
167.9208957579613
 20
524.6078867472897
 30
0.0
 10
167.9208957579613
 20
524.6078867472897
 30
0.0
  0
SPLINE
  5
53
330
14
100
AcDbEntity
  8
Layer 1
370
     0
100
AcDbSpline
210
0.0
220
0.0
230
1.0
 70
    11
 71
     3
 72
    23
 73
    19
 74
     0
 42
0.000000001
 43
0.0000000001
 40
0.0
 40
0.0
 40
0.0
 40
0.0
 40
1.0
 40
1.0
 40
1.0
 40
2.0
 40
2.0
 40
2.0
 40
3.0
 40
3.0
 40
3.0
 40
4.0
 40
4.0
 40
4.0
 40
5.0
 40
5.0
 40
5.0
 40
6.0
 40
6.0
 40
6.0
 40
6.0
 10
154.4633960979263
 20
514.2172870097784
 30
0.0
 10
153.6176961192905
 20
514.1371870118019
 30
0.0
 10
152.7577961410134
 20
514.0640000000003
 30
0.0
 10
152.0390961591693
 20
514.02048701475
 30
0.0
 10
152.1464961564561
 20
513.9491870165512
 30
0.0
 10
152.2455961539526
 20
513.8671870186226
 30
0.0
 10
152.3363961516588
 20
513.7758870209291
 30
0.0
 10
152.3617961510172
 20
513.7510000000002
 30
0.0
 10
152.3861961504008
 20
513.7250870222124
 30
0.0
 10
152.4101961497945
 20
513.698187022892
 30
0.0
 10
152.4101961497945
 20
513.698187022892
 30
0.0
 10
154.5180960965445
 20
514.1093870125042
 30
0.0
 10
154.5180960965445
 20
514.1093870125042
 30
0.0
 10
154.5010000000002
 20
514.1454870115922
 30
0.0
 10
154.481896097459
 20
514.180687010703
 30
0.0
 10
154.4633960979263
 20
514.2172870097784
 30
0.0
 10
154.4633960979263
 20
514.2172870097784
 30
0.0
 10
154.4633960979263
 20
514.2172870097784
 30
0.0
 10
154.4633960979263
 20
514.2172870097784
 30
0.0
  0
SPLINE
  5
54
330
14
100
AcDbEntity
  8
Layer 1
370
     0
100
AcDbSpline
210
0.0
220
0.0
230
1.0
 70
    11
 71
     3
 72
    20
 73
    16
 74
     0
 42
0.000000001
 43
0.0000000001
 40
0.0
 40
0.0
 40
0.0
 40
0.0
 40
1.0
 40
1.0
 40
1.0
 40
2.0
 40
2.0
 40
2.0
 40
3.0
 40
3.0
 40
3.0
 40
4.0
 40
4.0
 40
4.0
 40
5.0
 40
5.0
 40
5.0
 40
5.0
 10
152.5770961455783
 20
511.2968870835539
 30
0.0
 10
152.5770961455783
 20
511.2968870835539
 30
0.0
 10
154.8832960873187
 20
511.9384870673457
 30
0.0
 10
154.8832960873187
 20
511.9384870673457
 30
0.0
 10
154.8954960870105
 20
512.0453870646452
 30
0.0
 10
154.9037960868009
 20
512.1532870619194
 30
0.0
 10
154.9076960867023
 20
512.2621870591684
 30
0.0
 10
154.9076960867023
 20
512.2621870591684
 30
0.0
 10
152.8378961389899
 20
511.8588870693566
 30
0.0
 10
152.8378961389899
 20
511.8588870693566
 30
0.0
 10
152.780296140445
 20
511.6557870744873
 30
0.0
 10
152.6918961426782
 20
511.4672870792492
 30
0.0
 10
152.5770961455783
 20
511.2968870835539
 30
0.0
 10
152.5770961455783
 20
511.2968870835539
 30
0.0
 10
152.5770961455783
 20
511.2968870835539
 30
0.0
 10
152.5770961455783
 20
511.2968870835539
 30
0.0
  0
POLYLINE
  5
55
330
14
100
AcDbEntity
  8
Layer 1
370
     0
100
AcDb2dPolyline
 66
     1
 10
0.0
 20
0.0
 30
0.0
  0
VERTEX
  5
56
330
55
100
AcDbEntity
  8
Layer 1
370
     0
100
AcDbVertex
100
AcDb2dVertex
 10
157.8197960131365
 20
512.7548870467217
 30
0.0
  0
VERTEX
  5
57
330
55
100
AcDbEntity
  8
Layer 1
370
     0
100
AcDbVertex
100
AcDb2dVertex
 10
157.8051960135053
 20
512.8270870448978
 30
0.0
  0
VERTEX
  5
58
330
55
100
AcDbEntity
  8
Layer 1
370
     0
100
AcDbVertex
100
AcDb2dVertex
 10
156.5824960443933
 20
512.5893870509026
 30
0.0
  0
VERTEX
  5
59
330
55
100
AcDbEntity
  8
Layer 1
370
     0
100
AcDbVertex
100
AcDb2dVertex
 10
156.5824960443933
 20
512.4110870554068
 30
0.0
  0
VERTEX
  5
5A
330
55
100
AcDbEntity
  8
Layer 1
370
     0
100
AcDbVertex
100
AcDb2dVertex
 10
157.8197960131365
 20
512.7548870467217
 30
0.0
  0
VERTEX
  5
5B
330
55
100
AcDbEntity
  8
Layer 1
370
     0
100
AcDbVertex
100
AcDb2dVertex
 10
157.8197960131365
 20
512.7548870467217
 30
0.0
  0
SEQEND
  5
5C
330
55
100
AcDbEntity
  8
Layer 1
370
     0
  0
SPLINE
  5
5D
330
14
100
AcDbEntity
  8
Layer 1
370
     0
100
AcDbSpline
210
0.0
220
0.0
230
1.0
 70
    11
 71
     3
 72
    56
 73
    52
 74
     0
 42
0.000000001
 43
0.0000000001
 40
0.0
 40
0.0
 40
0.0
 40
0.0
 40
1.0
 40
1.0
 40
1.0
 40
2.0
 40
2.0
 40
2.0
 40
3.0
 40
3.0
 40
3.0
 40
4.0
 40
4.0
 40
4.0
 40
5.0
 40
5.0
 40
5.0
 40
6.0
 40
6.0
 40
6.0
 40
7.0
 40
7.0
 40
7.0
 40
8.0
 40
8.0
 40
8.0
 40
9.0
 40
9.0
 40
9.0
 40
10.0
 40
10.0
 40
10.0
 40
11.0
 40
11.0
 40
11.0
 40
12.0
 40
12.0
 40
12.0
 40
13.0
 40
13.0
 40
13.0
 40
14.0
 40
14.0
 40
14.0
 40
15.0
 40
15.0
 40
15.0
 40
16.0
 40
16.0
 40
16.0
 40
17.0
 40
17.0
 40
17.0
 40
17.0
 10
151.6698961684961
 20
514.2143870098516
 30
0.0
 10
152.3760000000002
 20
514.2797870081995
 30
0.0
 10
153.3397961263108
 20
514.3812870056354
 30
0.0
 10
154.3085961018369
 20
514.487787002945
 30
0.0
 10
154.1493961058586
 20
514.7421869965183
 30
0.0
 10
153.9613961106079
 20
514.9774869905741
 30
0.0
 10
153.75
 20
515.1894869852185
 30
0.0
 10
153.0336961340436
 20
515.9057869671233
 30
0.0
 10
152.0443961590354
 20
516.3485869559372
 30
0.0
 10
150.9511961866519
 20
516.3485869559372
 30
0.0
 10
149.8588962142458
 20
516.3485869559372
 30
0.0
 10
148.8695962392376
 20
515.9057869671233
 30
0.0
 10
148.1532962573328
 20
515.1894869852185
 30
0.0
 10
147.4369999999999
 20
514.4735870033037
 30
0.0
 10
146.9940962866167
 20
513.4838870283056
 30
0.0
 10
146.9940962866167
 20
512.3905870559247
 30
0.0
 10
146.9940962866167
 20
511.2973870835413
 30
0.0
 10
147.4369999999999
 20
510.3080871085331
 30
0.0
 10
148.1532962573328
 20
509.5927871266031
 30
0.0
 10
148.8695962392376
 20
508.8764871446983
 30
0.0
 10
149.8588962142458
 20
508.4325871559122
 30
0.0
 10
150.9511961866519
 20
508.4325871559122
 30
0.0
 10
152.0443961590354
 20
508.4325871559122
 30
0.0
 10
153.0336961340436
 20
508.8764871446983
 30
0.0
 10
153.75
 20
509.5927871266031
 30
0.0
 10
154.2885961023421
 20
510.1303871130222
 30
0.0
 10
154.6718960926592
 20
510.8231870955206
 30
0.0
 10
154.8295960886753
 20
511.597687075955
 30
0.0
 10
154.8295960886753
 20
511.597687075955
 30
0.0
 10
152.1723961558018
 20
510.8583870946313
 30
0.0
 10
152.1723961558018
 20
510.8583870946313
 30
0.0
 10
151.8368961642773
 20
510.5912871013788
 30
0.0
 10
151.412596174996
 20
510.4320871054006
 30
0.0
 10
150.9511961866519
 20
510.4320871054006
 30
0.0
 10
150.4101962003188
 20
510.4320871054006
 30
0.0
 10
149.9208962126795
 20
510.6508870998732
 30
0.0
 10
149.5658962216476
 20
511.0058870909052
 30
0.0
 10
149.2118962305904
 20
511.3607870819396
 30
0.0
 10
148.9926962361278
 20
511.8500870695789
 30
0.0
 10
148.9926962361278
 20
512.3905870559247
 30
0.0
 10
148.9926962361278
 20
512.9315870422579
 30
0.0
 10
149.2118962305904
 20
513.4218870298719
 30
0.0
 10
149.5658962216476
 20
513.7758870209291
 30
0.0
 10
149.9208962126795
 20
514.130887011961
 30
0.0
 10
150.4101962003188
 20
514.3500870064236
 30
0.0
 10
150.9511961866519
 20
514.3500870064236
 30
0.0
 10
151.2050961802379
 20
514.3500870064236
 30
0.0
 10
151.4477961741068
 20
514.3021870076336
 30
0.0
 10
151.6698961684961
 20
514.2143870098516
 30
0.0
 10
151.6698961684961
 20
514.2143870098516
 30
0.0
 10
151.6698961684961
 20
514.2143870098516
 30
0.0
 10
151.6698961684961
 20
514.2143870098516
 30
0.0
  0
HATCH
  5
5E
330
14
100
AcDbEntity
  8
Layer 1
 62
     7
100
AcDbHatch
 10
0.0
 20
0.0
 30
0.0
210
0.0
220
0.0
230
1.0
  2
SOLID
 70
     1
 71
     0
 91
       10
 92
        1
 93
        1
 72
     4
 94
        3
 73
     0
 74
     1
 95
      659
 96
      655
 40
0.0
 40
0.0
 40
0.0
 40
0.0
 40
1.0
 40
1.0
 40
1.0
 40
2.0
 40
2.0
 40
2.0
 40
3.0
 40
3.0
 40
3.0
 40
4.0
 40
4.0
 40
4.0
 40
5.0
 40
5.0
 40
5.0
 40
6.0
 40
6.0
 40
6.0
 40
7.0
 40
7.0
 40
7.0
 40
8.0
 40
8.0
 40
8.0
 40
9.0
 40
9.0
 40
9.0
 40
10.0
 40
10.0
 40
10.0
 40
11.0
 40
11.0
 40
11.0
 40
12.0
 40
12.0
 40
12.0
 40
13.0
 40
13.0
 40
13.0
 40
14.0
 40
14.0
 40
14.0
 40
15.0
 40
15.0
 40
15.0
 40
16.0
 40
16.0
 40
16.0
 40
17.0
 40
17.0
 40
17.0
 40
18.0
 40
18.0
 40
18.0
 40
19.0
 40
19.0
 40
19.0
 40
20.0
 40
20.0
 40
20.0
 40
21.0
 40
21.0
 40
21.0
 40
22.0
 40
22.0
 40
22.0
 40
23.0
 40
23.0
 40
23.0
 40
24.0
 40
24.0
 40
24.0
 40
25.0
 40
25.0
 40
25.0
 40
26.0
 40
26.0
 40
26.0
 40
27.0
 40
27.0
 40
27.0
 40
28.0
 40
28.0
 40
28.0
 40
29.0
 40
29.0
 40
29.0
 40
30.0
 40
30.0
 40
30.0
 40
31.0
 40
31.0
 40
31.0
 40
32.0
 40
32.0
 40
32.0
 40
33.0
 40
33.0
 40
33.0
 40
34.0
 40
34.0
 40
34.0
 40
35.0
 40
35.0
 40
35.0
 40
36.0
 40
36.0
 40
36.0
 40
37.0
 40
37.0
 40
37.0
 40
38.0
 40
38.0
 40
38.0
 40
39.0
 40
39.0
 40
39.0
 40
40.0
 40
40.0
 40
40.0
 40
41.0
 40
41.0
 40
41.0
 40
42.0
 40
42.0
 40
42.0
 40
43.0
 40
43.0
 40
43.0
 40
44.0
 40
44.0
 40
44.0
 40
45.0
 40
45.0
 40
45.0
 40
46.0
 40
46.0
 40
46.0
 40
47.0
 40
47.0
 40
47.0
 40
48.0
 40
48.0
 40
48.0
 40
49.0
 40
49.0
 40
49.0
 40
50.0
 40
50.0
 40
50.0
 40
51.0
 40
51.0
 40
51.0
 40
52.0
 40
52.0
 40
52.0
 40
53.0
 40
53.0
 40
53.0
 40
54.0
 40
54.0
 40
54.0
 40
55.0
 40
55.0
 40
55.0
 40
56.0
 40
56.0
 40
56.0
 40
57.0
 40
57.0
 40
57.0
 40
58.0
 40
58.0
 40
58.0
 40
59.0
 40
59.0
 40
59.0
 40
60.0
 40
60.0
 40
60.0
 40
61.0
 40
61.0
 40
61.0
 40
62.0
 40
62.0
 40
62.0
 40
63.0
 40
63.0
 40
63.0
 40
64.0
 40
64.0
 40
64.0
 40
65.0
 40
65.0
 40
65.0
 40
66.0
 40
66.0
 40
66.0
 40
67.0
 40
67.0
 40
67.0
 40
68.0
 40
68.0
 40
68.0
 40
69.0
 40
69.0
 40
69.0
 40
70.0
 40
70.0
 40
70.0
 40
71.0
 40
71.0
 40
71.0
 40
72.0
 40
72.0
 40
72.0
 40
73.0
 40
73.0
 40
73.0
 40
74.0
 40
74.0
 40
74.0
 40
75.0
 40
75.0
 40
75.0
 40
76.0
 40
76.0
 40
76.0
 40
77.0
 40
77.0
 40
77.0
 40
78.0
 40
78.0
 40
78.0
 40
79.0
 40
79.0
 40
79.0
 40
80.0
 40
80.0
 40
80.0
 40
81.0
 40
81.0
 40
81.0
 40
82.0
 40
82.0
 40
82.0
 40
83.0
 40
83.0
 40
83.0
 40
84.0
 40
84.0
 40
84.0
 40
85.0
 40
85.0
 40
85.0
 40
86.0
 40
86.0
 40
86.0
 40
87.0
 40
87.0
 40
87.0
 40
88.0
 40
88.0
 40
88.0
 40
89.0
 40
89.0
 40
89.0
 40
90.0
 40
90.0
 40
90.0
 40
91.0
 40
91.0
 40
91.0
 40
92.0
 40
92.0
 40
92.0
 40
93.0
 40
93.0
 40
93.0
 40
94.0
 40
94.0
 40
94.0
 40
95.0
 40
95.0
 40
95.0
 40
96.0
 40
96.0
 40
96.0
 40
97.0
 40
97.0
 40
97.0
 40
98.0
 40
98.0
 40
98.0
 40
99.0
 40
99.0
 40
99.0
 40
100.0
 40
100.0
 40
100.0
 40
101.0
 40
101.0
 40
101.0
 40
102.0
 40
102.0
 40
102.0
 40
103.0
 40
103.0
 40
103.0
 40
104.0
 40
104.0
 40
104.0
 40
105.0
 40
105.0
 40
105.0
 40
106.0
 40
106.0
 40
106.0
 40
107.0
 40
107.0
 40
107.0
 40
108.0
 40
108.0
 40
108.0
 40
109.0
 40
109.0
 40
109.0
 40
110.0
 40
110.0
 40
110.0
 40
111.0
 40
111.0
 40
111.0
 40
112.0
 40
112.0
 40
112.0
 40
113.0
 40
113.0
 40
113.0
 40
114.0
 40
114.0
 40
114.0
 40
115.0
 40
115.0
 40
115.0
 40
116.0
 40
116.0
 40
116.0
 40
117.0
 40
117.0
 40
117.0
 40
118.0
 40
118.0
 40
118.0
 40
119.0
 40
119.0
 40
119.0
 40
120.0
 40
120.0
 40
120.0
 40
121.0
 40
121.0
 40
121.0
 40
122.0
 40
122.0
 40
122.0
 40
123.0
 40
123.0
 40
123.0
 40
124.0
 40
124.0
 40
124.0
 40
125.0
 40
125.0
 40
125.0
 40
126.0
 40
126.0
 40
126.0
 40
127.0
 40
127.0
 40
127.0
 40
128.0
 40
128.0
 40
128.0
 40
129.0
 40
129.0
 40
129.0
 40
130.0
 40
130.0
 40
130.0
 40
131.0
 40
131.0
 40
131.0
 40
132.0
 40
132.0
 40
132.0
 40
133.0
 40
133.0
 40
133.0
 40
134.0
 40
134.0
 40
134.0
 40
135.0
 40
135.0
 40
135.0
 40
136.0
 40
136.0
 40
136.0
 40
137.0
 40
137.0
 40
137.0
 40
138.0
 40
138.0
 40
138.0
 40
139.0
 40
139.0
 40
139.0
 40
140.0
 40
140.0
 40
140.0
 40
141.0
 40
141.0
 40
141.0
 40
142.0
 40
142.0
 40
142.0
 40
143.0
 40
143.0
 40
143.0
 40
144.0
 40
144.0
 40
144.0
 40
145.0
 40
145.0
 40
145.0
 40
146.0
 40
146.0
 40
146.0
 40
147.0
 40
147.0
 40
147.0
 40
148.0
 40
148.0
 40
148.0
 40
149.0
 40
149.0
 40
149.0
 40
150.0
 40
150.0
 40
150.0
 40
151.0
 40
151.0
 40
151.0
 40
152.0
 40
152.0
 40
152.0
 40
153.0
 40
153.0
 40
153.0
 40
154.0
 40
154.0
 40
154.0
 40
155.0
 40
155.0
 40
155.0
 40
156.0
 40
156.0
 40
156.0
 40
157.0
 40
157.0
 40
157.0
 40
158.0
 40
158.0
 40
158.0
 40
159.0
 40
159.0
 40
159.0
 40
160.0
 40
160.0
 40
160.0
 40
161.0
 40
161.0
 40
161.0
 40
162.0
 40
162.0
 40
162.0
 40
163.0
 40
163.0
 40
163.0
 40
164.0
 40
164.0
 40
164.0
 40
165.0
 40
165.0
 40
165.0
 40
166.0
 40
166.0
 40
166.0
 40
167.0
 40
167.0
 40
167.0
 40
168.0
 40
168.0
 40
168.0
 40
169.0
 40
169.0
 40
169.0
 40
170.0
 40
170.0
 40
170.0
 40
171.0
 40
171.0
 40
171.0
 40
172.0
 40
172.0
 40
172.0
 40
173.0
 40
173.0
 40
173.0
 40
174.0
 40
174.0
 40
174.0
 40
175.0
 40
175.0
 40
175.0
 40
176.0
 40
176.0
 40
176.0
 40
177.0
 40
177.0
 40
177.0
 40
178.0
 40
178.0
 40
178.0
 40
179.0
 40
179.0
 40
179.0
 40
180.0
 40
180.0
 40
180.0
 40
181.0
 40
181.0
 40
181.0
 40
182.0
 40
182.0
 40
182.0
 40
183.0
 40
183.0
 40
183.0
 40
184.0
 40
184.0
 40
184.0
 40
185.0
 40
185.0
 40
185.0
 40
186.0
 40
186.0
 40
186.0
 40
187.0
 40
187.0
 40
187.0
 40
188.0
 40
188.0
 40
188.0
 40
189.0
 40
189.0
 40
189.0
 40
190.0
 40
190.0
 40
190.0
 40
191.0
 40
191.0
 40
191.0
 40
192.0
 40
192.0
 40
192.0
 40
193.0
 40
193.0
 40
193.0
 40
194.0
 40
194.0
 40
194.0
 40
195.0
 40
195.0
 40
195.0
 40
196.0
 40
196.0
 40
196.0
 40
197.0
 40
197.0
 40
197.0
 40
198.0
 40
198.0
 40
198.0
 40
199.0
 40
199.0
 40
199.0
 40
200.0
 40
200.0
 40
200.0
 40
201.0
 40
201.0
 40
201.0
 40
202.0
 40
202.0
 40
202.0
 40
203.0
 40
203.0
 40
203.0
 40
204.0
 40
204.0
 40
204.0
 40
205.0
 40
205.0
 40
205.0
 40
206.0
 40
206.0
 40
206.0
 40
207.0
 40
207.0
 40
207.0
 40
208.0
 40
208.0
 40
208.0
 40
209.0
 40
209.0
 40
209.0
 40
210.0
 40
210.0
 40
210.0
 40
211.0
 40
211.0
 40
211.0
 40
212.0
 40
212.0
 40
212.0
 40
213.0
 40
213.0
 40
213.0
 40
214.0
 40
214.0
 40
214.0
 40
215.0
 40
215.0
 40
215.0
 40
216.0
 40
216.0
 40
216.0
 40
217.0
 40
217.0
 40
217.0
 40
218.0
 40
218.0
 40
218.0
 40
218.0
 10
151.3427961767593
 20
517.7831869196962
 10
151.5839999999998
 20
517.7655869201408
 10
151.8197961647093
 20
517.7328869209668
 10
152.0507961588737
 20
517.6850869221744
 10
152.0507961588737
 20
517.6850869221744
 10
152.1112961573454
 20
517.9096869165005
 10
152.1112961573454
 20
517.9096869165005
 10
152.1112961573454
 20
517.9096869165005
 10
152.7875961402606
 20
517.728486921078
 10
152.7875961402606
 20
517.728486921078
 10
152.7875961402606
 20
517.728486921078
 10
152.7255961418268
 20
517.499486926863
 10
152.7255961418268
 20
517.499486926863
 10
152.9525961360923
 20
517.4208869288486
 10
153.1718961305523
 20
517.3270869312182
 10
153.3842961251867
 20
517.2206869339061
 10
153.3842961251867
 20
517.2206869339061
 10
153.5
 20
517.421386928836
 10
153.5
 20
517.421386928836
 10
153.5
 20
517.421386928836
 10
154.1059999999998
 20
517.0717869376676
 10
154.1059999999998
 20
517.0717869376676
 10
154.1059999999998
 20
517.0717869376676
 10
153.9872961099536
 20
516.8646869428994
 10
153.9872961099536
 20
516.8646869428994
 10
154.1845961049694
 20
516.7304869462896
 10
154.3725961002201
 20
516.5844869499779
 10
154.5497960957437
 20
516.425786953987
 10
154.5497960957437
 20
516.425786953987
 10
154.7152960915628
 20
516.5907869498187
 10
154.7152960915628
 20
516.5907869498187
 10
154.7152960915628
 20
516.5907869498187
 10
155.2103960790555
 20
516.0961869623134
 10
155.2103960790555
 20
516.0961869623134
 10
155.2103960790555
 20
516.0961869623134
 10
155.0404960833475
 20
515.9271869665827
 10
155.0404960833475
 20
515.9271869665827
 10
155.1962960794117
 20
515.746586971145
 10
155.3407960757613
 20
515.5565869759448
 10
155.4726960724292
 20
515.3563869810023
 10
155.4726960724292
 20
515.3563869810023
 10
155.6732960673617
 20
515.4735869780416
 10
155.6732960673617
 20
515.4735869780416
 10
155.6732960673617
 20
515.4735869780416
 10
156.0238960585048
 20
514.8671869933605
 10
156.0238960585048
 20
514.8671869933605
 10
156.0238960585048
 20
514.8671869933605
 10
155.8178960637088
 20
514.7484869963591
 10
155.8178960637088
 20
514.7484869963591
 10
155.8320000000003
 20
514.7191869970993
 10
155.8461960629938
 20
514.6894869978496
 10
155.8598960626477
 20
514.6596869986024
 10
156.4570000000003
 20
514.7265869969124
 10
156.9965960339323
 20
514.7885869953461
 10
157.4042960236329
 20
514.8358869941512
 10
157.4042960236329
 20
514.8358869941512
 10
157.1122960310095
 20
516.2929999999997
 10
157.1122960310095
 20
516.2929999999997
 10
157.1122960310095
 20
516.2929999999997
 10
158.0453960074374
 20
516.96
 10
158.0453960074374
 20
516.96
 10
158.0453960074374
 20
516.96
 10
155.595696069322
 20
519.0468868877724
 10
155.595696069322
 20
519.0468868877724
 10
155.4345960733917
 20
518.9560868900662
 10
155.2743960774387
 20
518.8603868924838
 10
155.1132960815085
 20
518.7597868950252
 10
152.5434961464271
 20
520.4291868528526
 10
149.1073962332302
 20
520.5355868501647
 10
145.1151963340817
 20
519.8930868663956
 10
145.0707963352033
 20
520.2479999999996
 10
145.0268963363123
 20
519.9730868643746
 10
144.9823963374365
 20
520.3290868553813
 10
146.4574963001724
 20
521.162086834338
 10
148.2255962555064
 20
521.6937868209061
 10
150.0995962081652
 20
521.9643868140702
 10
150.0995962081652
 20
521.9643868140702
 10
149.88089621369
 20
523.1083867851703
 10
149.88089621369
 20
523.1083867851703
 10
149.88089621369
 20
523.1083867851703
 10
152.1127961573075
 20
522.8417867919052
 10
153.7128961168855
 20
522.7748867935952
 10
155.3119999999999
 20
522.7084867952726
 10
160.4447959468234
 20
522.8251867923245
 10
160.4447959468234
 20
522.8251867923245
 10
160.4447959468234
 20
522.8251867923245
 10
163.3109999999997
 20
521.825686817574
 10
163.3109999999997
 20
521.825686817574
 10
163.3109999999997
 20
521.825686817574
 10
166.4755957944726
 20
523.9638867635585
 10
166.4755957944726
 20
523.9638867635585
 10
166.4755957944726
 20
523.9638867635585
 10
165.7958958116433
 20
525.381286727752
 10
165.7958958116433
 20
525.381286727752
 10
165.7958958116433
 20
525.381286727752
 10
164.0609999999997
 20
524.7953867425531
 10
164.0609999999997
 20
524.7953867425531
 10
164.0609999999997
 20
524.7953867425531
 10
163.7592958630921
 20
525.6880000000001
 10
163.7592958630921
 20
525.6880000000001
 10
163.7592958630921
 20
525.6880000000001
 10
166.6356957904281
 20
526.6610866954215
 10
166.6356957904281
 20
526.6610866954215
 10
166.6356957904281
 20
526.6610866954215
 10
168.875495733846
 20
526.3080867043391
 10
168.875495733846
 20
526.3080867043391
 10
168.875495733846
 20
526.3080867043391
 10
168.5082957431223
 20
524.6791867454886
 10
168.5082957431223
 20
524.6791867454886
 10
170.3510956965692
 20
523.7450867690859
 10
170.5375956918579
 20
522.7694867937316
 10
170.6283956895641
 20
521.5190000000002
 10
172.6435956386558
 20
521.8432868171294
 10
174.9428955805706
 20
521.4437868272216
 10
176.8339999999998
 20
520.3993868536054
 10
176.7450955350432
 20
520.1771868592186
 10
176.6562955372865
 20
519.954586864842
 10
176.5668955395449
 20
519.7338868704173
 10
174.2645955977059
 20
520.5341868502001
 10
172.2997956473409
 20
520.7484868447864
 10
170.7226956871818
 20
520.3578868546538
 10
170.7865956855676
 20
519.834486867876
 10
170.9022956826448
 20
519.2636868822956
 10
171.1537956762913
 20
518.6347868981829
 10
171.2479999999996
 20
518.3983869041549
 10
171.3954956701855
 20
518.142586910617
 10
171.5492956663002
 20
517.9071869165637
 10
171.5492956663002
 20
517.9071869165637
 10
171.639595664019
 20
517.9311869159574
 10
171.639595664019
 20
517.9311869159574
 10
171.639595664019
 20
517.9311869159574
 10
171.7020956624401
 20
517.701686921755
 10
171.7020956624401
 20
517.701686921755
 10
171.9335956565919
 20
517.7450869206587
 10
172.1698956506225
 20
517.7743869199185
 10
172.4105956445419
 20
517.7885869195597
 10
172.4105956445419
 20
517.7885869195597
 10
172.4105956445419
 20
518.0219999999999
 10
172.4105956445419
 20
518.0219999999999
 10
172.4105956445419
 20
518.0219999999999
 10
173.1103956268635
 20
518.0219999999999
 10
173.1103956268635
 20
518.0219999999999
 10
173.1103956268635
 20
518.0219999999999
 10
173.1103956268635
 20
517.7831869196962
 10
173.1103956268635
 20
517.7831869196962
 10
173.3510956207829
 20
517.7655869201408
 10
173.5873956148134
 20
517.7328869209668
 10
173.8192956089551
 20
517.6850869221744
 10
173.8192956089551
 20
517.6850869221744
 10
173.8793956074369
 20
517.9096869165005
 10
173.8793956074369
 20
517.9096869165005
 10
173.8793956074369
 20
517.9096869165005
 10
174.5546955903774
 20
517.728486921078
 10
174.5546955903774
 20
517.728486921078
 10
174.5546955903774
 20
517.728486921078
 10
174.4936955919184
 20
517.499486926863
 10
174.4936955919184
 20
517.499486926863
 10
174.7196955862091
 20
517.4208869288486
 10
174.9394955806565
 20
517.3270869312182
 10
175.1513955753035
 20
517.2206869339061
 10
175.1513955753035
 20
517.2206869339061
 10
175.2680955723554
 20
517.421386928836
 10
175.2680955723554
 20
517.421386928836
 10
175.2680955723554
 20
517.421386928836
 10
175.8744955570364
 20
517.0717869376676
 10
175.8744955570364
 20
517.0717869376676
 10
175.8744955570364
 20
517.0717869376676
 10
175.7548955600578
 20
516.8646869428994
 10
175.7548955600578
 20
516.8646869428994
 10
175.9520955550761
 20
516.7304869462896
 10
176.1400955503268
 20
516.5844869499779
 10
176.3178955458352
 20
516.425786953987
 10
176.3178955458352
 20
516.425786953987
 10
176.4828955416669
 20
516.5907869498187
 10
176.4828955416669
 20
516.5907869498187
 10
176.4828955416669
 20
516.5907869498187
 10
176.9780000000001
 20
516.0961869623134
 10
176.9780000000001
 20
516.0961869623134
 10
176.9780000000001
 20
516.0961869623134
 10
176.8090955334264
 20
515.9271869665827
 10
176.8090955334264
 20
515.9271869665827
 10
176.9647955294931
 20
515.746586971145
 10
177.1083955258655
 20
515.5565869759448
 10
177.2396955225486
 20
515.3563869810023
 10
177.2396955225486
 20
515.3563869810023
 10
177.4418955174406
 20
515.4735869780416
 10
177.4418955174406
 20
515.4735869780416
 10
177.4418955174406
 20
515.4735869780416
 10
177.7920000000004
 20
514.8671869933605
 10
177.7920000000004
 20
514.8671869933605
 10
177.7920000000004
 20
514.8671869933605
 10
177.5853955138155
 20
514.7484869963591
 10
177.5853955138155
 20
514.7484869963591
 10
177.6894955111857
 20
514.5346870017602
 10
177.7792955089171
 20
514.3144870073229
 10
177.8540000000003
 20
514.0863870130852
 10
177.8540000000003
 20
514.0863870130852
 10
178.0780955013688
 20
514.1464870115669
 10
178.0780955013688
 20
514.1464870115669
 10
178.0780955013688
 20
514.1464870115669
 10
178.2597954967787
 20
513.4701870286517
 10
178.2597954967787
 20
513.4701870286517
 10
178.2597954967787
 20
513.4701870286517
 10
178.0302955025763
 20
513.408187030218
 10
178.0302955025763
 20
513.408187030218
 10
178.07369550148
 20
513.1762870360762
 10
178.1034955007271
 20
512.9403870420356
 10
178.1171955003811
 20
512.6996870481162
 10
178.1171955003811
 20
512.6996870481162
 10
178.3510954944722
 20
512.6996870481162
 10
178.3510954944722
 20
512.6996870481162
 10
178.3510954944722
 20
512.6996870481162
 10
178.3510954944722
 20
512.0
 10
178.3510954944722
 20
512.0
 10
178.3510954944722
 20
512.0
 10
178.1117955005175
 20
512.0
 10
178.1117955005175
 20
512.0
 10
178.0941955009621
 20
511.7587870718853
 10
178.0609999999997
 20
511.5228870778446
 10
178.0136955029957
 20
511.2920000000004
 10
178.0136955029957
 20
511.2920000000004
 10
178.2387954973092
 20
511.2309999999998
 10
178.2387954973092
 20
511.2309999999998
 10
178.2387954973092
 20
511.2309999999998
 10
178.0570955018993
 20
510.5551871022908
 10
178.0570955018993
 20
510.5551871022908
 10
178.0570955018993
 20
510.5551871022908
 10
177.8270955077096
 20
510.6166871007372
 10
177.8270955077096
 20
510.6166871007372
 10
177.7484955096952
 20
510.3905871064489
 10
177.655795512037
 20
510.170887111999
 10
177.5482955147527
 20
509.9584871173647
 10
177.5482955147527
 20
509.9584871173647
 10
177.7504955096447
 20
509.8422871203002
 10
177.7504955096447
 20
509.8422871203002
 10
177.7504955096447
 20
509.8422871203002
 10
177.4003955184889
 20
509.2357871356216
 10
177.4003955184889
 20
509.2357871356216
 10
177.4003955184889
 20
509.2357871356216
 10
177.1937955237081
 20
509.3554871325978
 10
177.1937955237081
 20
509.3554871325978
 10
177.0590955271109
 20
509.158187137582
 10
176.9130955307992
 20
508.9701871423313
 10
176.7533955348335
 20
508.7924871468203
 10
176.7533955348335
 20
508.7924871468203
 10
176.91939553064
 20
508.6273871509911
 10
176.91939553064
 20
508.6273871509911
 10
176.91939553064
 20
508.6273871509911
 10
176.4247955431347
 20
508.1322871634984
 10
176.4247955431347
 20
508.1322871634984
 10
176.4247955431347
 20
508.1322871634984
 10
176.2553955474141
 20
508.3012871592291
 10
176.2553955474141
 20
508.3012871592291
 10
176.0751955519663
 20
508.1454871631649
 10
175.8842955567889
 20
508.0020000000004
 10
175.6850955618211
 20
507.8705871701095
 10
175.6850955618211
 20
507.8705871701095
 10
175.801795558873
 20
507.668487175215
 10
175.801795558873
 20
507.668487175215
 10
175.801795558873
 20
507.668487175215
 10
175.1957955741818
 20
507.3178871840719
 10
175.1957955741818
 20
507.3178871840719
 10
175.1957955741818
 20
507.3178871840719
 10
175.0761955772032
 20
507.5248871788426
 10
175.0761955772032
 20
507.5248871788426
 10
174.8632955825815
 20
507.4208871814699
 10
174.6415955881821
 20
507.3310871837384
 10
174.4140955939292
 20
507.2558871856381
 10
174.4140955939292
 20
507.2558871856381
 10
174.4740955924135
 20
507.0316871913019
 10
174.4740955924135
 20
507.0316871913019
 10
174.4740955924135
 20
507.0316871913019
 10
173.798795609473
 20
506.8505871958769
 10
173.798795609473
 20
506.8505871958769
 10
173.798795609473
 20
506.8505871958769
 10
173.7367956110393
 20
507.0800871900792
 10
173.7367956110393
 20
507.0800871900792
 10
173.5048956168976
 20
507.0360871911907
 10
173.268595622867
 20
507.0067871919309
 10
173.0277956289501
 20
506.9931871922745
 10
173.0277956289501
 20
506.9931871922745
 10
173.0277956289501
 20
506.7592871981833
 10
173.0277956289501
 20
506.7592871981833
 10
173.0277956289501
 20
506.7592871981833
 10
172.3275956466387
 20
506.7592871981833
 10
172.3275956466387
 20
506.7592871981833
 10
172.3275956466387
 20
506.7592871981833
 10
172.3275956466387
 20
506.9984871921406
 10
172.3275956466387
 20
506.9984871921406
 10
172.0863956527319
 20
507.016087191696
 10
171.8505956586887
 20
507.0492871908573
 10
171.6195956645242
 20
507.0966871896599
 10
171.6195956645242
 20
507.0966871896599
 10
171.55959566604
 20
506.8715871953464
 10
171.55959566604
 20
506.8715871953464
 10
171.55959566604
 20
506.8715871953464
 10
170.8842956830995
 20
507.0531871907588
 10
170.8842956830995
 20
507.0531871907588
 10
170.8842956830995
 20
507.0531871907588
 10
170.9447956815711
 20
507.2826871849611
 10
170.9447956815711
 20
507.2826871849611
 10
170.718295687293
 20
507.3617871829629
 10
170.4984956928456
 20
507.4545871806185
 10
170.2875956981734
 20
507.5619999999999
 10
170.2875956981734
 20
507.5619999999999
 10
170.1708957011215
 20
507.3598871830109
 10
170.1708957011215
 20
507.3598871830109
 10
170.1708957011215
 20
507.3598871830109
 10
169.5644957164404
 20
507.71
 10
169.5644957164404
 20
507.71
 10
169.5644957164404
 20
507.71
 10
169.6840957134191
 20
507.9170000000004
 10
169.6840957134191
 20
507.9170000000004
 10
169.4857957184286
 20
508.0512871655446
 10
169.2978957231753
 20
508.1972871618564
 10
169.1205957276543
 20
508.3568871578245
 10
169.1205957276543
 20
508.3568871578245
 10
168.9550957318352
 20
508.190887162018
 10
168.9550957318352
 20
508.190887162018
 10
168.9550957318352
 20
508.190887162018
 10
168.4603957443323
 20
508.6854871495234
 10
168.4603957443323
 20
508.6854871495234
 10
168.4603957443323
 20
508.6854871495234
 10
168.6298957400504
 20
508.8554871452288
 10
168.6298957400504
 20
508.8554871452288
 10
168.4740957439863
 20
509.0351871406892
 10
168.3295957476366
 20
509.2260871358667
 10
168.1986957509434
 20
509.4247871308471
 10
168.1986957509434
 20
509.4247871308471
 10
167.9970957560363
 20
509.3080871337952
 10
167.9970957560363
 20
509.3080871337952
 10
167.9970957560363
 20
509.3080871337952
 10
167.6469999999999
 20
509.9145871184737
 10
167.6469999999999
 20
509.9145871184737
 10
167.6469999999999
 20
509.9145871184737
 10
167.8530000000001
 20
510.0341871154524
 10
167.8530000000001
 20
510.0341871154524
 10
167.7494957622912
 20
510.2465871100867
 10
167.6596957645597
 20
510.4682871044861
 10
167.5839999999998
 20
510.6962870987263
 10
167.5839999999998
 20
510.6962870987263
 10
167.3593957721459
 20
510.6361871002446
 10
167.3593957721459
 20
510.6361871002446
 10
167.3593957721459
 20
510.6361871002446
 10
167.1791957766982
 20
511.3114870831851
 10
167.1791957766982
 20
511.3114870831851
 10
167.1791957766982
 20
511.3114870831851
 10
167.4086957709005
 20
511.3734870816188
 10
167.4086957709005
 20
511.3734870816188
 10
167.3642957720222
 20
511.6049999999996
 10
167.3358957727396
 20
511.8412870698012
 10
167.3217957730958
 20
512.082487063708
 10
167.3217957730958
 20
512.082487063708
 10
167.088395778992
 20
512.082487063708
 10
167.088395778992
 20
512.082487063708
 10
167.088395778992
 20
512.082487063708
 10
167.088395778992
 20
512.7826870460194
 10
167.088395778992
 20
512.7826870460194
 10
167.088395778992
 20
512.7826870460194
 10
167.3270957729619
 20
512.7826870460194
 10
167.3270957729619
 20
512.7826870460194
 10
167.3446957725173
 20
513.0238870399262
 10
167.3770000000004
 20
513.2597870339669
 10
167.4252957704812
 20
513.4906870281338
 10
167.4252957704812
 20
513.4906870281338
 10
167.2001957761677
 20
513.5507870266156
 10
167.2001957761677
 20
513.5507870266156
 10
167.2001957761677
 20
513.5507870266156
 10
167.3817957715801
 20
514.2265870095434
 10
167.3817957715801
 20
514.2265870095434
 10
167.3817957715801
 20
514.2265870095434
 10
167.610795765795
 20
514.165
 10
167.610795765795
 20
514.165
 10
167.6894957638069
 20
514.3920870053626
 10
167.7831957614399
 20
514.6117869998125
 10
167.8891957587621
 20
514.8227869944822
 10
167.8891957587621
 20
514.8227869944822
 10
167.6884957638322
 20
514.9394869915341
 10
167.6884957638322
 20
514.9394869915341
 10
167.6884957638322
 20
514.9394869915341
 10
168.0385957549879
 20
515.5453869762277
 10
168.0385957549879
 20
515.5453869762277
 10
168.0385957549879
 20
515.5453869762277
 10
168.2455957497586
 20
515.4262869792365
 10
168.2455957497586
 20
515.4262869792365
 10
168.3798957463659
 20
515.6234869742548
 10
168.526395742665
 20
515.8124869694802
 10
168.6840957386812
 20
515.9892869650139
 10
168.6840957386812
 20
515.9892869650139
 10
168.5194957428394
 20
516.1552869608204
 10
168.5194957428394
 20
516.1552869608204
 10
168.5194957428394
 20
516.1552869608204
 10
169.0141957303422
 20
516.6498869483257
 10
169.0141957303422
 20
516.6498869483257
 10
169.0141957303422
 20
516.6498869483257
 10
169.1830957260754
 20
516.4804869526051
 10
169.1830957260754
 20
516.4804869526051
 10
169.3637957215105
 20
516.6361869486718
 10
169.5536957167133
 20
516.7802869450315
 10
169.7533957116684
 20
516.9115869417146
 10
169.7533957116684
 20
516.9115869417146
 10
169.6366957146165
 20
517.1132869366193
 10
169.6366957146165
 20
517.1132869366193
 10
169.6366957146165
 20
517.1132869366193
 10
169.7333957121737
 20
517.1688869352147
 10
169.7333957121737
 20
517.1688869352147
 10
169.7333957121737
 20
517.1688869352147
 10
168.6908957385094
 20
519.34228688031
 10
168.6908957385094
 20
519.34228688031
 10
168.6908957385094
 20
519.34228688031
 10
168.6537957394467
 20
519.3109999999997
 10
168.6537957394467
 20
519.3109999999997
 10
168.6537957394467
 20
519.3109999999997
 10
165.5102958188581
 20
515.4267869792238
 10
165.5102958188581
 20
515.4267869792238
 10
165.5102958188581
 20
515.4267869792238
 10
164.5102958441203
 20
515.5604869758463
 10
164.5102958441203
 20
515.5604869758463
 10
164.5102958441203
 20
515.5604869758463
 10
162.9101958845422
 20
512.2943870583549
 10
162.9101958845422
 20
512.2943870583549
 10
162.9101958845422
 20
512.2943870583549
 10
157.9120960108048
 20
512.2943870583549
 10
157.9120960108048
 20
512.2943870583549
 10
157.9120960108048
 20
512.2943870583549
 10
157.8812960115829
 20
512.4462870545176
 10
157.8812960115829
 20
512.4462870545176
 10
157.8812960115829
 20
512.4462870545176
 10
156.5824960443933
 20
512.085
 10
156.5824960443933
 20
512.085
 10
156.5824960443933
 20
512.085
 10
156.5824960443933
 20
512.0
 10
156.5824960443933
 20
512.0
 10
156.5824960443933
 20
512.0
 10
156.343296050436
 20
512.0
 10
156.343296050436
 20
512.0
 10
156.3266960508554
 20
511.7587870718853
 10
156.2934960516941
 20
511.5228870778446
 10
156.2450960529168
 20
511.2910000000002
 10
156.2450960529168
 20
511.2910000000002
 10
156.4701960472303
 20
511.2309999999998
 10
156.4701960472303
 20
511.2309999999998
 10
156.4701960472303
 20
511.2309999999998
 10
156.2895960517926
 20
510.5551871022908
 10
156.2895960517926
 20
510.5551871022908
 10
156.2895960517926
 20
510.5551871022908
 10
156.0600960575903
 20
510.6166871007372
 10
156.0600960575903
 20
510.6166871007372
 10
155.9809999999998
 20
510.3905871064489
 10
155.8876960619455
 20
510.170887111999
 10
155.780796064646
 20
509.9584871173647
 10
155.780796064646
 20
509.9584871173647
 10
155.9818960595658
 20
509.8422871203002
 10
155.9818960595658
 20
509.8422871203002
 10
155.9818960595658
 20
509.8422871203002
 10
155.6322960683974
 20
509.2357871356216
 10
155.6322960683974
 20
509.2357871356216
 10
155.6322960683974
 20
509.2357871356216
 10
155.425796073614
 20
509.3554871325978
 10
155.425796073614
 20
509.3554871325978
 10
155.2920000000004
 20
509.158187137582
 10
155.1444960807203
 20
508.9701871423313
 10
154.9857960847294
 20
508.7924871468203
 10
154.9857960847294
 20
508.7924871468203
 10
155.1508960805586
 20
508.6273871509911
 10
155.1508960805586
 20
508.6273871509911
 10
155.1508960805586
 20
508.6273871509911
 10
154.6562960930532
 20
508.1322871634984
 10
154.6562960930532
 20
508.1322871634984
 10
154.6562960930532
 20
508.1322871634984
 10
154.4877960973099
 20
508.3012871592291
 10
154.4877960973099
 20
508.3012871592291
 10
154.3070961018748
 20
508.1454871631649
 10
154.1171961066721
 20
508.0020000000004
 10
153.9170000000004
 20
507.8705871701095
 10
153.9170000000004
 20
507.8705871701095
 10
154.0336961087814
 20
507.668487175215
 10
154.0336961087814
 20
507.668487175215
 10
154.0336961087814
 20
507.668487175215
 10
153.4276961240903
 20
507.3178871840719
 10
153.4276961240903
 20
507.3178871840719
 10
153.4276961240903
 20
507.3178871840719
 10
153.3090961270864
 20
507.5248871788426
 10
153.3090961270864
 20
507.5248871788426
 10
153.0961961324647
 20
507.4208871814699
 10
152.8744961380653
 20
507.3310871837384
 10
152.6464961438251
 20
507.2558871856381
 10
152.6464961438251
 20
507.2558871856381
 10
152.7064961423093
 20
507.0316871913019
 10
152.7064961423093
 20
507.0316871913019
 10
152.7064961423093
 20
507.0316871913019
 10
152.030796159379
 20
506.8505871958769
 10
152.030796159379
 20
506.8505871958769
 10
152.030796159379
 20
506.8505871958769
 10
151.9691961609351
 20
507.0800871900792
 10
151.9691961609351
 20
507.0800871900792
 10
151.7377961667808
 20
507.0360871911907
 10
151.5004961727755
 20
507.0067871919309
 10
151.259796178856
 20
506.9931871922745
 10
151.259796178856
 20
506.9931871922745
 10
151.259796178856
 20
506.7592871981833
 10
151.259796178856
 20
506.7592871981833
 10
151.259796178856
 20
506.7592871981833
 10
150.560096196532
 20
506.7592871981833
 10
150.560096196532
 20
506.7592871981833
 10
150.560096196532
 20
506.7592871981833
 10
150.560096196532
 20
506.9984871921406
 10
150.560096196532
 20
506.9984871921406
 10
150.3192962026151
 20
507.016087191696
 10
150.0829999999996
 20
507.0492871908573
 10
149.8520962144175
 20
507.0966871896599
 10
149.8520962144175
 20
507.0966871896599
 10
149.7920000000004
 20
506.8715871953464
 10
149.7920000000004
 20
506.8715871953464
 10
149.7920000000004
 20
506.8715871953464
 10
149.1156962330206
 20
507.0531871907588
 10
149.1156962330206
 20
507.0531871907588
 10
149.1156962330206
 20
507.0531871907588
 10
149.1767962314771
 20
507.2826871849611
 10
149.1767962314771
 20
507.2826871849611
 10
148.9506962371888
 20
507.3617871829629
 10
148.7309999999998
 20
507.4545871806185
 10
148.5185962481046
 20
507.5619999999999
 10
148.5185962481046
 20
507.5619999999999
 10
148.4032962510173
 20
507.3598871830109
 10
148.4032962510173
 20
507.3598871830109
 10
148.4032962510173
 20
507.3598871830109
 10
147.7963962663489
 20
507.71
 10
147.7963962663489
 20
507.71
 10
147.7963962663489
 20
507.71
 10
147.9160000000002
 20
507.9170000000004
 10
147.9160000000002
 20
507.9170000000004
 10
147.7187962683092
 20
508.0512871655446
 10
147.5307962730585
 20
508.1972871618564
 10
147.3524962775628
 20
508.3568871578245
 10
147.3524962775628
 20
508.3568871578245
 10
147.187496281731
 20
508.190887162018
 10
147.187496281731
 20
508.190887162018
 10
147.187496281731
 20
508.190887162018
 10
146.6928962942256
 20
508.6854871495234
 10
146.6928962942256
 20
508.6854871495234
 10
146.6928962942256
 20
508.6854871495234
 10
146.8617962899589
 20
508.8554871452288
 10
146.8617962899589
 20
508.8554871452288
 10
146.7055962939048
 20
509.0351871406892
 10
146.5624962975198
 20
509.2260871358667
 10
146.4306963008494
 20
509.4247871308471
 10
146.4306963008494
 20
509.4247871308471
 10
146.2284963059574
 20
509.3080871337952
 10
146.2284963059574
 20
509.3080871337952
 10
146.2284963059574
 20
509.3080871337952
 10
145.8793963147764
 20
509.9145871184737
 10
145.8793963147764
 20
509.9145871184737
 10
145.8793963147764
 20
509.9145871184737
 10
146.0853963095724
 20
510.0341871154524
 10
146.0853963095724
 20
510.0341871154524
 10
145.9813963121996
 20
510.2465871100867
 10
145.8910963144808
 20
510.4682871044861
 10
145.8163963163679
 20
510.6962870987263
 10
145.8163963163679
 20
510.6962870987263
 10
145.5922963220291
 20
510.6361871002446
 10
145.5922963220291
 20
510.6361871002446
 10
145.5922963220291
 20
510.6361871002446
 10
145.4105963266193
 20
511.3114870831851
 10
145.4105963266193
 20
511.3114870831851
 10
145.4105963266193
 20
511.3114870831851
 10
145.6410963207964
 20
511.3734870816188
 10
145.6410963207964
 20
511.3734870816188
 10
145.596696321918
 20
511.6049999999996
 10
145.5668963226708
 20
511.8412870698012
 10
145.5531963230169
 20
512.082487063708
 10
145.5531963230169
 20
512.082487063708
 10
145.3207963288878
 20
512.082487063708
 10
145.3207963288878
 20
512.082487063708
 10
145.3207963288878
 20
512.082487063708
 10
145.3207963288878
 20
512.7826870460194
 10
145.3207963288878
 20
512.7826870460194
 10
145.3207963288878
 20
512.7826870460194
 10
145.5590963228678
 20
512.7826870460194
 10
145.5590963228678
 20
512.7826870460194
 10
145.5766963224232
 20
513.0238870399262
 10
145.6093963215972
 20
513.2597870339669
 10
145.6566963204023
 20
513.4906870281338
 10
145.6566963204023
 20
513.4906870281338
 10
145.4325963260635
 20
513.5507870266156
 10
145.4325963260635
 20
513.5507870266156
 10
145.4325963260635
 20
513.5507870266156
 10
145.613796321486
 20
514.2265870095434
 10
145.613796321486
 20
514.2265870095434
 10
145.613796321486
 20
514.2265870095434
 10
145.8432963156883
 20
514.165
 10
145.8432963156883
 20
514.165
 10
145.9223963136901
 20
514.3920870053626
 10
146.0155963113357
 20
514.6117869998125
 10
146.1220963086453
 20
514.8227869944822
 10
146.1220963086453
 20
514.8227869944822
 10
145.9203963137406
 20
514.9394869915341
 10
145.9203963137406
 20
514.9394869915341
 10
145.9203963137406
 20
514.9394869915341
 10
146.2704963048964
 20
515.5453869762277
 10
146.2704963048964
 20
515.5453869762277
 10
146.2704963048964
 20
515.5453869762277
 10
146.4770962996772
 20
515.4262869792365
 10
146.4770962996772
 20
515.4262869792365
 10
146.611296296287
 20
515.6234869742548
 10
146.7582962925735
 20
515.8124869694802
 10
146.9170000000004
 20
515.9892869650139
 10
146.9170000000004
 20
515.9892869650139
 10
146.7510000000002
 20
516.1552869608204
 10
146.7510000000002
 20
516.1552869608204
 10
146.7510000000002
 20
516.1552869608204
 10
147.2470962802254
 20
516.6498869483257
 10
147.2470962802254
 20
516.6498869483257
 10
147.2470962802254
 20
516.6498869483257
 10
147.4154962759712
 20
516.4804869526051
 10
147.4154962759712
 20
516.4804869526051
 10
147.5951962714316
 20
516.6361869486718
 10
147.7860962666091
 20
516.7802869450315
 10
147.9853962615744
 20
516.9115869417146
 10
147.9853962615744
 20
516.9115869417146
 10
147.8686962645224
 20
517.1132869366193
 10
147.8686962645224
 20
517.1132869366193
 10
147.8686962645224
 20
517.1132869366193
 10
148.4755962491909
 20
517.463386927775
 10
148.4755962491909
 20
517.463386927775
 10
148.4755962491909
 20
517.463386927775
 10
148.5941962461948
 20
517.2572869329815
 10
148.5941962461948
 20
517.2572869329815
 10
148.8070962408165
 20
517.360386930377
 10
149.0287962352159
 20
517.4501869281085
 10
149.2562962294687
 20
517.5263869261835
 10
149.2562962294687
 20
517.5263869261835
 10
149.1962962309844
 20
517.7504869205222
 10
149.1962962309844
 20
517.7504869205222
 10
149.1962962309844
 20
517.7504869205222
 10
149.8725962138997
 20
517.9311869159574
 10
149.8725962138997
 20
517.9311869159574
 10
149.8725962138997
 20
517.9311869159574
 10
149.934096212346
 20
517.701686921755
 10
149.934096212346
 20
517.701686921755
 10
150.1654962065004
 20
517.7450869206587
 10
150.4018962005284
 20
517.7743869199185
 10
150.6435961944226
 20
517.7885869195597
 10
150.6435961944226
 20
517.7885869195597
 10
150.6435961944226
 20
518.0219999999999
 10
150.6435961944226
 20
518.0219999999999
 10
150.6435961944226
 20
518.0219999999999
 10
151.3427961767593
 20
518.0219999999999
 10
151.3427961767593
 20
518.0219999999999
 10
151.3427961767593
 20
518.0219999999999
 10
151.3427961767593
 20
517.7831869196962
 10
151.3427961767593
 20
517.7831869196962
 10
151.3427961767593
 20
517.7831869196962
 10
151.3427961767593
 20
517.7831869196962
 10
151.3427961767593
 20
517.7831869196962
 97
        0
 92
        1
 93
        4
 72
     1
 10
157.8197960131365
 20
512.7548870467217
 11
157.8051960135053
 21
512.8270870448978
 72
     1
 10
157.8051960135053
 20
512.8270870448978
 11
156.5824960443933
 21
512.5893870509026
 72
     1
 10
156.5824960443933
 20
512.5893870509026
 11
156.5824960443933
 21
512.4110870554068
 72
     1
 10
156.5824960443933
 20
512.4110870554068
 11
157.8197960131365
 21
512.7548870467217
 97
        0
 92
        1
 93
        1
 72
     4
 94
        3
 73
     0
 74
     1
 95
       56
 96
       52
 40
0.0
 40
0.0
 40
0.0
 40
0.0
 40
1.0
 40
1.0
 40
1.0
 40
2.0
 40
2.0
 40
2.0
 40
3.0
 40
3.0
 40
3.0
 40
4.0
 40
4.0
 40
4.0
 40
5.0
 40
5.0
 40
5.0
 40
6.0
 40
6.0
 40
6.0
 40
7.0
 40
7.0
 40
7.0
 40
8.0
 40
8.0
 40
8.0
 40
9.0
 40
9.0
 40
9.0
 40
10.0
 40
10.0
 40
10.0
 40
11.0
 40
11.0
 40
11.0
 40
12.0
 40
12.0
 40
12.0
 40
13.0
 40
13.0
 40
13.0
 40
14.0
 40
14.0
 40
14.0
 40
15.0
 40
15.0
 40
15.0
 40
16.0
 40
16.0
 40
16.0
 40
17.0
 40
17.0
 40
17.0
 40
17.0
 10
151.6698961684961
 20
514.2143870098516
 10
152.3760000000002
 20
514.2797870081995
 10
153.3397961263108
 20
514.3812870056354
 10
154.3085961018369
 20
514.487787002945
 10
154.1493961058586
 20
514.7421869965183
 10
153.9613961106079
 20
514.9774869905741
 10
153.75
 20
515.1894869852185
 10
153.0336961340436
 20
515.9057869671233
 10
152.0443961590354
 20
516.3485869559372
 10
150.9511961866519
 20
516.3485869559372
 10
149.8588962142458
 20
516.3485869559372
 10
148.8695962392376
 20
515.9057869671233
 10
148.1532962573328
 20
515.1894869852185
 10
147.4369999999999
 20
514.4735870033037
 10
146.9940962866167
 20
513.4838870283056
 10
146.9940962866167
 20
512.3905870559247
 10
146.9940962866167
 20
511.2973870835413
 10
147.4369999999999
 20
510.3080871085331
 10
148.1532962573328
 20
509.5927871266031
 10
148.8695962392376
 20
508.8764871446983
 10
149.8588962142458
 20
508.4325871559122
 10
150.9511961866519
 20
508.4325871559122
 10
152.0443961590354
 20
508.4325871559122
 10
153.0336961340436
 20
508.8764871446983
 10
153.75
 20
509.5927871266031
 10
154.2885961023421
 20
510.1303871130222
 10
154.6718960926592
 20
510.8231870955206
 10
154.8295960886753
 20
511.597687075955
 10
154.8295960886753
 20
511.597687075955
 10
152.1723961558018
 20
510.8583870946313
 10
152.1723961558018
 20
510.8583870946313
 10
151.8368961642773
 20
510.5912871013788
 10
151.412596174996
 20
510.4320871054006
 10
150.9511961866519
 20
510.4320871054006
 10
150.4101962003188
 20
510.4320871054006
 10
149.9208962126795
 20
510.6508870998732
 10
149.5658962216476
 20
511.0058870909052
 10
149.2118962305904
 20
511.3607870819396
 10
148.9926962361278
 20
511.8500870695789
 10
148.9926962361278
 20
512.3905870559247
 10
148.9926962361278
 20
512.9315870422579
 10
149.2118962305904
 20
513.4218870298719
 10
149.5658962216476
 20
513.7758870209291
 10
149.9208962126795
 20
514.130887011961
 10
150.4101962003188
 20
514.3500870064236
 10
150.9511961866519
 20
514.3500870064236
 10
151.2050961802379
 20
514.3500870064236
 10
151.4477961741068
 20
514.3021870076336
 10
151.6698961684961
 20
514.2143870098516
 10
151.6698961684961
 20
514.2143870098516
 10
151.6698961684961
 20
514.2143870098516
 10
151.6698961684961
 20
514.2143870098516
 97
        0
 92
        1
 93
        1
 72
     4
 94
        3
 73
     0
 74
     1
 95
       20
 96
       16
 40
0.0
 40
0.0
 40
0.0
 40
0.0
 40
1.0
 40
1.0
 40
1.0
 40
2.0
 40
2.0
 40
2.0
 40
3.0
 40
3.0
 40
3.0
 40
4.0
 40
4.0
 40
4.0
 40
5.0
 40
5.0
 40
5.0
 40
5.0
 10
152.5770961455783
 20
511.2968870835539
 10
152.5770961455783
 20
511.2968870835539
 10
154.8832960873187
 20
511.9384870673457
 10
154.8832960873187
 20
511.9384870673457
 10
154.8954960870105
 20
512.0453870646452
 10
154.9037960868009
 20
512.1532870619194
 10
154.9076960867023
 20
512.2621870591684
 10
154.9076960867023
 20
512.2621870591684
 10
152.8378961389899
 20
511.8588870693566
 10
152.8378961389899
 20
511.8588870693566
 10
152.780296140445
 20
511.6557870744873
 10
152.6918961426782
 20
511.4672870792492
 10
152.5770961455783
 20
511.2968870835539
 10
152.5770961455783
 20
511.2968870835539
 10
152.5770961455783
 20
511.2968870835539
 10
152.5770961455783
 20
511.2968870835539
 97
        0
 92
        1
 93
        1
 72
     4
 94
        3
 73
     0
 74
     1
 95
       23
 96
       19
 40
0.0
 40
0.0
 40
0.0
 40
0.0
 40
1.0
 40
1.0
 40
1.0
 40
2.0
 40
2.0
 40
2.0
 40
3.0
 40
3.0
 40
3.0
 40
4.0
 40
4.0
 40
4.0
 40
5.0
 40
5.0
 40
5.0
 40
6.0
 40
6.0
 40
6.0
 40
6.0
 10
154.4633960979263
 20
514.2172870097784
 10
153.6176961192905
 20
514.1371870118019
 10
152.7577961410134
 20
514.0640000000003
 10
152.0390961591693
 20
514.02048701475
 10
152.1464961564561
 20
513.9491870165512
 10
152.2455961539526
 20
513.8671870186226
 10
152.3363961516588
 20
513.7758870209291
 10
152.3617961510172
 20
513.7510000000002
 10
152.3861961504008
 20
513.7250870222124
 10
152.4101961497945
 20
513.698187022892
 10
152.4101961497945
 20
513.698187022892
 10
154.5180960965445
 20
514.1093870125042
 10
154.5180960965445
 20
514.1093870125042
 10
154.5010000000002
 20
514.1454870115922
 10
154.481896097459
 20
514.180687010703
 10
154.4633960979263
 20
514.2172870097784
 10
154.4633960979263
 20
514.2172870097784
 10
154.4633960979263
 20
514.2172870097784
 10
154.4633960979263
 20
514.2172870097784
 97
        0
 92
        1
 93
        1
 72
     4
 94
        3
 73
     0
 74
     1
 95
       20
 96
       16
 40
0.0
 40
0.0
 40
0.0
 40
0.0
 40
1.0
 40
1.0
 40
1.0
 40
2.0
 40
2.0
 40
2.0
 40
3.0
 40
3.0
 40
3.0
 40
4.0
 40
4.0
 40
4.0
 40
5.0
 40
5.0
 40
5.0
 40
5.0
 10
167.9208957579613
 20
524.6078867472897
 10
167.9208957579613
 20
524.6078867472897
 10
167.5570957671516
 20
524.6078867472897
 10
167.5570957671516
 20
524.6078867472897
 10
167.5570957671516
 20
524.6078867472897
 10
169.2143957252847
 20
521.1508868346209
 10
169.2143957252847
 20
521.1508868346209
 10
169.5673957163672
 20
521.2816868313166
 10
169.9359999999997
 20
521.3852868286995
 10
170.3168956974332
 20
521.4623868267518
 10
170.2270956997017
 20
522.7157867950882
 10
170.0410000000002
 20
523.6698867709856
 10
167.9208957579613
 20
524.6078867472897
 10
167.9208957579613
 20
524.6078867472897
 10
167.9208957579613
 20
524.6078867472897
 10
167.9208957579613
 20
524.6078867472897
 97
        0
 92
        1
 93
        1
 72
     4
 94
        3
 73
     0
 74
     1
 95
       29
 96
       25
 40
0.0
 40
0.0
 40
0.0
 40
0.0
 40
1.0
 40
1.0
 40
1.0
 40
2.0
 40
2.0
 40
2.0
 40
3.0
 40
3.0
 40
3.0
 40
4.0
 40
4.0
 40
4.0
 40
5.0
 40
5.0
 40
5.0
 40
6.0
 40
6.0
 40
6.0
 40
7.0
 40
7.0
 40
7.0
 40
8.0
 40
8.0
 40
8.0
 40
8.0
 10
170.4170000000004
 20
520.2724868568112
 10
170.1884957006769
 20
520.2020868585896
 10
169.9677957062522
 20
520.1176868607217
 10
169.7572957115699
 20
520.0194868632025
 10
169.7572957115699
 20
520.0194868632025
 10
170.9628956811139
 20
517.5048869267266
 10
170.9628956811139
 20
517.5048869267266
 10
170.9628956811139
 20
517.5048869267266
 10
171.0238956795729
 20
517.5263869261835
 10
171.0238956795729
 20
517.5263869261835
 10
171.0238956795729
 20
517.5263869261835
 10
170.9633956811012
 20
517.7504869205222
 10
170.9633956811012
 20
517.7504869205222
 10
170.9633956811012
 20
517.7504869205222
 10
171.231395674331
 20
517.8222869187084
 10
171.231395674331
 20
517.8222869187084
 10
171.0878956779561
 20
518.0487869129865
 10
170.9530956813614
 20
518.2904869068807
 10
170.8627956836426
 20
518.518086901131
 10
170.6049999999996
 20
519.1615868848749
 10
170.4838956932144
 20
519.7416868702203
 10
170.4170000000004
 20
520.2724868568112
 10
170.4170000000004
 20
520.2724868568112
 10
170.4170000000004
 20
520.2724868568112
 10
170.4170000000004
 20
520.2724868568112
 97
        0
 92
        1
 93
        1
 72
     4
 94
        3
 73
     0
 74
     1
 95
       38
 96
       34
 40
0.0
 40
0.0
 40
0.0
 40
0.0
 40
1.0
 40
1.0
 40
1.0
 40
2.0
 40
2.0
 40
2.0
 40
3.0
 40
3.0
 40
3.0
 40
4.0
 40
4.0
 40
4.0
 40
5.0
 40
5.0
 40
5.0
 40
6.0
 40
6.0
 40
6.0
 40
7.0
 40
7.0
 40
7.0
 40
8.0
 40
8.0
 40
8.0
 40
9.0
 40
9.0
 40
9.0
 40
10.0
 40
10.0
 40
10.0
 40
11.0
 40
11.0
 40
11.0
 40
11.0
 10
172.1532956510418
 20
512.1205870627455
 10
172.1532956510418
 20
512.1205870627455
 10
171.6957956625993
 20
513.0766870385924
 10
171.6957956625993
 20
513.0766870385924
 10
171.5640000000003
 20
512.8798870435639
 10
171.4867956678791
 20
512.6444870495106
 10
171.4867956678791
 20
512.3905870559247
 10
171.4867956678791
 20
512.0507870645088
 10
171.625
 20
511.7421870723047
 10
171.8485956587392
 20
511.5200000000004
 10
172.070795653126
 20
511.2968870835539
 10
172.3793956453301
 20
511.1586870870451
 10
172.7196956367334
 20
511.1586870870451
 10
173.0595956281468
 20
511.1586870870451
 10
173.3681956203509
 20
511.2968870835539
 10
173.5902956147402
 20
511.5200000000004
 10
173.8134956091017
 20
511.7421870723047
 10
173.9516956056104
 20
512.0507870645088
 10
173.9516956056104
 20
512.3905870559247
 10
173.9516956056104
 20
512.7309999999998
 10
173.8134956091017
 20
513.0395870395296
 10
173.5902956147402
 20
513.2616870339189
 10
173.3910956197724
 20
513.4608870288866
 10
173.1244956265073
 20
513.5922870255672
 10
172.8256956340556
 20
513.6186870249003
 10
172.8256956340556
 20
513.6186870249003
 10
173.2855956224375
 20
512.6615870490787
 10
173.2855956224375
 20
512.6615870490787
 10
173.2855956224375
 20
512.6615870490787
 10
172.1532956510418
 20
512.1205870627455
 10
172.1532956510418
 20
512.1205870627455
 10
172.1532956510418
 20
512.1205870627455
 10
172.1532956510418
 20
512.1205870627455
 10
172.1532956510418
 20
512.1205870627455
 97
        0
 92
        1
 93
        1
 72
     4
 94
        3
 73
     0
 74
     1
 95
       68
 96
       64
 40
0.0
 40
0.0
 40
0.0
 40
0.0
 40
1.0
 40
1.0
 40
1.0
 40
2.0
 40
2.0
 40
2.0
 40
3.0
 40
3.0
 40
3.0
 40
4.0
 40
4.0
 40
4.0
 40
5.0
 40
5.0
 40
5.0
 40
6.0
 40
6.0
 40
6.0
 40
7.0
 40
7.0
 40
7.0
 40
8.0
 40
8.0
 40
8.0
 40
9.0
 40
9.0
 40
9.0
 40
10.0
 40
10.0
 40
10.0
 40
11.0
 40
11.0
 40
11.0
 40
12.0
 40
12.0
 40
12.0
 40
13.0
 40
13.0
 40
13.0
 40
14.0
 40
14.0
 40
14.0
 40
15.0
 40
15.0
 40
15.0
 40
16.0
 40
16.0
 40
16.0
 40
17.0
 40
17.0
 40
17.0
 40
18.0
 40
18.0
 40
18.0
 40
19.0
 40
19.0
 40
19.0
 40
20.0
 40
20.0
 40
20.0
 40
21.0
 40
21.0
 40
21.0
 40
21.0
 10
171.3510956713071
 20
513.7934870204845
 10
171.3510956713071
 20
513.7934870204845
 10
170.464395693707
 20
515.6440000000002
 10
170.464395693707
 20
515.6440000000002
 10
170.2700000000004
 20
515.508286977165
 10
170.0868957032435
 20
515.3563869810023
 10
169.9203957074496
 20
515.1894869852185
 10
169.2045957255323
 20
514.4735870033037
 10
168.7616957367209
 20
513.4838870283056
 10
168.7616957367209
 20
512.3905870559247
 10
168.7616957367209
 20
511.2973870835413
 10
169.2045957255323
 20
510.3080871085331
 10
169.9203957074496
 20
509.5927871266031
 10
170.6366956893544
 20
508.8764871446983
 10
171.6264956643499
 20
508.4325871559122
 10
172.7196956367334
 20
508.4325871559122
 10
173.8119999999999
 20
508.4325871559122
 10
174.802195584125
 20
508.8764871446983
 10
175.5175955660525
 20
509.5927871266031
 10
176.2338955479572
 20
510.3080871085331
 10
176.6776955367459
 20
511.2973870835413
 10
176.6776955367459
 20
512.3905870559247
 10
176.6776955367459
 20
513.4838870283056
 10
176.2338955479572
 20
514.4735870033037
 10
175.5175955660525
 20
515.1894869852185
 10
174.802195584125
 20
515.9057869671233
 10
173.8119999999999
 20
516.3485869559372
 10
172.7196956367334
 20
516.3485869559372
 10
172.3285956466134
 20
516.3485869559372
 10
171.9511956561473
 20
516.2924869573544
 10
171.5946956651533
 20
516.1864869600322
 10
171.5946956651533
 20
516.1864869600322
 10
172.4823956427281
 20
514.3353870067949
 10
172.4823956427281
 20
514.3353870067949
 10
172.5600956407652
 20
514.3451870065473
 10
172.6386956387796
 20
514.3500870064236
 10
172.7196956367334
 20
514.3500870064236
 10
173.2602956230767
 20
514.3500870064236
 10
173.7494956107184
 20
514.130887011961
 10
174.1044956017504
 20
513.7758870209291
 10
174.4594955927823
 20
513.4218870298719
 10
174.6781955872575
 20
512.9315870422579
 10
174.6781955872575
 20
512.3905870559247
 10
174.6781955872575
 20
511.8500870695789
 10
174.4594955927823
 20
511.3607870819396
 10
174.1044956017504
 20
511.0058870909052
 10
173.7494956107184
 20
510.6508870998732
 10
173.2602956230767
 20
510.4320871054006
 10
172.7196956367334
 20
510.4320871054006
 10
172.1781956504128
 20
510.4320871054006
 10
171.6884956627837
 20
510.6508870998732
 10
171.3344956717265
 20
511.0058870909052
 10
170.9794956806945
 20
511.3607870819396
 10
170.7597956862446
 20
511.8500870695789
 10
170.7597956862446
 20
512.3905870559247
 10
170.7597956862446
 20
512.9315870422579
 10
170.9794956806945
 20
513.4218870298719
 10
171.3344956717265
 20
513.7758870209291
 10
171.3344956717265
 20
513.7758870209291
 10
171.3510956713071
 20
513.7934870204845
 10
171.3510956713071
 20
513.7934870204845
 10
171.3510956713071
 20
513.7934870204845
 10
171.3510956713071
 20
513.7934870204845
 10
171.3510956713071
 20
513.7934870204845
 97
        0
 92
        1
 93
        1
 72
     4
 94
        3
 73
     0
 74
     1
 95
       35
 96
       31
 40
0.0
 40
0.0
 40
0.0
 40
0.0
 40
1.0
 40
1.0
 40
1.0
 40
2.0
 40
2.0
 40
2.0
 40
3.0
 40
3.0
 40
3.0
 40
4.0
 40
4.0
 40
4.0
 40
5.0
 40
5.0
 40
5.0
 40
6.0
 40
6.0
 40
6.0
 40
7.0
 40
7.0
 40
7.0
 40
8.0
 40
8.0
 40
8.0
 40
9.0
 40
9.0
 40
9.0
 40
10.0
 40
10.0
 40
10.0
 40
10.0
 10
150.4555961991719
 20
513.3173870325118
 10
150.4555961991719
 20
513.3173870325118
 10
151.4608961737758
 20
513.5126870275781
 10
151.4608961737758
 20
513.5126870275781
 10
151.3051961777091
 20
513.5834870257895
 10
151.1327961820643
 20
513.6229999999996
 10
150.9511961866519
 20
513.6229999999996
 10
150.6107961952512
 20
513.6229999999996
 10
150.3031962030218
 20
513.4853870282677
 10
150.0800962086578
 20
513.2616870339189
 10
149.857896214271
 20
513.0395870395296
 10
149.7196962177622
 20
512.7309999999998
 10
149.7196962177622
 20
512.3905870559247
 10
149.7196962177622
 20
512.0507870645088
 10
149.857896214271
 20
511.7421870723047
 10
150.0800962086578
 20
511.5200000000004
 10
150.3031962030218
 20
511.2968870835539
 10
150.6107961952512
 20
511.1586870870451
 10
150.9511961866519
 20
511.1586870870451
 10
151.2920000000004
 20
511.1586870870451
 10
151.599596170272
 20
511.2968870835539
 10
151.8231961646234
 20
511.5200000000004
 10
151.875
 20
511.5717870766093
 10
151.9223961621174
 20
511.6283870751795
 10
151.963896161069
 20
511.6884870736612
 10
151.963896161069
 20
511.6884870736612
 10
150.8178961900194
 20
511.4652870792997
 10
150.8178961900194
 20
511.4652870792997
 10
150.8178961900194
 20
511.4652870792997
 10
150.4555961991719
 20
513.3173870325118
 10
150.4555961991719
 20
513.3173870325118
 97
        0
 75
     0
 76
     1
 98
        0
  0
SPLINE
  5
5F
330
14
100
AcDbEntity
  8
Layer 1
370
     0
100
AcDbSpline
210
0.0
220
0.0
230
1.0
 70
    11
 71
     3
 72
   659
 73
   655
 74
     0
 42
0.000000001
 43
0.0000000001
 40
0.0
 40
0.0
 40
0.0
 40
0.0
 40
1.0
 40
1.0
 40
1.0
 40
2.0
 40
2.0
 40
2.0
 40
3.0
 40
3.0
 40
3.0
 40
4.0
 40
4.0
 40
4.0
 40
5.0
 40
5.0
 40
5.0
 40
6.0
 40
6.0
 40
6.0
 40
7.0
 40
7.0
 40
7.0
 40
8.0
 40
8.0
 40
8.0
 40
9.0
 40
9.0
 40
9.0
 40
10.0
 40
10.0
 40
10.0
 40
11.0
 40
11.0
 40
11.0
 40
12.0
 40
12.0
 40
12.0
 40
13.0
 40
13.0
 40
13.0
 40
14.0
 40
14.0
 40
14.0
 40
15.0
 40
15.0
 40
15.0
 40
16.0
 40
16.0
 40
16.0
 40
17.0
 40
17.0
 40
17.0
 40
18.0
 40
18.0
 40
18.0
 40
19.0
 40
19.0
 40
19.0
 40
20.0
 40
20.0
 40
20.0
 40
21.0
 40
21.0
 40
21.0
 40
22.0
 40
22.0
 40
22.0
 40
23.0
 40
23.0
 40
23.0
 40
24.0
 40
24.0
 40
24.0
 40
25.0
 40
25.0
 40
25.0
 40
26.0
 40
26.0
 40
26.0
 40
27.0
 40
27.0
 40
27.0
 40
28.0
 40
28.0
 40
28.0
 40
29.0
 40
29.0
 40
29.0
 40
30.0
 40
30.0
 40
30.0
 40
31.0
 40
31.0
 40
31.0
 40
32.0
 40
32.0
 40
32.0
 40
33.0
 40
33.0
 40
33.0
 40
34.0
 40
34.0
 40
34.0
 40
35.0
 40
35.0
 40
35.0
 40
36.0
 40
36.0
 40
36.0
 40
37.0
 40
37.0
 40
37.0
 40
38.0
 40
38.0
 40
38.0
 40
39.0
 40
39.0
 40
39.0
 40
40.0
 40
40.0
 40
40.0
 40
41.0
 40
41.0
 40
41.0
 40
42.0
 40
42.0
 40
42.0
 40
43.0
 40
43.0
 40
43.0
 40
44.0
 40
44.0
 40
44.0
 40
45.0
 40
45.0
 40
45.0
 40
46.0
 40
46.0
 40
46.0
 40
47.0
 40
47.0
 40
47.0
 40
48.0
 40
48.0
 40
48.0
 40
49.0
 40
49.0
 40
49.0
 40
50.0
 40
50.0
 40
50.0
 40
51.0
 40
51.0
 40
51.0
 40
52.0
 40
52.0
 40
52.0
 40
53.0
 40
53.0
 40
53.0
 40
54.0
 40
54.0
 40
54.0
 40
55.0
 40
55.0
 40
55.0
 40
56.0
 40
56.0
 40
56.0
 40
57.0
 40
57.0
 40
57.0
 40
58.0
 40
58.0
 40
58.0
 40
59.0
 40
59.0
 40
59.0
 40
60.0
 40
60.0
 40
60.0
 40
61.0
 40
61.0
 40
61.0
 40
62.0
 40
62.0
 40
62.0
 40
63.0
 40
63.0
 40
63.0
 40
64.0
 40
64.0
 40
64.0
 40
65.0
 40
65.0
 40
65.0
 40
66.0
 40
66.0
 40
66.0
 40
67.0
 40
67.0
 40
67.0
 40
68.0
 40
68.0
 40
68.0
 40
69.0
 40
69.0
 40
69.0
 40
70.0
 40
70.0
 40
70.0
 40
71.0
 40
71.0
 40
71.0
 40
72.0
 40
72.0
 40
72.0
 40
73.0
 40
73.0
 40
73.0
 40
74.0
 40
74.0
 40
74.0
 40
75.0
 40
75.0
 40
75.0
 40
76.0
 40
76.0
 40
76.0
 40
77.0
 40
77.0
 40
77.0
 40
78.0
 40
78.0
 40
78.0
 40
79.0
 40
79.0
 40
79.0
 40
80.0
 40
80.0
 40
80.0
 40
81.0
 40
81.0
 40
81.0
 40
82.0
 40
82.0
 40
82.0
 40
83.0
 40
83.0
 40
83.0
 40
84.0
 40
84.0
 40
84.0
 40
85.0
 40
85.0
 40
85.0
 40
86.0
 40
86.0
 40
86.0
 40
87.0
 40
87.0
 40
87.0
 40
88.0
 40
88.0
 40
88.0
 40
89.0
 40
89.0
 40
89.0
 40
90.0
 40
90.0
 40
90.0
 40
91.0
 40
91.0
 40
91.0
 40
92.0
 40
92.0
 40
92.0
 40
93.0
 40
93.0
 40
93.0
 40
94.0
 40
94.0
 40
94.0
 40
95.0
 40
95.0
 40
95.0
 40
96.0
 40
96.0
 40
96.0
 40
97.0
 40
97.0
 40
97.0
 40
98.0
 40
98.0
 40
98.0
 40
99.0
 40
99.0
 40
99.0
 40
100.0
 40
100.0
 40
100.0
 40
101.0
 40
101.0
 40
101.0
 40
102.0
 40
102.0
 40
102.0
 40
103.0
 40
103.0
 40
103.0
 40
104.0
 40
104.0
 40
104.0
 40
105.0
 40
105.0
 40
105.0
 40
106.0
 40
106.0
 40
106.0
 40
107.0
 40
107.0
 40
107.0
 40
108.0
 40
108.0
 40
108.0
 40
109.0
 40
109.0
 40
109.0
 40
110.0
 40
110.0
 40
110.0
 40
111.0
 40
111.0
 40
111.0
 40
112.0
 40
112.0
 40
112.0
 40
113.0
 40
113.0
 40
113.0
 40
114.0
 40
114.0
 40
114.0
 40
115.0
 40
115.0
 40
115.0
 40
116.0
 40
116.0
 40
116.0
 40
117.0
 40
117.0
 40
117.0
 40
118.0
 40
118.0
 40
118.0
 40
119.0
 40
119.0
 40
119.0
 40
120.0
 40
120.0
 40
120.0
 40
121.0
 40
121.0
 40
121.0
 40
122.0
 40
122.0
 40
122.0
 40
123.0
 40
123.0
 40
123.0
 40
124.0
 40
124.0
 40
124.0
 40
125.0
 40
125.0
 40
125.0
 40
126.0
 40
126.0
 40
126.0
 40
127.0
 40
127.0
 40
127.0
 40
128.0
 40
128.0
 40
128.0
 40
129.0
 40
129.0
 40
129.0
 40
130.0
 40
130.0
 40
130.0
 40
131.0
 40
131.0
 40
131.0
 40
132.0
 40
132.0
 40
132.0
 40
133.0
 40
133.0
 40
133.0
 40
134.0
 40
134.0
 40
134.0
 40
135.0
 40
135.0
 40
135.0
 40
136.0
 40
136.0
 40
136.0
 40
137.0
 40
137.0
 40
137.0
 40
138.0
 40
138.0
 40
138.0
 40
139.0
 40
139.0
 40
139.0
 40
140.0
 40
140.0
 40
140.0
 40
141.0
 40
141.0
 40
141.0
 40
142.0
 40
142.0
 40
142.0
 40
143.0
 40
143.0
 40
143.0
 40
144.0
 40
144.0
 40
144.0
 40
145.0
 40
145.0
 40
145.0
 40
146.0
 40
146.0
 40
146.0
 40
147.0
 40
147.0
 40
147.0
 40
148.0
 40
148.0
 40
148.0
 40
149.0
 40
149.0
 40
149.0
 40
150.0
 40
150.0
 40
150.0
 40
151.0
 40
151.0
 40
151.0
 40
152.0
 40
152.0
 40
152.0
 40
153.0
 40
153.0
 40
153.0
 40
154.0
 40
154.0
 40
154.0
 40
155.0
 40
155.0
 40
155.0
 40
156.0
 40
156.0
 40
156.0
 40
157.0
 40
157.0
 40
157.0
 40
158.0
 40
158.0
 40
158.0
 40
159.0
 40
159.0
 40
159.0
 40
160.0
 40
160.0
 40
160.0
 40
161.0
 40
161.0
 40
161.0
 40
162.0
 40
162.0
 40
162.0
 40
163.0
 40
163.0
 40
163.0
 40
164.0
 40
164.0
 40
164.0
 40
165.0
 40
165.0
 40
165.0
 40
166.0
 40
166.0
 40
166.0
 40
167.0
 40
167.0
 40
167.0
 40
168.0
 40
168.0
 40
168.0
 40
169.0
 40
169.0
 40
169.0
 40
170.0
 40
170.0
 40
170.0
 40
171.0
 40
171.0
 40
171.0
 40
172.0
 40
172.0
 40
172.0
 40
173.0
 40
173.0
 40
173.0
 40
174.0
 40
174.0
 40
174.0
 40
175.0
 40
175.0
 40
175.0
 40
176.0
 40
176.0
 40
176.0
 40
177.0
 40
177.0
 40
177.0
 40
178.0
 40
178.0
 40
178.0
 40
179.0
 40
179.0
 40
179.0
 40
180.0
 40
180.0
 40
180.0
 40
181.0
 40
181.0
 40
181.0
 40
182.0
 40
182.0
 40
182.0
 40
183.0
 40
183.0
 40
183.0
 40
184.0
 40
184.0
 40
184.0
 40
185.0
 40
185.0
 40
185.0
 40
186.0
 40
186.0
 40
186.0
 40
187.0
 40
187.0
 40
187.0
 40
188.0
 40
188.0
 40
188.0
 40
189.0
 40
189.0
 40
189.0
 40
190.0
 40
190.0
 40
190.0
 40
191.0
 40
191.0
 40
191.0
 40
192.0
 40
192.0
 40
192.0
 40
193.0
 40
193.0
 40
193.0
 40
194.0
 40
194.0
 40
194.0
 40
195.0
 40
195.0
 40
195.0
 40
196.0
 40
196.0
 40
196.0
 40
197.0
 40
197.0
 40
197.0
 40
198.0
 40
198.0
 40
198.0
 40
199.0
 40
199.0
 40
199.0
 40
200.0
 40
200.0
 40
200.0
 40
201.0
 40
201.0
 40
201.0
 40
202.0
 40
202.0
 40
202.0
 40
203.0
 40
203.0
 40
203.0
 40
204.0
 40
204.0
 40
204.0
 40
205.0
 40
205.0
 40
205.0
 40
206.0
 40
206.0
 40
206.0
 40
207.0
 40
207.0
 40
207.0
 40
208.0
 40
208.0
 40
208.0
 40
209.0
 40
209.0
 40
209.0
 40
210.0
 40
210.0
 40
210.0
 40
211.0
 40
211.0
 40
211.0
 40
212.0
 40
212.0
 40
212.0
 40
213.0
 40
213.0
 40
213.0
 40
214.0
 40
214.0
 40
214.0
 40
215.0
 40
215.0
 40
215.0
 40
216.0
 40
216.0
 40
216.0
 40
217.0
 40
217.0
 40
217.0
 40
218.0
 40
218.0
 40
218.0
 40
218.0
 10
151.3427961767593
 20
517.7831869196962
 30
0.0
 10
151.5839999999998
 20
517.7655869201408
 30
0.0
 10
151.8197961647093
 20
517.7328869209668
 30
0.0
 10
152.0507961588737
 20
517.6850869221744
 30
0.0
 10
152.0507961588737
 20
517.6850869221744
 30
0.0
 10
152.1112961573454
 20
517.9096869165005
 30
0.0
 10
152.1112961573454
 20
517.9096869165005
 30
0.0
 10
152.1112961573454
 20
517.9096869165005
 30
0.0
 10
152.7875961402606
 20
517.728486921078
 30
0.0
 10
152.7875961402606
 20
517.728486921078
 30
0.0
 10
152.7875961402606
 20
517.728486921078
 30
0.0
 10
152.7255961418268
 20
517.499486926863
 30
0.0
 10
152.7255961418268
 20
517.499486926863
 30
0.0
 10
152.9525961360923
 20
517.4208869288486
 30
0.0
 10
153.1718961305523
 20
517.3270869312182
 30
0.0
 10
153.3842961251867
 20
517.2206869339061
 30
0.0
 10
153.3842961251867
 20
517.2206869339061
 30
0.0
 10
153.5
 20
517.421386928836
 30
0.0
 10
153.5
 20
517.421386928836
 30
0.0
 10
153.5
 20
517.421386928836
 30
0.0
 10
154.1059999999998
 20
517.0717869376676
 30
0.0
 10
154.1059999999998
 20
517.0717869376676
 30
0.0
 10
154.1059999999998
 20
517.0717869376676
 30
0.0
 10
153.9872961099536
 20
516.8646869428994
 30
0.0
 10
153.9872961099536
 20
516.8646869428994
 30
0.0
 10
154.1845961049694
 20
516.7304869462896
 30
0.0
 10
154.3725961002201
 20
516.5844869499779
 30
0.0
 10
154.5497960957437
 20
516.425786953987
 30
0.0
 10
154.5497960957437
 20
516.425786953987
 30
0.0
 10
154.7152960915628
 20
516.5907869498187
 30
0.0
 10
154.7152960915628
 20
516.5907869498187
 30
0.0
 10
154.7152960915628
 20
516.5907869498187
 30
0.0
 10
155.2103960790555
 20
516.0961869623134
 30
0.0
 10
155.2103960790555
 20
516.0961869623134
 30
0.0
 10
155.2103960790555
 20
516.0961869623134
 30
0.0
 10
155.0404960833475
 20
515.9271869665827
 30
0.0
 10
155.0404960833475
 20
515.9271869665827
 30
0.0
 10
155.1962960794117
 20
515.746586971145
 30
0.0
 10
155.3407960757613
 20
515.5565869759448
 30
0.0
 10
155.4726960724292
 20
515.3563869810023
 30
0.0
 10
155.4726960724292
 20
515.3563869810023
 30
0.0
 10
155.6732960673617
 20
515.4735869780416
 30
0.0
 10
155.6732960673617
 20
515.4735869780416
 30
0.0
 10
155.6732960673617
 20
515.4735869780416
 30
0.0
 10
156.0238960585048
 20
514.8671869933605
 30
0.0
 10
156.0238960585048
 20
514.8671869933605
 30
0.0
 10
156.0238960585048
 20
514.8671869933605
 30
0.0
 10
155.8178960637088
 20
514.7484869963591
 30
0.0
 10
155.8178960637088
 20
514.7484869963591
 30
0.0
 10
155.8320000000003
 20
514.7191869970993
 30
0.0
 10
155.8461960629938
 20
514.6894869978496
 30
0.0
 10
155.8598960626477
 20
514.6596869986024
 30
0.0
 10
156.4570000000003
 20
514.7265869969124
 30
0.0
 10
156.9965960339323
 20
514.7885869953461
 30
0.0
 10
157.4042960236329
 20
514.8358869941512
 30
0.0
 10
157.4042960236329
 20
514.8358869941512
 30
0.0
 10
157.1122960310095
 20
516.2929999999997
 30
0.0
 10
157.1122960310095
 20
516.2929999999997
 30
0.0
 10
157.1122960310095
 20
516.2929999999997
 30
0.0
 10
158.0453960074374
 20
516.96
 30
0.0
 10
158.0453960074374
 20
516.96
 30
0.0
 10
158.0453960074374
 20
516.96
 30
0.0
 10
155.595696069322
 20
519.0468868877724
 30
0.0
 10
155.595696069322
 20
519.0468868877724
 30
0.0
 10
155.4345960733917
 20
518.9560868900662
 30
0.0
 10
155.2743960774387
 20
518.8603868924838
 30
0.0
 10
155.1132960815085
 20
518.7597868950252
 30
0.0
 10
152.5434961464271
 20
520.4291868528526
 30
0.0
 10
149.1073962332302
 20
520.5355868501647
 30
0.0
 10
145.1151963340817
 20
519.8930868663956
 30
0.0
 10
145.0707963352033
 20
520.2479999999996
 30
0.0
 10
145.0268963363123
 20
519.9730868643746
 30
0.0
 10
144.9823963374365
 20
520.3290868553813
 30
0.0
 10
146.4574963001724
 20
521.162086834338
 30
0.0
 10
148.2255962555064
 20
521.6937868209061
 30
0.0
 10
150.0995962081652
 20
521.9643868140702
 30
0.0
 10
150.0995962081652
 20
521.9643868140702
 30
0.0
 10
149.88089621369
 20
523.1083867851703
 30
0.0
 10
149.88089621369
 20
523.1083867851703
 30
0.0
 10
149.88089621369
 20
523.1083867851703
 30
0.0
 10
152.1127961573075
 20
522.8417867919052
 30
0.0
 10
153.7128961168855
 20
522.7748867935952
 30
0.0
 10
155.3119999999999
 20
522.7084867952726
 30
0.0
 10
160.4447959468234
 20
522.8251867923245
 30
0.0
 10
160.4447959468234
 20
522.8251867923245
 30
0.0
 10
160.4447959468234
 20
522.8251867923245
 30
0.0
 10
163.3109999999997
 20
521.825686817574
 30
0.0
 10
163.3109999999997
 20
521.825686817574
 30
0.0
 10
163.3109999999997
 20
521.825686817574
 30
0.0
 10
166.4755957944726
 20
523.9638867635585
 30
0.0
 10
166.4755957944726
 20
523.9638867635585
 30
0.0
 10
166.4755957944726
 20
523.9638867635585
 30
0.0
 10
165.7958958116433
 20
525.381286727752
 30
0.0
 10
165.7958958116433
 20
525.381286727752
 30
0.0
 10
165.7958958116433
 20
525.381286727752
 30
0.0
 10
164.0609999999997
 20
524.7953867425531
 30
0.0
 10
164.0609999999997
 20
524.7953867425531
 30
0.0
 10
164.0609999999997
 20
524.7953867425531
 30
0.0
 10
163.7592958630921
 20
525.6880000000001
 30
0.0
 10
163.7592958630921
 20
525.6880000000001
 30
0.0
 10
163.7592958630921
 20
525.6880000000001
 30
0.0
 10
166.6356957904281
 20
526.6610866954215
 30
0.0
 10
166.6356957904281
 20
526.6610866954215
 30
0.0
 10
166.6356957904281
 20
526.6610866954215
 30
0.0
 10
168.875495733846
 20
526.3080867043391
 30
0.0
 10
168.875495733846
 20
526.3080867043391
 30
0.0
 10
168.875495733846
 20
526.3080867043391
 30
0.0
 10
168.5082957431223
 20
524.6791867454886
 30
0.0
 10
168.5082957431223
 20
524.6791867454886
 30
0.0
 10
170.3510956965692
 20
523.7450867690859
 30
0.0
 10
170.5375956918579
 20
522.7694867937316
 30
0.0
 10
170.6283956895641
 20
521.5190000000002
 30
0.0
 10
172.6435956386558
 20
521.8432868171294
 30
0.0
 10
174.9428955805706
 20
521.4437868272216
 30
0.0
 10
176.8339999999998
 20
520.3993868536054
 30
0.0
 10
176.7450955350432
 20
520.1771868592186
 30
0.0
 10
176.6562955372865
 20
519.954586864842
 30
0.0
 10
176.5668955395449
 20
519.7338868704173
 30
0.0
 10
174.2645955977059
 20
520.5341868502001
 30
0.0
 10
172.2997956473409
 20
520.7484868447864
 30
0.0
 10
170.7226956871818
 20
520.3578868546538
 30
0.0
 10
170.7865956855676
 20
519.834486867876
 30
0.0
 10
170.9022956826448
 20
519.2636868822956
 30
0.0
 10
171.1537956762913
 20
518.6347868981829
 30
0.0
 10
171.2479999999996
 20
518.3983869041549
 30
0.0
 10
171.3954956701855
 20
518.142586910617
 30
0.0
 10
171.5492956663002
 20
517.9071869165637
 30
0.0
 10
171.5492956663002
 20
517.9071869165637
 30
0.0
 10
171.639595664019
 20
517.9311869159574
 30
0.0
 10
171.639595664019
 20
517.9311869159574
 30
0.0
 10
171.639595664019
 20
517.9311869159574
 30
0.0
 10
171.7020956624401
 20
517.701686921755
 30
0.0
 10
171.7020956624401
 20
517.701686921755
 30
0.0
 10
171.9335956565919
 20
517.7450869206587
 30
0.0
 10
172.1698956506225
 20
517.7743869199185
 30
0.0
 10
172.4105956445419
 20
517.7885869195597
 30
0.0
 10
172.4105956445419
 20
517.7885869195597
 30
0.0
 10
172.4105956445419
 20
518.0219999999999
 30
0.0
 10
172.4105956445419
 20
518.0219999999999
 30
0.0
 10
172.4105956445419
 20
518.0219999999999
 30
0.0
 10
173.1103956268635
 20
518.0219999999999
 30
0.0
 10
173.1103956268635
 20
518.0219999999999
 30
0.0
 10
173.1103956268635
 20
518.0219999999999
 30
0.0
 10
173.1103956268635
 20
517.7831869196962
 30
0.0
 10
173.1103956268635
 20
517.7831869196962
 30
0.0
 10
173.3510956207829
 20
517.7655869201408
 30
0.0
 10
173.5873956148134
 20
517.7328869209668
 30
0.0
 10
173.8192956089551
 20
517.6850869221744
 30
0.0
 10
173.8192956089551
 20
517.6850869221744
 30
0.0
 10
173.8793956074369
 20
517.9096869165005
 30
0.0
 10
173.8793956074369
 20
517.9096869165005
 30
0.0
 10
173.8793956074369
 20
517.9096869165005
 30
0.0
 10
174.5546955903774
 20
517.728486921078
 30
0.0
 10
174.5546955903774
 20
517.728486921078
 30
0.0
 10
174.5546955903774
 20
517.728486921078
 30
0.0
 10
174.4936955919184
 20
517.499486926863
 30
0.0
 10
174.4936955919184
 20
517.499486926863
 30
0.0
 10
174.7196955862091
 20
517.4208869288486
 30
0.0
 10
174.9394955806565
 20
517.3270869312182
 30
0.0
 10
175.1513955753035
 20
517.2206869339061
 30
0.0
 10
175.1513955753035
 20
517.2206869339061
 30
0.0
 10
175.2680955723554
 20
517.421386928836
 30
0.0
 10
175.2680955723554
 20
517.421386928836
 30
0.0
 10
175.2680955723554
 20
517.421386928836
 30
0.0
 10
175.8744955570364
 20
517.0717869376676
 30
0.0
 10
175.8744955570364
 20
517.0717869376676
 30
0.0
 10
175.8744955570364
 20
517.0717869376676
 30
0.0
 10
175.7548955600578
 20
516.8646869428994
 30
0.0
 10
175.7548955600578
 20
516.8646869428994
 30
0.0
 10
175.9520955550761
 20
516.7304869462896
 30
0.0
 10
176.1400955503268
 20
516.5844869499779
 30
0.0
 10
176.3178955458352
 20
516.425786953987
 30
0.0
 10
176.3178955458352
 20
516.425786953987
 30
0.0
 10
176.4828955416669
 20
516.5907869498187
 30
0.0
 10
176.4828955416669
 20
516.5907869498187
 30
0.0
 10
176.4828955416669
 20
516.5907869498187
 30
0.0
 10
176.9780000000001
 20
516.0961869623134
 30
0.0
 10
176.9780000000001
 20
516.0961869623134
 30
0.0
 10
176.9780000000001
 20
516.0961869623134
 30
0.0
 10
176.8090955334264
 20
515.9271869665827
 30
0.0
 10
176.8090955334264
 20
515.9271869665827
 30
0.0
 10
176.9647955294931
 20
515.746586971145
 30
0.0
 10
177.1083955258655
 20
515.5565869759448
 30
0.0
 10
177.2396955225486
 20
515.3563869810023
 30
0.0
 10
177.2396955225486
 20
515.3563869810023
 30
0.0
 10
177.4418955174406
 20
515.4735869780416
 30
0.0
 10
177.4418955174406
 20
515.4735869780416
 30
0.0
 10
177.4418955174406
 20
515.4735869780416
 30
0.0
 10
177.7920000000004
 20
514.8671869933605
 30
0.0
 10
177.7920000000004
 20
514.8671869933605
 30
0.0
 10
177.7920000000004
 20
514.8671869933605
 30
0.0
 10
177.5853955138155
 20
514.7484869963591
 30
0.0
 10
177.5853955138155
 20
514.7484869963591
 30
0.0
 10
177.6894955111857
 20
514.5346870017602
 30
0.0
 10
177.7792955089171
 20
514.3144870073229
 30
0.0
 10
177.8540000000003
 20
514.0863870130852
 30
0.0
 10
177.8540000000003
 20
514.0863870130852
 30
0.0
 10
178.0780955013688
 20
514.1464870115669
 30
0.0
 10
178.0780955013688
 20
514.1464870115669
 30
0.0
 10
178.0780955013688
 20
514.1464870115669
 30
0.0
 10
178.2597954967787
 20
513.4701870286517
 30
0.0
 10
178.2597954967787
 20
513.4701870286517
 30
0.0
 10
178.2597954967787
 20
513.4701870286517
 30
0.0
 10
178.0302955025763
 20
513.408187030218
 30
0.0
 10
178.0302955025763
 20
513.408187030218
 30
0.0
 10
178.07369550148
 20
513.1762870360762
 30
0.0
 10
178.1034955007271
 20
512.9403870420356
 30
0.0
 10
178.1171955003811
 20
512.6996870481162
 30
0.0
 10
178.1171955003811
 20
512.6996870481162
 30
0.0
 10
178.3510954944722
 20
512.6996870481162
 30
0.0
 10
178.3510954944722
 20
512.6996870481162
 30
0.0
 10
178.3510954944722
 20
512.6996870481162
 30
0.0
 10
178.3510954944722
 20
512.0
 30
0.0
 10
178.3510954944722
 20
512.0
 30
0.0
 10
178.3510954944722
 20
512.0
 30
0.0
 10
178.1117955005175
 20
512.0
 30
0.0
 10
178.1117955005175
 20
512.0
 30
0.0
 10
178.0941955009621
 20
511.7587870718853
 30
0.0
 10
178.0609999999997
 20
511.5228870778446
 30
0.0
 10
178.0136955029957
 20
511.2920000000004
 30
0.0
 10
178.0136955029957
 20
511.2920000000004
 30
0.0
 10
178.2387954973092
 20
511.2309999999998
 30
0.0
 10
178.2387954973092
 20
511.2309999999998
 30
0.0
 10
178.2387954973092
 20
511.2309999999998
 30
0.0
 10
178.0570955018993
 20
510.5551871022908
 30
0.0
 10
178.0570955018993
 20
510.5551871022908
 30
0.0
 10
178.0570955018993
 20
510.5551871022908
 30
0.0
 10
177.8270955077096
 20
510.6166871007372
 30
0.0
 10
177.8270955077096
 20
510.6166871007372
 30
0.0
 10
177.7484955096952
 20
510.3905871064489
 30
0.0
 10
177.655795512037
 20
510.170887111999
 30
0.0
 10
177.5482955147527
 20
509.9584871173647
 30
0.0
 10
177.5482955147527
 20
509.9584871173647
 30
0.0
 10
177.7504955096447
 20
509.8422871203002
 30
0.0
 10
177.7504955096447
 20
509.8422871203002
 30
0.0
 10
177.7504955096447
 20
509.8422871203002
 30
0.0
 10
177.4003955184889
 20
509.2357871356216
 30
0.0
 10
177.4003955184889
 20
509.2357871356216
 30
0.0
 10
177.4003955184889
 20
509.2357871356216
 30
0.0
 10
177.1937955237081
 20
509.3554871325978
 30
0.0
 10
177.1937955237081
 20
509.3554871325978
 30
0.0
 10
177.0590955271109
 20
509.158187137582
 30
0.0
 10
176.9130955307992
 20
508.9701871423313
 30
0.0
 10
176.7533955348335
 20
508.7924871468203
 30
0.0
 10
176.7533955348335
 20
508.7924871468203
 30
0.0
 10
176.91939553064
 20
508.6273871509911
 30
0.0
 10
176.91939553064
 20
508.6273871509911
 30
0.0
 10
176.91939553064
 20
508.6273871509911
 30
0.0
 10
176.4247955431347
 20
508.1322871634984
 30
0.0
 10
176.4247955431347
 20
508.1322871634984
 30
0.0
 10
176.4247955431347
 20
508.1322871634984
 30
0.0
 10
176.2553955474141
 20
508.3012871592291
 30
0.0
 10
176.2553955474141
 20
508.3012871592291
 30
0.0
 10
176.0751955519663
 20
508.1454871631649
 30
0.0
 10
175.8842955567889
 20
508.0020000000004
 30
0.0
 10
175.6850955618211
 20
507.8705871701095
 30
0.0
 10
175.6850955618211
 20
507.8705871701095
 30
0.0
 10
175.801795558873
 20
507.668487175215
 30
0.0
 10
175.801795558873
 20
507.668487175215
 30
0.0
 10
175.801795558873
 20
507.668487175215
 30
0.0
 10
175.1957955741818
 20
507.3178871840719
 30
0.0
 10
175.1957955741818
 20
507.3178871840719
 30
0.0
 10
175.1957955741818
 20
507.3178871840719
 30
0.0
 10
175.0761955772032
 20
507.5248871788426
 30
0.0
 10
175.0761955772032
 20
507.5248871788426
 30
0.0
 10
174.8632955825815
 20
507.4208871814699
 30
0.0
 10
174.6415955881821
 20
507.3310871837384
 30
0.0
 10
174.4140955939292
 20
507.2558871856381
 30
0.0
 10
174.4140955939292
 20
507.2558871856381
 30
0.0
 10
174.4740955924135
 20
507.0316871913019
 30
0.0
 10
174.4740955924135
 20
507.0316871913019
 30
0.0
 10
174.4740955924135
 20
507.0316871913019
 30
0.0
 10
173.798795609473
 20
506.8505871958769
 30
0.0
 10
173.798795609473
 20
506.8505871958769
 30
0.0
 10
173.798795609473
 20
506.8505871958769
 30
0.0
 10
173.7367956110393
 20
507.0800871900792
 30
0.0
 10
173.7367956110393
 20
507.0800871900792
 30
0.0
 10
173.5048956168976
 20
507.0360871911907
 30
0.0
 10
173.268595622867
 20
507.0067871919309
 30
0.0
 10
173.0277956289501
 20
506.9931871922745
 30
0.0
 10
173.0277956289501
 20
506.9931871922745
 30
0.0
 10
173.0277956289501
 20
506.7592871981833
 30
0.0
 10
173.0277956289501
 20
506.7592871981833
 30
0.0
 10
173.0277956289501
 20
506.7592871981833
 30
0.0
 10
172.3275956466387
 20
506.7592871981833
 30
0.0
 10
172.3275956466387
 20
506.7592871981833
 30
0.0
 10
172.3275956466387
 20
506.7592871981833
 30
0.0
 10
172.3275956466387
 20
506.9984871921406
 30
0.0
 10
172.3275956466387
 20
506.9984871921406
 30
0.0
 10
172.0863956527319
 20
507.016087191696
 30
0.0
 10
171.8505956586887
 20
507.0492871908573
 30
0.0
 10
171.6195956645242
 20
507.0966871896599
 30
0.0
 10
171.6195956645242
 20
507.0966871896599
 30
0.0
 10
171.55959566604
 20
506.8715871953464
 30
0.0
 10
171.55959566604
 20
506.8715871953464
 30
0.0
 10
171.55959566604
 20
506.8715871953464
 30
0.0
 10
170.8842956830995
 20
507.0531871907588
 30
0.0
 10
170.8842956830995
 20
507.0531871907588
 30
0.0
 10
170.8842956830995
 20
507.0531871907588
 30
0.0
 10
170.9447956815711
 20
507.2826871849611
 30
0.0
 10
170.9447956815711
 20
507.2826871849611
 30
0.0
 10
170.718295687293
 20
507.3617871829629
 30
0.0
 10
170.4984956928456
 20
507.4545871806185
 30
0.0
 10
170.2875956981734
 20
507.5619999999999
 30
0.0
 10
170.2875956981734
 20
507.5619999999999
 30
0.0
 10
170.1708957011215
 20
507.3598871830109
 30
0.0
 10
170.1708957011215
 20
507.3598871830109
 30
0.0
 10
170.1708957011215
 20
507.3598871830109
 30
0.0
 10
169.5644957164404
 20
507.71
 30
0.0
 10
169.5644957164404
 20
507.71
 30
0.0
 10
169.5644957164404
 20
507.71
 30
0.0
 10
169.6840957134191
 20
507.9170000000004
 30
0.0
 10
169.6840957134191
 20
507.9170000000004
 30
0.0
 10
169.4857957184286
 20
508.0512871655446
 30
0.0
 10
169.2978957231753
 20
508.1972871618564
 30
0.0
 10
169.1205957276543
 20
508.3568871578245
 30
0.0
 10
169.1205957276543
 20
508.3568871578245
 30
0.0
 10
168.9550957318352
 20
508.190887162018
 30
0.0
 10
168.9550957318352
 20
508.190887162018
 30
0.0
 10
168.9550957318352
 20
508.190887162018
 30
0.0
 10
168.4603957443323
 20
508.6854871495234
 30
0.0
 10
168.4603957443323
 20
508.6854871495234
 30
0.0
 10
168.4603957443323
 20
508.6854871495234
 30
0.0
 10
168.6298957400504
 20
508.8554871452288
 30
0.0
 10
168.6298957400504
 20
508.8554871452288
 30
0.0
 10
168.4740957439863
 20
509.0351871406892
 30
0.0
 10
168.3295957476366
 20
509.2260871358667
 30
0.0
 10
168.1986957509434
 20
509.4247871308471
 30
0.0
 10
168.1986957509434
 20
509.4247871308471
 30
0.0
 10
167.9970957560363
 20
509.3080871337952
 30
0.0
 10
167.9970957560363
 20
509.3080871337952
 30
0.0
 10
167.9970957560363
 20
509.3080871337952
 30
0.0
 10
167.6469999999999
 20
509.9145871184737
 30
0.0
 10
167.6469999999999
 20
509.9145871184737
 30
0.0
 10
167.6469999999999
 20
509.9145871184737
 30
0.0
 10
167.8530000000001
 20
510.0341871154524
 30
0.0
 10
167.8530000000001
 20
510.0341871154524
 30
0.0
 10
167.7494957622912
 20
510.2465871100867
 30
0.0
 10
167.6596957645597
 20
510.4682871044861
 30
0.0
 10
167.5839999999998
 20
510.6962870987263
 30
0.0
 10
167.5839999999998
 20
510.6962870987263
 30
0.0
 10
167.3593957721459
 20
510.6361871002446
 30
0.0
 10
167.3593957721459
 20
510.6361871002446
 30
0.0
 10
167.3593957721459
 20
510.6361871002446
 30
0.0
 10
167.1791957766982
 20
511.3114870831851
 30
0.0
 10
167.1791957766982
 20
511.3114870831851
 30
0.0
 10
167.1791957766982
 20
511.3114870831851
 30
0.0
 10
167.4086957709005
 20
511.3734870816188
 30
0.0
 10
167.4086957709005
 20
511.3734870816188
 30
0.0
 10
167.3642957720222
 20
511.6049999999996
 30
0.0
 10
167.3358957727396
 20
511.8412870698012
 30
0.0
 10
167.3217957730958
 20
512.082487063708
 30
0.0
 10
167.3217957730958
 20
512.082487063708
 30
0.0
 10
167.088395778992
 20
512.082487063708
 30
0.0
 10
167.088395778992
 20
512.082487063708
 30
0.0
 10
167.088395778992
 20
512.082487063708
 30
0.0
 10
167.088395778992
 20
512.7826870460194
 30
0.0
 10
167.088395778992
 20
512.7826870460194
 30
0.0
 10
167.088395778992
 20
512.7826870460194
 30
0.0
 10
167.3270957729619
 20
512.7826870460194
 30
0.0
 10
167.3270957729619
 20
512.7826870460194
 30
0.0
 10
167.3446957725173
 20
513.0238870399262
 30
0.0
 10
167.3770000000004
 20
513.2597870339669
 30
0.0
 10
167.4252957704812
 20
513.4906870281338
 30
0.0
 10
167.4252957704812
 20
513.4906870281338
 30
0.0
 10
167.2001957761677
 20
513.5507870266156
 30
0.0
 10
167.2001957761677
 20
513.5507870266156
 30
0.0
 10
167.2001957761677
 20
513.5507870266156
 30
0.0
 10
167.3817957715801
 20
514.2265870095434
 30
0.0
 10
167.3817957715801
 20
514.2265870095434
 30
0.0
 10
167.3817957715801
 20
514.2265870095434
 30
0.0
 10
167.610795765795
 20
514.165
 30
0.0
 10
167.610795765795
 20
514.165
 30
0.0
 10
167.6894957638069
 20
514.3920870053626
 30
0.0
 10
167.7831957614399
 20
514.6117869998125
 30
0.0
 10
167.8891957587621
 20
514.8227869944822
 30
0.0
 10
167.8891957587621
 20
514.8227869944822
 30
0.0
 10
167.6884957638322
 20
514.9394869915341
 30
0.0
 10
167.6884957638322
 20
514.9394869915341
 30
0.0
 10
167.6884957638322
 20
514.9394869915341
 30
0.0
 10
168.0385957549879
 20
515.5453869762277
 30
0.0
 10
168.0385957549879
 20
515.5453869762277
 30
0.0
 10
168.0385957549879
 20
515.5453869762277
 30
0.0
 10
168.2455957497586
 20
515.4262869792365
 30
0.0
 10
168.2455957497586
 20
515.4262869792365
 30
0.0
 10
168.3798957463659
 20
515.6234869742548
 30
0.0
 10
168.526395742665
 20
515.8124869694802
 30
0.0
 10
168.6840957386812
 20
515.9892869650139
 30
0.0
 10
168.6840957386812
 20
515.9892869650139
 30
0.0
 10
168.5194957428394
 20
516.1552869608204
 30
0.0
 10
168.5194957428394
 20
516.1552869608204
 30
0.0
 10
168.5194957428394
 20
516.1552869608204
 30
0.0
 10
169.0141957303422
 20
516.6498869483257
 30
0.0
 10
169.0141957303422
 20
516.6498869483257
 30
0.0
 10
169.0141957303422
 20
516.6498869483257
 30
0.0
 10
169.1830957260754
 20
516.4804869526051
 30
0.0
 10
169.1830957260754
 20
516.4804869526051
 30
0.0
 10
169.3637957215105
 20
516.6361869486718
 30
0.0
 10
169.5536957167133
 20
516.7802869450315
 30
0.0
 10
169.7533957116684
 20
516.9115869417146
 30
0.0
 10
169.7533957116684
 20
516.9115869417146
 30
0.0
 10
169.6366957146165
 20
517.1132869366193
 30
0.0
 10
169.6366957146165
 20
517.1132869366193
 30
0.0
 10
169.6366957146165
 20
517.1132869366193
 30
0.0
 10
169.7333957121737
 20
517.1688869352147
 30
0.0
 10
169.7333957121737
 20
517.1688869352147
 30
0.0
 10
169.7333957121737
 20
517.1688869352147
 30
0.0
 10
168.6908957385094
 20
519.34228688031
 30
0.0
 10
168.6908957385094
 20
519.34228688031
 30
0.0
 10
168.6908957385094
 20
519.34228688031
 30
0.0
 10
168.6537957394467
 20
519.3109999999997
 30
0.0
 10
168.6537957394467
 20
519.3109999999997
 30
0.0
 10
168.6537957394467
 20
519.3109999999997
 30
0.0
 10
165.5102958188581
 20
515.4267869792238
 30
0.0
 10
165.5102958188581
 20
515.4267869792238
 30
0.0
 10
165.5102958188581
 20
515.4267869792238
 30
0.0
 10
164.5102958441203
 20
515.5604869758463
 30
0.0
 10
164.5102958441203
 20
515.5604869758463
 30
0.0
 10
164.5102958441203
 20
515.5604869758463
 30
0.0
 10
162.9101958845422
 20
512.2943870583549
 30
0.0
 10
162.9101958845422
 20
512.2943870583549
 30
0.0
 10
162.9101958845422
 20
512.2943870583549
 30
0.0
 10
157.9120960108048
 20
512.2943870583549
 30
0.0
 10
157.9120960108048
 20
512.2943870583549
 30
0.0
 10
157.9120960108048
 20
512.2943870583549
 30
0.0
 10
157.8812960115829
 20
512.4462870545176
 30
0.0
 10
157.8812960115829
 20
512.4462870545176
 30
0.0
 10
157.8812960115829
 20
512.4462870545176
 30
0.0
 10
156.5824960443933
 20
512.085
 30
0.0
 10
156.5824960443933
 20
512.085
 30
0.0
 10
156.5824960443933
 20
512.085
 30
0.0
 10
156.5824960443933
 20
512.0
 30
0.0
 10
156.5824960443933
 20
512.0
 30
0.0
 10
156.5824960443933
 20
512.0
 30
0.0
 10
156.343296050436
 20
512.0
 30
0.0
 10
156.343296050436
 20
512.0
 30
0.0
 10
156.3266960508554
 20
511.7587870718853
 30
0.0
 10
156.2934960516941
 20
511.5228870778446
 30
0.0
 10
156.2450960529168
 20
511.2910000000002
 30
0.0
 10
156.2450960529168
 20
511.2910000000002
 30
0.0
 10
156.4701960472303
 20
511.2309999999998
 30
0.0
 10
156.4701960472303
 20
511.2309999999998
 30
0.0
 10
156.4701960472303
 20
511.2309999999998
 30
0.0
 10
156.2895960517926
 20
510.5551871022908
 30
0.0
 10
156.2895960517926
 20
510.5551871022908
 30
0.0
 10
156.2895960517926
 20
510.5551871022908
 30
0.0
 10
156.0600960575903
 20
510.6166871007372
 30
0.0
 10
156.0600960575903
 20
510.6166871007372
 30
0.0
 10
155.9809999999998
 20
510.3905871064489
 30
0.0
 10
155.8876960619455
 20
510.170887111999
 30
0.0
 10
155.780796064646
 20
509.9584871173647
 30
0.0
 10
155.780796064646
 20
509.9584871173647
 30
0.0
 10
155.9818960595658
 20
509.8422871203002
 30
0.0
 10
155.9818960595658
 20
509.8422871203002
 30
0.0
 10
155.9818960595658
 20
509.8422871203002
 30
0.0
 10
155.6322960683974
 20
509.2357871356216
 30
0.0
 10
155.6322960683974
 20
509.2357871356216
 30
0.0
 10
155.6322960683974
 20
509.2357871356216
 30
0.0
 10
155.425796073614
 20
509.3554871325978
 30
0.0
 10
155.425796073614
 20
509.3554871325978
 30
0.0
 10
155.2920000000004
 20
509.158187137582
 30
0.0
 10
155.1444960807203
 20
508.9701871423313
 30
0.0
 10
154.9857960847294
 20
508.7924871468203
 30
0.0
 10
154.9857960847294
 20
508.7924871468203
 30
0.0
 10
155.1508960805586
 20
508.6273871509911
 30
0.0
 10
155.1508960805586
 20
508.6273871509911
 30
0.0
 10
155.1508960805586
 20
508.6273871509911
 30
0.0
 10
154.6562960930532
 20
508.1322871634984
 30
0.0
 10
154.6562960930532
 20
508.1322871634984
 30
0.0
 10
154.6562960930532
 20
508.1322871634984
 30
0.0
 10
154.4877960973099
 20
508.3012871592291
 30
0.0
 10
154.4877960973099
 20
508.3012871592291
 30
0.0
 10
154.3070961018748
 20
508.1454871631649
 30
0.0
 10
154.1171961066721
 20
508.0020000000004
 30
0.0
 10
153.9170000000004
 20
507.8705871701095
 30
0.0
 10
153.9170000000004
 20
507.8705871701095
 30
0.0
 10
154.0336961087814
 20
507.668487175215
 30
0.0
 10
154.0336961087814
 20
507.668487175215
 30
0.0
 10
154.0336961087814
 20
507.668487175215
 30
0.0
 10
153.4276961240903
 20
507.3178871840719
 30
0.0
 10
153.4276961240903
 20
507.3178871840719
 30
0.0
 10
153.4276961240903
 20
507.3178871840719
 30
0.0
 10
153.3090961270864
 20
507.5248871788426
 30
0.0
 10
153.3090961270864
 20
507.5248871788426
 30
0.0
 10
153.0961961324647
 20
507.4208871814699
 30
0.0
 10
152.8744961380653
 20
507.3310871837384
 30
0.0
 10
152.6464961438251
 20
507.2558871856381
 30
0.0
 10
152.6464961438251
 20
507.2558871856381
 30
0.0
 10
152.7064961423093
 20
507.0316871913019
 30
0.0
 10
152.7064961423093
 20
507.0316871913019
 30
0.0
 10
152.7064961423093
 20
507.0316871913019
 30
0.0
 10
152.030796159379
 20
506.8505871958769
 30
0.0
 10
152.030796159379
 20
506.8505871958769
 30
0.0
 10
152.030796159379
 20
506.8505871958769
 30
0.0
 10
151.9691961609351
 20
507.0800871900792
 30
0.0
 10
151.9691961609351
 20
507.0800871900792
 30
0.0
 10
151.7377961667808
 20
507.0360871911907
 30
0.0
 10
151.5004961727755
 20
507.0067871919309
 30
0.0
 10
151.259796178856
 20
506.9931871922745
 30
0.0
 10
151.259796178856
 20
506.9931871922745
 30
0.0
 10
151.259796178856
 20
506.7592871981833
 30
0.0
 10
151.259796178856
 20
506.7592871981833
 30
0.0
 10
151.259796178856
 20
506.7592871981833
 30
0.0
 10
150.560096196532
 20
506.7592871981833
 30
0.0
 10
150.560096196532
 20
506.7592871981833
 30
0.0
 10
150.560096196532
 20
506.7592871981833
 30
0.0
 10
150.560096196532
 20
506.9984871921406
 30
0.0
 10
150.560096196532
 20
506.9984871921406
 30
0.0
 10
150.3192962026151
 20
507.016087191696
 30
0.0
 10
150.0829999999996
 20
507.0492871908573
 30
0.0
 10
149.8520962144175
 20
507.0966871896599
 30
0.0
 10
149.8520962144175
 20
507.0966871896599
 30
0.0
 10
149.7920000000004
 20
506.8715871953464
 30
0.0
 10
149.7920000000004
 20
506.8715871953464
 30
0.0
 10
149.7920000000004
 20
506.8715871953464
 30
0.0
 10
149.1156962330206
 20
507.0531871907588
 30
0.0
 10
149.1156962330206
 20
507.0531871907588
 30
0.0
 10
149.1156962330206
 20
507.0531871907588
 30
0.0
 10
149.1767962314771
 20
507.2826871849611
 30
0.0
 10
149.1767962314771
 20
507.2826871849611
 30
0.0
 10
148.9506962371888
 20
507.3617871829629
 30
0.0
 10
148.7309999999998
 20
507.4545871806185
 30
0.0
 10
148.5185962481046
 20
507.5619999999999
 30
0.0
 10
148.5185962481046
 20
507.5619999999999
 30
0.0
 10
148.4032962510173
 20
507.3598871830109
 30
0.0
 10
148.4032962510173
 20
507.3598871830109
 30
0.0
 10
148.4032962510173
 20
507.3598871830109
 30
0.0
 10
147.7963962663489
 20
507.71
 30
0.0
 10
147.7963962663489
 20
507.71
 30
0.0
 10
147.7963962663489
 20
507.71
 30
0.0
 10
147.9160000000002
 20
507.9170000000004
 30
0.0
 10
147.9160000000002
 20
507.9170000000004
 30
0.0
 10
147.7187962683092
 20
508.0512871655446
 30
0.0
 10
147.5307962730585
 20
508.1972871618564
 30
0.0
 10
147.3524962775628
 20
508.3568871578245
 30
0.0
 10
147.3524962775628
 20
508.3568871578245
 30
0.0
 10
147.187496281731
 20
508.190887162018
 30
0.0
 10
147.187496281731
 20
508.190887162018
 30
0.0
 10
147.187496281731
 20
508.190887162018
 30
0.0
 10
146.6928962942256
 20
508.6854871495234
 30
0.0
 10
146.6928962942256
 20
508.6854871495234
 30
0.0
 10
146.6928962942256
 20
508.6854871495234
 30
0.0
 10
146.8617962899589
 20
508.8554871452288
 30
0.0
 10
146.8617962899589
 20
508.8554871452288
 30
0.0
 10
146.7055962939048
 20
509.0351871406892
 30
0.0
 10
146.5624962975198
 20
509.2260871358667
 30
0.0
 10
146.4306963008494
 20
509.4247871308471
 30
0.0
 10
146.4306963008494
 20
509.4247871308471
 30
0.0
 10
146.2284963059574
 20
509.3080871337952
 30
0.0
 10
146.2284963059574
 20
509.3080871337952
 30
0.0
 10
146.2284963059574
 20
509.3080871337952
 30
0.0
 10
145.8793963147764
 20
509.9145871184737
 30
0.0
 10
145.8793963147764
 20
509.9145871184737
 30
0.0
 10
145.8793963147764
 20
509.9145871184737
 30
0.0
 10
146.0853963095724
 20
510.0341871154524
 30
0.0
 10
146.0853963095724
 20
510.0341871154524
 30
0.0
 10
145.9813963121996
 20
510.2465871100867
 30
0.0
 10
145.8910963144808
 20
510.4682871044861
 30
0.0
 10
145.8163963163679
 20
510.6962870987263
 30
0.0
 10
145.8163963163679
 20
510.6962870987263
 30
0.0
 10
145.5922963220291
 20
510.6361871002446
 30
0.0
 10
145.5922963220291
 20
510.6361871002446
 30
0.0
 10
145.5922963220291
 20
510.6361871002446
 30
0.0
 10
145.4105963266193
 20
511.3114870831851
 30
0.0
 10
145.4105963266193
 20
511.3114870831851
 30
0.0
 10
145.4105963266193
 20
511.3114870831851
 30
0.0
 10
145.6410963207964
 20
511.3734870816188
 30
0.0
 10
145.6410963207964
 20
511.3734870816188
 30
0.0
 10
145.596696321918
 20
511.6049999999996
 30
0.0
 10
145.5668963226708
 20
511.8412870698012
 30
0.0
 10
145.5531963230169
 20
512.082487063708
 30
0.0
 10
145.5531963230169
 20
512.082487063708
 30
0.0
 10
145.3207963288878
 20
512.082487063708
 30
0.0
 10
145.3207963288878
 20
512.082487063708
 30
0.0
 10
145.3207963288878
 20
512.082487063708
 30
0.0
 10
145.3207963288878
 20
512.7826870460194
 30
0.0
 10
145.3207963288878
 20
512.7826870460194
 30
0.0
 10
145.3207963288878
 20
512.7826870460194
 30
0.0
 10
145.5590963228678
 20
512.7826870460194
 30
0.0
 10
145.5590963228678
 20
512.7826870460194
 30
0.0
 10
145.5766963224232
 20
513.0238870399262
 30
0.0
 10
145.6093963215972
 20
513.2597870339669
 30
0.0
 10
145.6566963204023
 20
513.4906870281338
 30
0.0
 10
145.6566963204023
 20
513.4906870281338
 30
0.0
 10
145.4325963260635
 20
513.5507870266156
 30
0.0
 10
145.4325963260635
 20
513.5507870266156
 30
0.0
 10
145.4325963260635
 20
513.5507870266156
 30
0.0
 10
145.613796321486
 20
514.2265870095434
 30
0.0
 10
145.613796321486
 20
514.2265870095434
 30
0.0
 10
145.613796321486
 20
514.2265870095434
 30
0.0
 10
145.8432963156883
 20
514.165
 30
0.0
 10
145.8432963156883
 20
514.165
 30
0.0
 10
145.9223963136901
 20
514.3920870053626
 30
0.0
 10
146.0155963113357
 20
514.6117869998125
 30
0.0
 10
146.1220963086453
 20
514.8227869944822
 30
0.0
 10
146.1220963086453
 20
514.8227869944822
 30
0.0
 10
145.9203963137406
 20
514.9394869915341
 30
0.0
 10
145.9203963137406
 20
514.9394869915341
 30
0.0
 10
145.9203963137406
 20
514.9394869915341
 30
0.0
 10
146.2704963048964
 20
515.5453869762277
 30
0.0
 10
146.2704963048964
 20
515.5453869762277
 30
0.0
 10
146.2704963048964
 20
515.5453869762277
 30
0.0
 10
146.4770962996772
 20
515.4262869792365
 30
0.0
 10
146.4770962996772
 20
515.4262869792365
 30
0.0
 10
146.611296296287
 20
515.6234869742548
 30
0.0
 10
146.7582962925735
 20
515.8124869694802
 30
0.0
 10
146.9170000000004
 20
515.9892869650139
 30
0.0
 10
146.9170000000004
 20
515.9892869650139
 30
0.0
 10
146.7510000000002
 20
516.1552869608204
 30
0.0
 10
146.7510000000002
 20
516.1552869608204
 30
0.0
 10
146.7510000000002
 20
516.1552869608204
 30
0.0
 10
147.2470962802254
 20
516.6498869483257
 30
0.0
 10
147.2470962802254
 20
516.6498869483257
 30
0.0
 10
147.2470962802254
 20
516.6498869483257
 30
0.0
 10
147.4154962759712
 20
516.4804869526051
 30
0.0
 10
147.4154962759712
 20
516.4804869526051
 30
0.0
 10
147.5951962714316
 20
516.6361869486718
 30
0.0
 10
147.7860962666091
 20
516.7802869450315
 30
0.0
 10
147.9853962615744
 20
516.9115869417146
 30
0.0
 10
147.9853962615744
 20
516.9115869417146
 30
0.0
 10
147.8686962645224
 20
517.1132869366193
 30
0.0
 10
147.8686962645224
 20
517.1132869366193
 30
0.0
 10
147.8686962645224
 20
517.1132869366193
 30
0.0
 10
148.4755962491909
 20
517.463386927775
 30
0.0
 10
148.4755962491909
 20
517.463386927775
 30
0.0
 10
148.4755962491909
 20
517.463386927775
 30
0.0
 10
148.5941962461948
 20
517.2572869329815
 30
0.0
 10
148.5941962461948
 20
517.2572869329815
 30
0.0
 10
148.8070962408165
 20
517.360386930377
 30
0.0
 10
149.0287962352159
 20
517.4501869281085
 30
0.0
 10
149.2562962294687
 20
517.5263869261835
 30
0.0
 10
149.2562962294687
 20
517.5263869261835
 30
0.0
 10
149.1962962309844
 20
517.7504869205222
 30
0.0
 10
149.1962962309844
 20
517.7504869205222
 30
0.0
 10
149.1962962309844
 20
517.7504869205222
 30
0.0
 10
149.8725962138997
 20
517.9311869159574
 30
0.0
 10
149.8725962138997
 20
517.9311869159574
 30
0.0
 10
149.8725962138997
 20
517.9311869159574
 30
0.0
 10
149.934096212346
 20
517.701686921755
 30
0.0
 10
149.934096212346
 20
517.701686921755
 30
0.0
 10
150.1654962065004
 20
517.7450869206587
 30
0.0
 10
150.4018962005284
 20
517.7743869199185
 30
0.0
 10
150.6435961944226
 20
517.7885869195597
 30
0.0
 10
150.6435961944226
 20
517.7885869195597
 30
0.0
 10
150.6435961944226
 20
518.0219999999999
 30
0.0
 10
150.6435961944226
 20
518.0219999999999
 30
0.0
 10
150.6435961944226
 20
518.0219999999999
 30
0.0
 10
151.3427961767593
 20
518.0219999999999
 30
0.0
 10
151.3427961767593
 20
518.0219999999999
 30
0.0
 10
151.3427961767593
 20
518.0219999999999
 30
0.0
 10
151.3427961767593
 20
517.7831869196962
 30
0.0
 10
151.3427961767593
 20
517.7831869196962
 30
0.0
 10
151.3427961767593
 20
517.7831869196962
 30
0.0
 10
151.3427961767593
 20
517.7831869196962
 30
0.0
 10
151.3427961767593
 20
517.7831869196962
 30
0.0
  0
ENDSEC
  0
SECTION
  2
OBJECTS
  0
DICTIONARY
  5
5
330
0
100
AcDbDictionary
281
     1
  3
ACAD_GROUP
350
21
  3
ACAD_LAYOUT
350
18
  3
ACAD_MATERIAL
350
7
  3
ACAD_MLEADERSTYLE
350
63
  3
ACAD_MLINESTYLE
350
12
  3
ACAD_PLOTSETTINGS
350
22
  3
ACAD_PLOTSTYLENAME
350
4
  3
ACAD_SCALELIST
350
29
  3
ACAD_TABLESTYLE
350
62
  3
ACAD_VISUALSTYLE
350
23
  3
AcDbVariableDictionary
350
60
  0
DICTIONARY
  5
83
330
1F
100
AcDbDictionary
280
     1
281
     1
  3
ACAD_XREC_ROUNDTRIP
360
84
  0
DICTIONARY
  5
21
102
{ACAD_REACTORS
330
5
102
}
330
5
100
AcDbDictionary
281
     1
  0
DICTIONARY
  5
18
102
{ACAD_REACTORS
330
5
102
}
330
5
100
AcDbDictionary
281
     1
  3
Layout1
350
1C
  3
Model
350
17
  0
DICTIONARY
  5
7
102
{ACAD_REACTORS
330
5
102
}
330
5
100
AcDbDictionary
281
     1
  3
ByBlock
350
4C
  3
ByLayer
350
E
  3
Global
350
6
  0
DICTIONARY
  5
63
102
{ACAD_REACTORS
330
5
102
}
330
5
100
AcDbDictionary
281
     1
  3
Standard
350
66
  0
DICTIONARY
  5
12
102
{ACAD_REACTORS
330
5
102
}
330
5
100
AcDbDictionary
281
     1
  3
Standard
350
11
  0
DICTIONARY
  5
22
102
{ACAD_REACTORS
330
5
102
}
330
5
100
AcDbDictionary
281
     1
  0
ACDBDICTIONARYWDFLT
  5
4
102
{ACAD_REACTORS
330
5
102
}
330
5
100
AcDbDictionary
281
     1
  3
Normal
350
3
100
AcDbDictionaryWithDefault
340
3
  0
DICTIONARY
  5
29
102
{ACAD_REACTORS
330
5
102
}
330
5
100
AcDbDictionary
281
     1
  3
*A1
350
4B
  0
DICTIONARY
  5
62
102
{ACAD_REACTORS
330
5
102
}
330
5
100
AcDbDictionary
281
     1
  3
Standard
350
7E
  0
DICTIONARY
  5
23
102
{ACAD_REACTORS
330
5
102
}
330
5
100
AcDbDictionary
281
     1
  3
2dWireframe
350
26
  3
Basic
350
6D
  3
Brighten
350
71
  3
ColorChange
350
75
  3
Conceptual
350
6F
  3
Dim
350
70
  3
EdgeColorOff
350
78
  3
Facepattern
350
74
  3
Flat
350
67
  3
FlatWithEdges
350
68
  3
Gouraud
350
69
  3
GouraudWithEdges
350
6A
  3
Hidden
350
6C
  3
JitterOff
350
76
  3
Linepattern
350
73
  3
OverhangOff
350
77
  3
Realistic
350
6E
  3
Shaded
350
7D
  3
Shaded with edges
350
7C
  3
Shades of Gray
350
79
  3
Sketchy
350
7A
  3
Thicken
350
72
  3
Wireframe
350
6B
  3
X-Ray
350
7B
  0
DICTIONARY
  5
60
102
{ACAD_REACTORS
330
5
102
}
330
5
100
AcDbDictionary
281
     1
  3
CANNOSCALE
350
61
  3
CMLEADERSTYLE
350
80
  3
CTABLESTYLE
350
7F
  3
DIMASSOC
350
81
  3
HIDETEXT
350
82
  3
MSLTSCALE
350
85
  0
XRECORD
  5
84
102
{ACAD_REACTORS
330
83
102
}
330
83
100
AcDbXrecord
280
     1
102
VTR_0.000_0.000_1.000_1.000_VISUALSTYLE
340
26
102
VTR_0.000_0.000_1.000_1.000_GRIDDISPLAY
 70
     3
102
VTR_0.000_0.000_1.000_1.000_GRIDMAJOR
 70
     5
102
VTR_0.000_0.000_1.000_1.000_DEFAULTLIGHTING
280
     1
102
VTR_0.000_0.000_1.000_1.000_DEFAULTLIGHTINGTYPE
 70
     1
102
VTR_0.000_0.000_1.000_1.000_BRIGHTNESS
141
0.0
102
VTR_0.000_0.000_1.000_1.000_CONTRAST
142
0.0
  0
LAYOUT
  5
1C
102
{ACAD_REACTORS
330
18
102
}
330
18
100
AcDbPlotSettings
  1

  2
none_device
  4
Letter_(8.50_x_11.00_Inches)
  6

 40
6.35
 41
6.35
 42
6.35001
 43
6.35001
 44
215.9
 45
279.4
 46
0.0
 47
0.0
 48
0.0
 49
0.0
140
0.0
141
0.0
142
1.0
143
1.0
 70
   688
 72
     0
 73
     1
 74
     5
  7

 75
    16
147
1.0
148
0.0
149
0.0
100
AcDbLayout
  1
Layout1
 70
     1
 71
     1
 10
0.0
 20
0.0
 11
12.0
 21
9.0
 12
0.0
 22
0.0
 32
0.0
 14
1.000000000000000E+20
 24
1.000000000000000E+20
 34
1.000000000000000E+20
 15
-1.000000000000000E+20
 25
-1.000000000000000E+20
 35
-1.000000000000000E+20
146
0.0
 13
0.0
 23
0.0
 33
0.0
 16
1.0
 26
0.0
 36
0.0
 17
0.0
 27
1.0
 37
0.0
 76
     0
330
19
  0
LAYOUT
  5
17
102
{ACAD_REACTORS
330
18
102
}
330
18
100
AcDbPlotSettings
  1

  2
none_device
  4

  6

 40
0.0
 41
0.0
 42
0.0
 43
0.0
 44
0.0
 45
0.0
 46
0.0
 47
0.0
 48
0.0
 49
0.0
140
0.0
141
0.0
142
1.0
143
1.0
 70
  1712
 72
     0
 73
     0
 74
     0
  7

 75
     0
147
1.0
148
0.0
149
0.0
100
AcDbLayout
  1
Model
 70
     1
 71
     0
 10
0.0
 20
0.0
 11
12.0
 21
9.0
 12
0.0
 22
0.0
 32
0.0
 14
144.9890409340325
 24
506.7592871981833
 34
0.0
 15
178.3510954944722
 25
526.657122340053
 35
0.0
146
0.0
 13
0.0
 23
0.0
 33
0.0
 16
1.0
 26
0.0
 36
0.0
 17
0.0
 27
1.0
 37
0.0
 76
     0
330
14
331
25
  0
MATERIAL
  5
4C
102
{ACAD_REACTORS
330
7
102
}
102
{ACAD_XDICTIONARY
360
8A
102
}
330
7
100
AcDbMaterial
  1
ByBlock
  0
MATERIAL
  5
E
102
{ACAD_REACTORS
330
7
102
}
102
{ACAD_XDICTIONARY
360
86
102
}
330
7
100
AcDbMaterial
  1
ByLayer
  0
MATERIAL
  5
6
102
{ACAD_REACTORS
330
7
102
}
102
{ACAD_XDICTIONARY
360
88
102
}
330
7
100
AcDbMaterial
  1
Global
  0
MLEADERSTYLE
  5
66
102
{ACAD_REACTORS
330
63
102
}
102
{ACAD_XDICTIONARY
360
BD
102
}
330
63
100
AcDbMLeaderStyle
170
     2
171
     1
172
     0
 90
        2
 40
0.0
 41
0.0
173
     1
 91
-1056964608
340
A
 92
       -2
290
     1
 42
0.09
291
     1
 43
0.36
  3
Standard
341
0
 44
0.18
300

342
C
174
     1
178
     6
175
     1
176
     0
 93
-1056964608
 45
0.18
292
     0
297
     0
 46
0.18
343
0
 94
-1056964608
 47
1.0
 49
1.0
140
1.0
293
     1
141
0.0
294
     1
177
     0
142
1.0
295
     0
296
     0
143
0.125
1001
ACAD_MLEADERVER
1070
     2
  0
MLINESTYLE
  5
11
102
{ACAD_REACTORS
330
12
102
}
330
12
100
AcDbMlineStyle
  2
Standard
 70
     0
  3

 62
   256
 51
90.0
 52
90.0
 71
     2
 49
0.5
 62
   256
  6
BYLAYER
 49
-0.5
 62
   256
  6
BYLAYER
  0
ACDBPLACEHOLDER
  5
3
102
{ACAD_REACTORS
330
4
102
}
330
4
  0
SCALE
  5
4B
102
{ACAD_REACTORS
330
29
102
}
330
29
100
AcDbScale
 70
     0
300
1:1
140
1.0
141
1.0
290
     1
  0
TABLESTYLE
  5
7E
102
{ACAD_REACTORS
330
62
102
}
330
62
100
AcDbTableStyle
  3
Standard
 70
     0
 71
     0
 40
0.06
 41
0.06
280
     0
281
     0
  7
Standard
140
0.18
170
     2
 62
     0
 63
   257
283
     0
274
    -2
284
     1
 64
     0
275
    -2
285
     1
 65
     0
276
    -2
286
     1
 66
     0
277
    -2
287
     1
 67
     0
278
    -2
288
     1
 68
     0
279
    -2
289
     1
 69
     0
  7
Standard
140
0.25
170
     5
 62
     0
 63
   257
283
     0
274
    -2
284
     1
 64
     0
275
    -2
285
     1
 65
     0
276
    -2
286
     1
 66
     0
277
    -2
287
     1
 67
     0
278
    -2
288
     1
 68
     0
279
    -2
289
     1
 69
     0
  7
Standard
140
0.18
170
     5
 62
     0
 63
   257
283
     0
274
    -2
284
     1
 64
     0
275
    -2
285
     1
 65
     0
276
    -2
286
     1
 66
     0
277
    -2
287
     1
 67
     0
278
    -2
288
     1
 68
     0
279
    -2
289
     1
 69
     0
  0
VISUALSTYLE
  5
26
102
{ACAD_REACTORS
330
23
102
}
102
{ACAD_XDICTIONARY
360
8C
102
}
330
23
100
AcDbVisualStyle
  2
2dWireframe
 70
     4
 71
     0
 72
     2
 73
     0
 90
        0
 40
-0.6
 41
-30.0
 62
     5
 63
     7
 74
     1
 91
        4
 64
     7
 65
   257
 75
     1
175
     1
 42
1.0
 92
        0
 66
   257
 43
1.0
 76
     1
 77
     6
 78
     2
 67
     7
 79
     5
170
     0
171
     0
290
     0
174
     0
 93
        1
 44
0.0
173
     0
291
     0
 45
0.0
1001
ACAD
1000
AcDbSavedByObjectVersion
1070
     0
  0
VISUALSTYLE
  5
6D
102
{ACAD_REACTORS
330
23
102
}
102
{ACAD_XDICTIONARY
360
9A
102
}
330
23
100
AcDbVisualStyle
  2
Basic
 70
     7
 71
     1
 72
     0
 73
     1
 90
        0
 40
0.6
 41
30.0
 62
     5
 63
     7
 74
     0
 91
        4
 64
     7
 65
   257
 75
     1
175
     1
 42
1.0
 92
        8
 66
     7
 43
1.0
 76
     1
 77
     6
 78
     2
 67
     7
 79
     5
170
     0
171
     0
290
     0
174
     0
 93
        1
 44
0.0
173
     0
291
     1
 45
0.0
1001
ACAD
1000
AcDbSavedByObjectVersion
1070
     0
  0
VISUALSTYLE
  5
71
102
{ACAD_REACTORS
330
23
102
}
102
{ACAD_XDICTIONARY
360
A2
102
}
330
23
100
AcDbVisualStyle
  2
Brighten
 70
    12
 71
     2
 72
     2
 73
     0
 90
        0
 40
0.6
 41
30.0
 62
     5
 63
     7
 74
     1
 91
        4
 64
     7
 65
   257
 75
     1
175
     1
 42
1.0
 92
        8
 66
     7
 43
1.0
 76
     1
 77
     6
 78
     2
 67
     7
 79
     5
170
     0
171
     0
290
     0
174
     0
 93
        1
 44
50.0
173
     0
291
     1
 45
0.0
1001
ACAD
1000
AcDbSavedByObjectVersion
1070
     0
  0
VISUALSTYLE
  5
75
102
{ACAD_REACTORS
330
23
102
}
102
{ACAD_XDICTIONARY
360
AA
102
}
330
23
100
AcDbVisualStyle
  2
ColorChange
 70
    16
 71
     2
 72
     2
 73
     3
 90
        0
 40
0.6
 41
30.0
 62
     5
 63
     8
 74
     1
 91
        4
 64
     7
 65
   257
 75
     1
175
     1
 42
1.0
 92
        8
 66
     8
 43
1.0
 76
     1
 77
     6
 78
     2
 67
     7
 79
     5
170
     0
171
     0
290
     0
174
     0
 93
        1
 44
0.0
173
     0
291
     1
 45
0.0
1001
ACAD
1000
AcDbSavedByObjectVersion
1070
     0
  0
VISUALSTYLE
  5
6F
102
{ACAD_REACTORS
330
23
102
}
102
{ACAD_XDICTIONARY
360
9E
102
}
330
23
100
AcDbVisualStyle
  2
Conceptual
 70
     9
 71
     3
 72
     2
 73
     0
 90
        0
 40
0.6
 41
30.0
 62
     5
 63
     7
 74
     2
 91
        2
 64
     7
 65
   257
 75
     1
175
     1
 42
179.0
 92
        8
 66
     7
 43
1.0
 76
     1
 77
     6
 78
     2
 67
     7
 79
     3
170
     0
171
     0
290
     0
174
     0
 93
        1
 44
0.0
173
     0
291
     0
 45
0.0
1001
ACAD
1000
AcDbSavedByObjectVersion
1070
     0
  0
VISUALSTYLE
  5
70
102
{ACAD_REACTORS
330
23
102
}
102
{ACAD_XDICTIONARY
360
A0
102
}
330
23
100
AcDbVisualStyle
  2
Dim
 70
    11
 71
     2
 72
     2
 73
     0
 90
        0
 40
0.6
 41
30.0
 62
     5
 63
     7
 74
     1
 91
        4
 64
     7
 65
   257
 75
     1
175
     1
 42
1.0
 92
        8
 66
     7
 43
1.0
 76
     1
 77
     6
 78
     2
 67
     7
 79
     5
170
     0
171
     0
290
     0
174
     0
 93
        1
 44
-50.0
173
     0
291
     1
 45
0.0
1001
ACAD
1000
AcDbSavedByObjectVersion
1070
     0
  0
VISUALSTYLE
  5
78
102
{ACAD_REACTORS
330
23
102
}
102
{ACAD_XDICTIONARY
360
B0
102
}
330
23
100
AcDbVisualStyle
  2
EdgeColorOff
 70
    22
 71
     2
 72
     2
 73
     0
 90
        0
 40
0.6
 41
30.0
 62
     5
 63
     7
 74
     1
 91
        4
 64
     7
 65
   257
 75
     1
175
     1
 42
1.0
 92
        8
 66
     7
 43
1.0
 76
     1
 77
     6
 78
     2
 67
     7
 79
     5
170
     0
171
     0
290
     0
174
     0
 93
        1
 44
0.0
173
     0
291
     1
 45
0.0
1001
ACAD
1000
AcDbSavedByObjectVersion
1070
     0
  0
VISUALSTYLE
  5
74
102
{ACAD_REACTORS
330
23
102
}
102
{ACAD_XDICTIONARY
360
A8
102
}
330
23
100
AcDbVisualStyle
  2
Facepattern
 70
    15
 71
     2
 72
     2
 73
     0
 90
        0
 40
0.6
 41
30.0
 62
     5
 63
     7
 74
     1
 91
        4
 64
     7
 65
   257
 75
     1
175
     1
 42
1.0
 92
        8
 66
     7
 43
1.0
 76
     1
 77
     6
 78
     2
 67
     7
 79
     5
170
     0
171
     0
290
     0
174
     0
 93
        1
 44
0.0
173
     0
291
     1
 45
0.0
1001
ACAD
1000
AcDbSavedByObjectVersion
1070
     0
  0
VISUALSTYLE
  5
67
102
{ACAD_REACTORS
330
23
102
}
102
{ACAD_XDICTIONARY
360
8E
102
}
330
23
100
AcDbVisualStyle
  2
Flat
 70
     0
 71
     2
 72
     1
 73
     1
 90
        2
 40
0.6
 41
30.0
 62
     5
 63
     7
 74
     0
 91
        0
 64
     7
 65
   257
 75
     1
175
     1
 42
1.0
 92
        8
 66
     7
 43
1.0
 76
     1
 77
     6
 78
     2
 67
     7
 79
     5
170
     0
171
     0
290
     0
174
     0
 93
       13
 44
0.0
173
     0
291
     1
 45
0.0
1001
ACAD
1000
AcDbSavedByObjectVersion
1070
     0
  0
VISUALSTYLE
  5
68
102
{ACAD_REACTORS
330
23
102
}
102
{ACAD_XDICTIONARY
360
90
102
}
330
23
100
AcDbVisualStyle
  2
FlatWithEdges
 70
     1
 71
     2
 72
     1
 73
     1
 90
        2
 40
0.6
 41
30.0
 62
     5
 63
     7
 74
     1
 91
        0
 64
     7
 65
   257
 75
     1
175
     1
 42
1.0
 92
        0
 66
   257
 43
1.0
 76
     1
 77
     6
 78
     2
 67
     7
 79
     5
170
     0
171
     0
290
     0
174
     0
 93
       13
 44
0.0
173
     0
291
     1
 45
0.0
1001
ACAD
1000
AcDbSavedByObjectVersion
1070
     0
  0
VISUALSTYLE
  5
69
102
{ACAD_REACTORS
330
23
102
}
102
{ACAD_XDICTIONARY
360
92
102
}
330
23
100
AcDbVisualStyle
  2
Gouraud
 70
     2
 71
     2
 72
     2
 73
     1
 90
        2
 40
0.6
 41
30.0
 62
     5
 63
     7
 74
     0
 91
        0
 64
     7
 65
   257
 75
     1
175
     1
 42
1.0
 92
        0
 66
     7
 43
1.0
 76
     1
 77
     6
 78
     2
 67
     7
 79
     5
170
     0
171
     0
290
     0
174
     0
 93
       13
 44
0.0
173
     0
291
     1
 45
0.0
1001
ACAD
1000
AcDbSavedByObjectVersion
1070
     0
  0
VISUALSTYLE
  5
6A
102
{ACAD_REACTORS
330
23
102
}
102
{ACAD_XDICTIONARY
360
94
102
}
330
23
100
AcDbVisualStyle
  2
GouraudWithEdges
 70
     3
 71
     2
 72
     2
 73
     1
 90
        2
 40
0.6
 41
30.0
 62
     5
 63
     7
 74
     1
 91
        0
 64
     7
 65
   257
 75
     1
175
     1
 42
1.0
 92
        0
 66
   257
 43
1.0
 76
     1
 77
     6
 78
     2
 67
     7
 79
     5
170
     0
171
     0
290
     0
174
     0
 93
       13
 44
0.0
173
     0
291
     1
 45
0.0
1001
ACAD
1000
AcDbSavedByObjectVersion
1070
     0
  0
VISUALSTYLE
  5
6C
102
{ACAD_REACTORS
330
23
102
}
102
{ACAD_XDICTIONARY
360
98
102
}
330
23
100
AcDbVisualStyle
  2
Hidden
 70
     6
 71
     1
 72
     2
 73
     2
 90
        0
 40
0.6
 41
30.0
 62
     5
 63
     7
 74
     2
 91
        2
 64
     7
 65
   257
 75
     2
175
     1
 42
40.0
 92
        0
 66
   257
 43
1.0
 76
     1
 77
     6
 78
     2
 67
     7
 79
     3
170
     0
171
     0
290
     0
174
     0
 93
        1
 44
0.0
173
     0
291
     0
 45
0.0
1001
ACAD
1000
AcDbSavedByObjectVersion
1070
     0
  0
VISUALSTYLE
  5
76
102
{ACAD_REACTORS
330
23
102
}
102
{ACAD_XDICTIONARY
360
AC
102
}
330
23
100
AcDbVisualStyle
  2
JitterOff
 70
    20
 71
     2
 72
     2
 73
     0
 90
        0
 40
0.6
 41
30.0
 62
     5
 63
     7
 74
     1
 91
        4
 64
     7
 65
   257
 75
     1
175
     1
 42
1.0
 92
       10
 66
     7
 43
1.0
 76
     1
 77
     6
 78
     2
 67
     7
 79
     5
170
     0
171
     0
290
     0
174
     0
 93
        1
 44
0.0
173
     0
291
     1
 45
0.0
1001
ACAD
1000
AcDbSavedByObjectVersion
1070
     0
  0
VISUALSTYLE
  5
73
102
{ACAD_REACTORS
330
23
102
}
102
{ACAD_XDICTIONARY
360
A6
102
}
330
23
100
AcDbVisualStyle
  2
Linepattern
 70
    14
 71
     2
 72
     2
 73
     0
 90
        0
 40
0.6
 41
30.0
 62
     5
 63
     7
 74
     1
 91
        4
 64
     7
 65
   257
 75
     7
175
     7
 42
1.0
 92
        8
 66
     7
 43
1.0
 76
     1
 77
     6
 78
     2
 67
     7
 79
     5
170
     0
171
     0
290
     0
174
     0
 93
        1
 44
0.0
173
     0
291
     1
 45
0.0
1001
ACAD
1000
AcDbSavedByObjectVersion
1070
     0
  0
VISUALSTYLE
  5
77
102
{ACAD_REACTORS
330
23
102
}
102
{ACAD_XDICTIONARY
360
AE
102
}
330
23
100
AcDbVisualStyle
  2
OverhangOff
 70
    21
 71
     2
 72
     2
 73
     0
 90
        0
 40
0.6
 41
30.0
 62
     5
 63
     7
 74
     1
 91
        4
 64
     7
 65
   257
 75
     1
175
     1
 42
1.0
 92
        9
 66
     7
 43
1.0
 76
     1
 77
     6
 78
     2
 67
     7
 79
     5
170
     0
171
     0
290
     0
174
     0
 93
        1
 44
0.0
173
     0
291
     1
 45
0.0
1001
ACAD
1000
AcDbSavedByObjectVersion
1070
     0
  0
VISUALSTYLE
  5
6E
102
{ACAD_REACTORS
330
23
102
}
102
{ACAD_XDICTIONARY
360
9C
102
}
330
23
100
AcDbVisualStyle
  2
Realistic
 70
     8
 71
     2
 72
     3
 73
     0
 90
        2
 40
0.6
 41
30.0
 62
     5
 63
     7
 74
     0
 91
        0
 64
     7
 65
   257
 75
     1
175
     1
 42
1.0
 92
        8
 66
   257
 43
1.0
 76
     1
 77
     6
 78
     2
 67
     7
 79
     3
170
     0
171
     0
290
     0
174
     0
 93
       13
 44
0.0
173
     0
291
     0
 45
0.0
1001
ACAD
1000
AcDbSavedByObjectVersion
1070
     0
  0
VISUALSTYLE
  5
7D
102
{ACAD_REACTORS
330
23
102
}
102
{ACAD_XDICTIONARY
360
BA
102
}
330
23
100
AcDbVisualStyle
  2
Shaded
 70
    27
 71
     2
 72
     2
 73
     1
 90
        2
 40
0.6
 41
30.0
 62
     5
 63
     7
 74
     0
 91
        4
 64
     7
 65
   257
 75
     1
175
     1
 42
1.0
 92
        8
 66
   257
 43
1.0
 76
     1
 77
     6
 78
     2
 67
     8
 79
     3
170
     0
171
     0
290
     0
174
     0
 93
        5
 44
0.0
173
     0
291
     0
 45
0.0
1001
ACAD
1000
AcDbSavedByObjectVersion
1070
     0
  0
VISUALSTYLE
  5
7C
102
{ACAD_REACTORS
330
23
102
}
102
{ACAD_XDICTIONARY
360
B8
102
}
330
23
100
AcDbVisualStyle
  2
Shaded with edges
 70
    26
 71
     2
 72
     2
 73
     1
 90
        2
 40
0.6
 41
30.0
 62
     5
 63
     7
 74
     1
 91
       10
 64
     7
 65
   257
 75
     2
175
     1
 42
1.0
 92
        8
 66
   257
 43
1.0
 76
     1
 77
     6
 78
     2
 67
     7
 79
     3
170
     0
171
     0
290
     0
174
     0
 93
        5
 44
0.0
173
     0
291
     0
 45
0.0
1001
ACAD
1000
AcDbSavedByObjectVersion
1070
     0
  0
VISUALSTYLE
  5
79
102
{ACAD_REACTORS
330
23
102
}
102
{ACAD_XDICTIONARY
360
B2
102
}
330
23
100
AcDbVisualStyle
  2
Shades of Gray
 70
    23
 71
     2
 72
     2
 73
     3
 90
        0
 40
0.6
 41
30.0
 62
     5
 63
     7
 74
     2
 91
        2
 64
     7
 65
     7
 75
     1
175
     1
 42
40.0
 92
        8
 66
     7
 43
1.0
 76
     1
 77
     6
 78
     2
 67
     7
 79
     3
170
     0
171
     0
290
     0
174
     0
 93
        1
 44
0.0
173
     0
291
     0
 45
0.0
1001
ACAD
1000
AcDbSavedByObjectVersion
1070
     0
  0
VISUALSTYLE
  5
7A
102
{ACAD_REACTORS
330
23
102
}
102
{ACAD_XDICTIONARY
360
B4
102
}
330
23
100
AcDbVisualStyle
  2
Sketchy
 70
    24
 71
     1
 72
     2
 73
     2
 90
        0
 40
0.6
 41
30.0
 62
     5
 63
     7
 74
     2
 91
        2
 64
     7
 65
     7
 75
     1
175
     1
 42
40.0
 92
       11
 66
     7
 43
1.0
 76
     1
 77
     6
 78
     2
 67
     7
 79
     6
170
     0
171
     0
290
     0
174
     0
 93
        1
 44
0.0
173
     0
291
     0
 45
0.0
1001
ACAD
1000
AcDbSavedByObjectVersion
1070
     0
  0
VISUALSTYLE
  5
72
102
{ACAD_REACTORS
330
23
102
}
102
{ACAD_XDICTIONARY
360
A4
102
}
330
23
100
AcDbVisualStyle
  2
Thicken
 70
    13
 71
     2
 72
     2
 73
     0
 90
        0
 40
0.6
 41
30.0
 62
     5
 63
     7
 74
     1
 91
        4
 64
     7
 65
   257
 75
     1
175
     1
 42
1.0
 92
       12
 66
     7
 43
1.0
 76
     1
 77
     6
 78
     2
 67
     7
 79
     5
170
     0
171
     0
290
     0
174
     0
 93
        1
 44
0.0
173
     0
291
     1
 45
0.0
1001
ACAD
1000
AcDbSavedByObjectVersion
1070
     0
  0
VISUALSTYLE
  5
6B
102
{ACAD_REACTORS
330
23
102
}
102
{ACAD_XDICTIONARY
360
96
102
}
330
23
100
AcDbVisualStyle
  2
Wireframe
 70
     5
 71
     0
 72
     2
 73
     0
 90
        0
 40
0.6
 41
30.0
 62
     5
 63
     7
 74
     1
 91
        4
 64
     7
 65
   257
 75
     1
175
     1
 42
1.0
 92
        0
 66
   257
 43
1.0
 76
     1
 77
     6
 78
     2
 67
     7
 79
     3
170
     0
171
     0
290
     0
174
     0
 93
        1
 44
0.0
173
     0
291
     0
 45
0.0
1001
ACAD
1000
AcDbSavedByObjectVersion
1070
     0
  0
VISUALSTYLE
  5
7B
102
{ACAD_REACTORS
330
23
102
}
102
{ACAD_XDICTIONARY
360
B6
102
}
330
23
100
AcDbVisualStyle
  2
X-Ray
 70
    25
 71
     2
 72
     2
 73
     1
 90
        1
 40
0.5
 41
30.0
 62
     5
 63
     7
 74
     1
 91
        0
 64
     7
 65
   257
 75
     1
175
     1
 42
1.0
 92
        8
 66
     7
 43
1.0
 76
     1
 77
     6
 78
     2
 67
     7
 79
     3
170
     0
171
     0
290
     0
174
     0
 93
       13
 44
0.0
173
     0
291
     0
 45
0.0
1001
ACAD
1000
AcDbSavedByObjectVersion
1070
     0
  0
DICTIONARYVAR
  5
61
102
{ACAD_REACTORS
330
60
102
}
330
60
100
DictionaryVariables
280
     0
  1
1:1
  0
DICTIONARYVAR
  5
80
102
{ACAD_REACTORS
330
60
102
}
330
60
100
DictionaryVariables
280
     0
  1
Standard
  0
DICTIONARYVAR
  5
7F
102
{ACAD_REACTORS
330
60
102
}
330
60
100
DictionaryVariables
280
     0
  1
Standard
  0
DICTIONARYVAR
  5
81
102
{ACAD_REACTORS
330
60
102
}
330
60
100
DictionaryVariables
280
     0
  1
2
  0
DICTIONARYVAR
  5
82
102
{ACAD_REACTORS
330
60
102
}
330
60
100
DictionaryVariables
280
     0
  1
1
  0
DICTIONARYVAR
  5
85
102
{ACAD_REACTORS
330
60
102
}
330
60
100
DictionaryVariables
280
     0
  1
1
  0
DICTIONARY
  5
8A
330
4C
100
AcDbDictionary
280
     1
281
     1
  3
ACAD_XREC_ROUNDTRIP
360
8B
  0
DICTIONARY
  5
86
330
E
100
AcDbDictionary
280
     1
281
     1
  3
ACAD_XREC_ROUNDTRIP
360
87
  0
DICTIONARY
  5
88
330
6
100
AcDbDictionary
280
     1
281
     1
  3
ACAD_XREC_ROUNDTRIP
360
89
  0
DICTIONARY
  5
BD
330
66
100
AcDbDictionary
280
     1
281
     1
  3
ACAD_XREC_ROUNDTRIP
360
BE
  0
DICTIONARY
  5
8C
330
26
100
AcDbDictionary
280
     1
281
     1
  3
ACAD_XREC_ROUNDTRIP
360
8D
  0
DICTIONARY
  5
9A
330
6D
100
AcDbDictionary
280
     1
281
     1
  3
ACAD_XREC_ROUNDTRIP
360
9B
  0
DICTIONARY
  5
A2
330
71
100
AcDbDictionary
280
     1
281
     1
  3
ACAD_XREC_ROUNDTRIP
360
A3
  0
DICTIONARY
  5
AA
330
75
100
AcDbDictionary
280
     1
281
     1
  3
ACAD_XREC_ROUNDTRIP
360
AB
  0
DICTIONARY
  5
9E
330
6F
100
AcDbDictionary
280
     1
281
     1
  3
ACAD_XREC_ROUNDTRIP
360
9F
  0
DICTIONARY
  5
A0
330
70
100
AcDbDictionary
280
     1
281
     1
  3
ACAD_XREC_ROUNDTRIP
360
A1
  0
DICTIONARY
  5
B0
330
78
100
AcDbDictionary
280
     1
281
     1
  3
ACAD_XREC_ROUNDTRIP
360
B1
  0
DICTIONARY
  5
A8
330
74
100
AcDbDictionary
280
     1
281
     1
  3
ACAD_XREC_ROUNDTRIP
360
A9
  0
DICTIONARY
  5
8E
330
67
100
AcDbDictionary
280
     1
281
     1
  3
ACAD_XREC_ROUNDTRIP
360
8F
  0
DICTIONARY
  5
90
330
68
100
AcDbDictionary
280
     1
281
     1
  3
ACAD_XREC_ROUNDTRIP
360
91
  0
DICTIONARY
  5
92
330
69
100
AcDbDictionary
280
     1
281
     1
  3
ACAD_XREC_ROUNDTRIP
360
93
  0
DICTIONARY
  5
94
330
6A
100
AcDbDictionary
280
     1
281
     1
  3
ACAD_XREC_ROUNDTRIP
360
95
  0
DICTIONARY
  5
98
330
6C
100
AcDbDictionary
280
     1
281
     1
  3
ACAD_XREC_ROUNDTRIP
360
99
  0
DICTIONARY
  5
AC
330
76
100
AcDbDictionary
280
     1
281
     1
  3
ACAD_XREC_ROUNDTRIP
360
AD
  0
DICTIONARY
  5
A6
330
73
100
AcDbDictionary
280
     1
281
     1
  3
ACAD_XREC_ROUNDTRIP
360
A7
  0
DICTIONARY
  5
AE
330
77
100
AcDbDictionary
280
     1
281
     1
  3
ACAD_XREC_ROUNDTRIP
360
AF
  0
DICTIONARY
  5
9C
330
6E
100
AcDbDictionary
280
     1
281
     1
  3
ACAD_XREC_ROUNDTRIP
360
9D
  0
DICTIONARY
  5
BA
330
7D
100
AcDbDictionary
280
     1
281
     1
  3
ACAD_XREC_ROUNDTRIP
360
BB
  0
DICTIONARY
  5
B8
330
7C
100
AcDbDictionary
280
     1
281
     1
  3
ACAD_XREC_ROUNDTRIP
360
B9
  0
DICTIONARY
  5
B2
330
79
100
AcDbDictionary
280
     1
281
     1
  3
ACAD_XREC_ROUNDTRIP
360
B3
  0
DICTIONARY
  5
B4
330
7A
100
AcDbDictionary
280
     1
281
     1
  3
ACAD_XREC_ROUNDTRIP
360
B5
  0
DICTIONARY
  5
A4
330
72
100
AcDbDictionary
280
     1
281
     1
  3
ACAD_XREC_ROUNDTRIP
360
A5
  0
DICTIONARY
  5
96
330
6B
100
AcDbDictionary
280
     1
281
     1
  3
ACAD_XREC_ROUNDTRIP
360
97
  0
DICTIONARY
  5
B6
330
7B
100
AcDbDictionary
280
     1
281
     1
  3
ACAD_XREC_ROUNDTRIP
360
B7
  0
XRECORD
  5
8B
102
{ACAD_REACTORS
330
8A
102
}
330
8A
100
AcDbXrecord
280
     1
102
MATERIAL
148
0.0
149
0.0
149
0.0
 93
        0
 94
      127
282
     0
 72
     1
 77
     1
171
     1
175
     1
179
     1
273
     0
  0
XRECORD
  5
87
102
{ACAD_REACTORS
330
86
102
}
330
86
100
AcDbXrecord
280
     1
102
MATERIAL
148
0.0
149
0.0
149
0.0
 93
        0
 94
      127
282
     0
 72
     1
 77
     1
171
     1
175
     1
179
     1
273
     0
  0
XRECORD
  5
89
102
{ACAD_REACTORS
330
88
102
}
330
88
100
AcDbXrecord
280
     1
102
MATERIAL
148
0.0
149
0.0
149
0.0
 93
        0
 94
      127
282
     0
 72
     1
 77
     1
171
     1
175
     1
179
     1
273
     0
  0
XRECORD
  5
BE
102
{ACAD_REACTORS
330
BD
102
}
330
BD
100
AcDbXrecord
280
     1
102
ACAD_ROUNDTRIP_2010_MLEADER_STYLE
  0
XRECORD
  5
8D
102
{ACAD_REACTORS
330
8C
102
}
330
8C
100
AcDbXrecord
280
     1
102
RTVSPropertyOp0
 70
     1
102
RTVSPropertyOp1
 70
     1
102
RTVSPropertyOp2
 70
     1
102
RTVSPropertyOp3
 70
     1
102
RTVSPropertyOp4
 70
     1
102
RTVSPropertyOp5
 70
     1
102
RTVSPropertyOp6
 70
     1
102
RTVSPropertyOp7
 70
     1
102
RTVSPropertyOp8
 70
     1
102
RTVSPropertyOp9
 70
     1
102
RTVSPropertyOp10
 70
     1
102
RTVSPropertyOp11
 70
     1
102
RTVSPropertyOp12
 70
     1
102
RTVSPropertyOp13
 70
     1
102
RTVSPropertyOp14
 70
     1
102
RTVSPropertyOp15
 70
     1
102
RTVSPropertyOp16
 70
     1
102
RTVSPropertyOp17
 70
     1
102
RTVSPropertyOp18
 70
     1
102
RTVSPropertyOp19
 70
     1
102
RTVSPropertyOp20
 70
     1
102
RTVSPropertyOp21
 70
     1
102
RTVSPropertyOp22
 70
     1
102
RTVSPropertyOp23
 70
     1
102
RTVSPropertyOp24
 70
     1
102
RTVSPropertyOp25
 70
     1
102
RTVSPropertyOp26
 70
     1
102
RTVSPropertyOp27
 70
     1
102
RTVSPropertyOp28
 70
     1
102
RTVSPropertyOp29
 70
     1
102
RTVSPropertyOp30
 70
     1
102
RTVSPropertyOp31
 70
     1
102
RTVSPropertyOp32
 70
     1
102
RTVSPropertyOp33
 70
     1
102
RTVSPropertyOp34
 70
     1
102
RTVSPropertyOp35
 70
     1
102
RTVSPropertyOp36
 70
     1
102
RTVSPropertyOp37
 70
     1
102
RTVSPropertyOp38
 70
     1
102
RTVSPropertyOp39
 70
     1
102
RTVSPropertyOp40
 70
     1
102
RTVSPropertyOp41
 70
     1
102
RTVSPropertyOp42
 70
     1
102
RTVSPropertyOp43
 70
     1
102
RTVSPropertyOp44
 70
     1
102
RTVSPropertyOp45
 70
     1
102
RTVSPropertyOp46
 70
     1
102
RTVSPropertyOp47
 70
     1
102
RTVSPropertyOp48
 70
     1
102
RTVSPropertyOp49
 70
     1
102
RTVSPropertyOp50
 70
     1
102
RTVSPropertyOp51
 70
     0
102
RTVSPropertyOp52
 70
     0
102
RTVSPropertyOp53
 70
     1
102
RTVSPropertyOp54
 70
     1
102
RTVSPropertyOp55
 70
     1
102
RTVSPropertyOp56
 70
     1
102
RTVSPropertyOp57
 70
     1
102
RTVSPost2010Prop28
280
     1
102
RTVSPost2010PropOp28
 70
     1
102
RTVSPost2010Prop29
280
     1
102
RTVSPost2010PropOp29
 70
     1
102
RTVSPost2010Prop30
280
     0
102
RTVSPost2010PropOp30
 70
     1
102
RTVSPost2010Prop31
280
     0
102
RTVSPost2010PropOp31
 70
     1
102
RTVSPost2010Prop32
280
     0
102
RTVSPost2010PropOp32
 70
     1
102
RTVSPost2010Prop33
280
     0
102
RTVSPost2010PropOp33
 70
     1
102
RTVSPost2010Prop34
280
     0
102
RTVSPost2010PropOp34
 70
     1
102
RTVSPost2010Prop35
280
     0
102
RTVSPost2010PropOp35
 70
     1
102
RTVSPost2010Prop36
280
     0
102
RTVSPost2010PropOp36
 70
     1
102
RTVSPost2010Prop37
 90
       50
102
RTVSPost2010PropOp37
 70
     1
102
RTVSPost2010Prop38
140
0.0
102
RTVSPost2010PropOp38
 70
     1
102
RTVSPost2010Prop39
140
1.0
102
RTVSPost2010PropOp39
 70
     1
102
RTVSPost2010Prop40
 90
        0
102
RTVSPost2010PropOp40
 70
     1
102
RTVSPost2010Prop41ColorIndex
 90
       18
102
RTVSPost2010Prop41ColorRGB
 90
        0
102
RTVSPost2010PropOp41
 70
     1
102
RTVSPost2010Prop42
 90
       50
102
RTVSPost2010PropOp42
 70
     1
102
RTVSPost2010Prop43
 90
        3
102
RTVSPost2010PropOp43
 70
     1
102
RTVSPost2010Prop44ColorIndex
 90
        5
102
RTVSPost2010Prop44ColorRGB
 90
      255
102
RTVSPost2010PropOp44
 70
     1
102
RTVSPost2010Prop45
280
     0
102
RTVSPost2010PropOp45
 70
     1
102
RTVSPost2010Prop46
 90
       50
102
RTVSPost2010PropOp46
 70
     1
102
RTVSPost2010Prop47
 90
       50
102
RTVSPost2010PropOp47
 70
     1
102
RTVSPost2010Prop48
 90
       50
102
RTVSPost2010PropOp48
 70
     1
102
RTVSPost2010Prop49
280
     0
102
RTVSPost2010PropOp49
 70
     1
102
RTVSPost2010Prop50
 90
       50
102
RTVSPost2010PropOp50
 70
     1
102
RTVSPost2010Prop51ColorIndex
 90
      256
102
RTVSPost2010Prop51ColorRGB
 90
-16777216
102
RTVSPost2010PropOp51
 70
     0
102
RTVSPost2010Prop52
140
1.0
102
RTVSPost2010PropOp52
 70
     0
102
RTVSPost2010Prop53
 90
        2
102
RTVSPost2010PropOp53
 70
     1
102
RTVSPost2010Prop54
  1
strokes_ogs.tif
102
RTVSPost2010PropOp54
 70
     1
102
RTVSPost2010Prop55
280
     0
102
RTVSPost2010PropOp55
 70
     1
102
RTVSPost2010Prop56
140
1.0
102
RTVSPost2010PropOp56
 70
     1
102
RTVSPost2010Prop57
140
1.0
102
RTVSPost2010PropOp57
 70
     1
  0
XRECORD
  5
9B
102
{ACAD_REACTORS
330
9A
102
}
330
9A
100
AcDbXrecord
280
     1
102
RTVSPropertyOp0
 70
     1
102
RTVSPropertyOp1
 70
     1
102
RTVSPropertyOp2
 70
     1
102
RTVSPropertyOp3
 70
     1
102
RTVSPropertyOp4
 70
     1
102
RTVSPropertyOp5
 70
     1
102
RTVSPropertyOp6
 70
     1
102
RTVSPropertyOp7
 70
     1
102
RTVSPropertyOp8
 70
     1
102
RTVSPropertyOp9
 70
     1
102
RTVSPropertyOp10
 70
     1
102
RTVSPropertyOp11
 70
     1
102
RTVSPropertyOp12
 70
     1
102
RTVSPropertyOp13
 70
     1
102
RTVSPropertyOp14
 70
     1
102
RTVSPropertyOp15
 70
     1
102
RTVSPropertyOp16
 70
     1
102
RTVSPropertyOp17
 70
     1
102
RTVSPropertyOp18
 70
     1
102
RTVSPropertyOp19
 70
     1
102
RTVSPropertyOp20
 70
     1
102
RTVSPropertyOp21
 70
     1
102
RTVSPropertyOp22
 70
     1
102
RTVSPropertyOp23
 70
     1
102
RTVSPropertyOp24
 70
     1
102
RTVSPropertyOp25
 70
     1
102
RTVSPropertyOp26
 70
     1
102
RTVSPropertyOp27
 70
     1
102
RTVSPropertyOp28
 70
     1
102
RTVSPropertyOp29
 70
     1
102
RTVSPropertyOp30
 70
     1
102
RTVSPropertyOp31
 70
     1
102
RTVSPropertyOp32
 70
     1
102
RTVSPropertyOp33
 70
     1
102
RTVSPropertyOp34
 70
     1
102
RTVSPropertyOp35
 70
     1
102
RTVSPropertyOp36
 70
     1
102
RTVSPropertyOp37
 70
     1
102
RTVSPropertyOp38
 70
     1
102
RTVSPropertyOp39
 70
     1
102
RTVSPropertyOp40
 70
     1
102
RTVSPropertyOp41
 70
     1
102
RTVSPropertyOp42
 70
     1
102
RTVSPropertyOp43
 70
     1
102
RTVSPropertyOp44
 70
     1
102
RTVSPropertyOp45
 70
     1
102
RTVSPropertyOp46
 70
     1
102
RTVSPropertyOp47
 70
     1
102
RTVSPropertyOp48
 70
     1
102
RTVSPropertyOp49
 70
     1
102
RTVSPropertyOp50
 70
     1
102
RTVSPropertyOp51
 70
     0
102
RTVSPropertyOp52
 70
     0
102
RTVSPropertyOp53
 70
     1
102
RTVSPropertyOp54
 70
     1
102
RTVSPropertyOp55
 70
     1
102
RTVSPropertyOp56
 70
     1
102
RTVSPropertyOp57
 70
     1
102
RTVSPost2010Prop28
280
     0
102
RTVSPost2010PropOp28
 70
     1
102
RTVSPost2010Prop29
280
     1
102
RTVSPost2010PropOp29
 70
     1
102
RTVSPost2010Prop30
280
     1
102
RTVSPost2010PropOp30
 70
     1
102
RTVSPost2010Prop31
280
     0
102
RTVSPost2010PropOp31
 70
     1
102
RTVSPost2010Prop32
280
     0
102
RTVSPost2010PropOp32
 70
     1
102
RTVSPost2010Prop33
280
     0
102
RTVSPost2010PropOp33
 70
     1
102
RTVSPost2010Prop34
280
     0
102
RTVSPost2010PropOp34
 70
     1
102
RTVSPost2010Prop35
280
     0
102
RTVSPost2010PropOp35
 70
     1
102
RTVSPost2010Prop36
280
     0
102
RTVSPost2010PropOp36
 70
     1
102
RTVSPost2010Prop37
 90
       50
102
RTVSPost2010PropOp37
 70
     1
102
RTVSPost2010Prop38
140
0.0
102
RTVSPost2010PropOp38
 70
     1
102
RTVSPost2010Prop39
140
1.0
102
RTVSPost2010PropOp39
 70
     1
102
RTVSPost2010Prop40
 90
        0
102
RTVSPost2010PropOp40
 70
     1
102
RTVSPost2010Prop41ColorIndex
 90
       18
102
RTVSPost2010Prop41ColorRGB
 90
        0
102
RTVSPost2010PropOp41
 70
     1
102
RTVSPost2010Prop42
 90
       50
102
RTVSPost2010PropOp42
 70
     1
102
RTVSPost2010Prop43
 90
        3
102
RTVSPost2010PropOp43
 70
     1
102
RTVSPost2010Prop44ColorIndex
 90
        5
102
RTVSPost2010Prop44ColorRGB
 90
      255
102
RTVSPost2010PropOp44
 70
     1
102
RTVSPost2010Prop45
280
     0
102
RTVSPost2010PropOp45
 70
     1
102
RTVSPost2010Prop46
 90
       50
102
RTVSPost2010PropOp46
 70
     1
102
RTVSPost2010Prop47
 90
       50
102
RTVSPost2010PropOp47
 70
     1
102
RTVSPost2010Prop48
 90
       50
102
RTVSPost2010PropOp48
 70
     1
102
RTVSPost2010Prop49
280
     0
102
RTVSPost2010PropOp49
 70
     1
102
RTVSPost2010Prop50
 90
       50
102
RTVSPost2010PropOp50
 70
     1
102
RTVSPost2010Prop51ColorIndex
 90
      256
102
RTVSPost2010Prop51ColorRGB
 90
-16777216
102
RTVSPost2010PropOp51
 70
     0
102
RTVSPost2010Prop52
140
1.0
102
RTVSPost2010PropOp52
 70
     0
102
RTVSPost2010Prop53
 90
        2
102
RTVSPost2010PropOp53
 70
     1
102
RTVSPost2010Prop54
  1
strokes_ogs.tif
102
RTVSPost2010PropOp54
 70
     1
102
RTVSPost2010Prop55
280
     0
102
RTVSPost2010PropOp55
 70
     1
102
RTVSPost2010Prop56
140
1.0
102
RTVSPost2010PropOp56
 70
     1
102
RTVSPost2010Prop57
140
1.0
102
RTVSPost2010PropOp57
 70
     1
  0
XRECORD
  5
A3
102
{ACAD_REACTORS
330
A2
102
}
330
A2
100
AcDbXrecord
280
     1
102
RTVSPropertyOp0
 70
     1
102
RTVSPropertyOp1
 70
     1
102
RTVSPropertyOp2
 70
     1
102
RTVSPropertyOp3
 70
     1
102
RTVSPropertyOp4
 70
     1
102
RTVSPropertyOp5
 70
     1
102
RTVSPropertyOp6
 70
     1
102
RTVSPropertyOp7
 70
     1
102
RTVSPropertyOp8
 70
     1
102
RTVSPropertyOp9
 70
     1
102
RTVSPropertyOp10
 70
     1
102
RTVSPropertyOp11
 70
     1
102
RTVSPropertyOp12
 70
     1
102
RTVSPropertyOp13
 70
     1
102
RTVSPropertyOp14
 70
     1
102
RTVSPropertyOp15
 70
     1
102
RTVSPropertyOp16
 70
     1
102
RTVSPropertyOp17
 70
     1
102
RTVSPropertyOp18
 70
     1
102
RTVSPropertyOp19
 70
     1
102
RTVSPropertyOp20
 70
     1
102
RTVSPropertyOp21
 70
     1
102
RTVSPropertyOp22
 70
     1
102
RTVSPropertyOp23
 70
     1
102
RTVSPropertyOp24
 70
     1
102
RTVSPropertyOp25
 70
     1
102
RTVSPropertyOp26
 70
     1
102
RTVSPropertyOp27
 70
     1
102
RTVSPropertyOp28
 70
     1
102
RTVSPropertyOp29
 70
     1
102
RTVSPropertyOp30
 70
     1
102
RTVSPropertyOp31
 70
     1
102
RTVSPropertyOp32
 70
     1
102
RTVSPropertyOp33
 70
     1
102
RTVSPropertyOp34
 70
     1
102
RTVSPropertyOp35
 70
     1
102
RTVSPropertyOp36
 70
     1
102
RTVSPropertyOp37
 70
     1
102
RTVSPropertyOp38
 70
     1
102
RTVSPropertyOp39
 70
     1
102
RTVSPropertyOp40
 70
     1
102
RTVSPropertyOp41
 70
     1
102
RTVSPropertyOp42
 70
     1
102
RTVSPropertyOp43
 70
     1
102
RTVSPropertyOp44
 70
     1
102
RTVSPropertyOp45
 70
     1
102
RTVSPropertyOp46
 70
     1
102
RTVSPropertyOp47
 70
     1
102
RTVSPropertyOp48
 70
     1
102
RTVSPropertyOp49
 70
     1
102
RTVSPropertyOp50
 70
     1
102
RTVSPropertyOp51
 70
     0
102
RTVSPropertyOp52
 70
     0
102
RTVSPropertyOp53
 70
     1
102
RTVSPropertyOp54
 70
     1
102
RTVSPropertyOp55
 70
     1
102
RTVSPropertyOp56
 70
     1
102
RTVSPropertyOp57
 70
     1
102
RTVSPost2010Prop28
280
     0
102
RTVSPost2010PropOp28
 70
     1
102
RTVSPost2010Prop29
280
     1
102
RTVSPost2010PropOp29
 70
     1
102
RTVSPost2010Prop30
280
     1
102
RTVSPost2010PropOp30
 70
     1
102
RTVSPost2010Prop31
280
     0
102
RTVSPost2010PropOp31
 70
     1
102
RTVSPost2010Prop32
280
     0
102
RTVSPost2010PropOp32
 70
     1
102
RTVSPost2010Prop33
280
     0
102
RTVSPost2010PropOp33
 70
     1
102
RTVSPost2010Prop34
280
     0
102
RTVSPost2010PropOp34
 70
     1
102
RTVSPost2010Prop35
280
     0
102
RTVSPost2010PropOp35
 70
     1
102
RTVSPost2010Prop36
280
     0
102
RTVSPost2010PropOp36
 70
     1
102
RTVSPost2010Prop37
 90
       50
102
RTVSPost2010PropOp37
 70
     1
102
RTVSPost2010Prop38
140
0.0
102
RTVSPost2010PropOp38
 70
     1
102
RTVSPost2010Prop39
140
1.0
102
RTVSPost2010PropOp39
 70
     1
102
RTVSPost2010Prop40
 90
        0
102
RTVSPost2010PropOp40
 70
     1
102
RTVSPost2010Prop41ColorIndex
 90
       18
102
RTVSPost2010Prop41ColorRGB
 90
        0
102
RTVSPost2010PropOp41
 70
     1
102
RTVSPost2010Prop42
 90
       50
102
RTVSPost2010PropOp42
 70
     1
102
RTVSPost2010Prop43
 90
        3
102
RTVSPost2010PropOp43
 70
     1
102
RTVSPost2010Prop44ColorIndex
 90
        5
102
RTVSPost2010Prop44ColorRGB
 90
      255
102
RTVSPost2010PropOp44
 70
     1
102
RTVSPost2010Prop45
280
     0
102
RTVSPost2010PropOp45
 70
     1
102
RTVSPost2010Prop46
 90
       50
102
RTVSPost2010PropOp46
 70
     1
102
RTVSPost2010Prop47
 90
       50
102
RTVSPost2010PropOp47
 70
     1
102
RTVSPost2010Prop48
 90
       50
102
RTVSPost2010PropOp48
 70
     1
102
RTVSPost2010Prop49
280
     0
102
RTVSPost2010PropOp49
 70
     1
102
RTVSPost2010Prop50
 90
       50
102
RTVSPost2010PropOp50
 70
     1
102
RTVSPost2010Prop51ColorIndex
 90
      256
102
RTVSPost2010Prop51ColorRGB
 90
-16777216
102
RTVSPost2010PropOp51
 70
     0
102
RTVSPost2010Prop52
140
1.0
102
RTVSPost2010PropOp52
 70
     0
102
RTVSPost2010Prop53
 90
        2
102
RTVSPost2010PropOp53
 70
     1
102
RTVSPost2010Prop54
  1
strokes_ogs.tif
102
RTVSPost2010PropOp54
 70
     1
102
RTVSPost2010Prop55
280
     0
102
RTVSPost2010PropOp55
 70
     1
102
RTVSPost2010Prop56
140
1.0
102
RTVSPost2010PropOp56
 70
     1
102
RTVSPost2010Prop57
140
1.0
102
RTVSPost2010PropOp57
 70
     1
  0
XRECORD
  5
AB
102
{ACAD_REACTORS
330
AA
102
}
330
AA
100
AcDbXrecord
280
     1
102
RTVSPropertyOp0
 70
     1
102
RTVSPropertyOp1
 70
     1
102
RTVSPropertyOp2
 70
     1
102
RTVSPropertyOp3
 70
     1
102
RTVSPropertyOp4
 70
     1
102
RTVSPropertyOp5
 70
     1
102
RTVSPropertyOp6
 70
     1
102
RTVSPropertyOp7
 70
     1
102
RTVSPropertyOp8
 70
     1
102
RTVSPropertyOp9
 70
     1
102
RTVSPropertyOp10
 70
     1
102
RTVSPropertyOp11
 70
     1
102
RTVSPropertyOp12
 70
     1
102
RTVSPropertyOp13
 70
     1
102
RTVSPropertyOp14
 70
     1
102
RTVSPropertyOp15
 70
     1
102
RTVSPropertyOp16
 70
     1
102
RTVSPropertyOp17
 70
     1
102
RTVSPropertyOp18
 70
     1
102
RTVSPropertyOp19
 70
     1
102
RTVSPropertyOp20
 70
     1
102
RTVSPropertyOp21
 70
     1
102
RTVSPropertyOp22
 70
     1
102
RTVSPropertyOp23
 70
     1
102
RTVSPropertyOp24
 70
     1
102
RTVSPropertyOp25
 70
     1
102
RTVSPropertyOp26
 70
     1
102
RTVSPropertyOp27
 70
     1
102
RTVSPropertyOp28
 70
     1
102
RTVSPropertyOp29
 70
     1
102
RTVSPropertyOp30
 70
     1
102
RTVSPropertyOp31
 70
     1
102
RTVSPropertyOp32
 70
     1
102
RTVSPropertyOp33
 70
     1
102
RTVSPropertyOp34
 70
     1
102
RTVSPropertyOp35
 70
     1
102
RTVSPropertyOp36
 70
     1
102
RTVSPropertyOp37
 70
     1
102
RTVSPropertyOp38
 70
     1
102
RTVSPropertyOp39
 70
     1
102
RTVSPropertyOp40
 70
     1
102
RTVSPropertyOp41
 70
     1
102
RTVSPropertyOp42
 70
     1
102
RTVSPropertyOp43
 70
     1
102
RTVSPropertyOp44
 70
     1
102
RTVSPropertyOp45
 70
     1
102
RTVSPropertyOp46
 70
     1
102
RTVSPropertyOp47
 70
     1
102
RTVSPropertyOp48
 70
     1
102
RTVSPropertyOp49
 70
     1
102
RTVSPropertyOp50
 70
     1
102
RTVSPropertyOp51
 70
     0
102
RTVSPropertyOp52
 70
     0
102
RTVSPropertyOp53
 70
     1
102
RTVSPropertyOp54
 70
     1
102
RTVSPropertyOp55
 70
     1
102
RTVSPropertyOp56
 70
     1
102
RTVSPropertyOp57
 70
     1
102
RTVSPost2010Prop28
280
     0
102
RTVSPost2010PropOp28
 70
     1
102
RTVSPost2010Prop29
280
     1
102
RTVSPost2010PropOp29
 70
     1
102
RTVSPost2010Prop30
280
     1
102
RTVSPost2010PropOp30
 70
     1
102
RTVSPost2010Prop31
280
     0
102
RTVSPost2010PropOp31
 70
     1
102
RTVSPost2010Prop32
280
     0
102
RTVSPost2010PropOp32
 70
     1
102
RTVSPost2010Prop33
280
     0
102
RTVSPost2010PropOp33
 70
     1
102
RTVSPost2010Prop34
280
     0
102
RTVSPost2010PropOp34
 70
     1
102
RTVSPost2010Prop35
280
     0
102
RTVSPost2010PropOp35
 70
     1
102
RTVSPost2010Prop36
280
     0
102
RTVSPost2010PropOp36
 70
     1
102
RTVSPost2010Prop37
 90
       50
102
RTVSPost2010PropOp37
 70
     1
102
RTVSPost2010Prop38
140
0.0
102
RTVSPost2010PropOp38
 70
     1
102
RTVSPost2010Prop39
140
1.0
102
RTVSPost2010PropOp39
 70
     1
102
RTVSPost2010Prop40
 90
        0
102
RTVSPost2010PropOp40
 70
     1
102
RTVSPost2010Prop41ColorIndex
 90
       18
102
RTVSPost2010Prop41ColorRGB
 90
        0
102
RTVSPost2010PropOp41
 70
     1
102
RTVSPost2010Prop42
 90
       50
102
RTVSPost2010PropOp42
 70
     1
102
RTVSPost2010Prop43
 90
        3
102
RTVSPost2010PropOp43
 70
     1
102
RTVSPost2010Prop44ColorIndex
 90
        5
102
RTVSPost2010Prop44ColorRGB
 90
      255
102
RTVSPost2010PropOp44
 70
     1
102
RTVSPost2010Prop45
280
     0
102
RTVSPost2010PropOp45
 70
     1
102
RTVSPost2010Prop46
 90
       50
102
RTVSPost2010PropOp46
 70
     1
102
RTVSPost2010Prop47
 90
       50
102
RTVSPost2010PropOp47
 70
     1
102
RTVSPost2010Prop48
 90
       50
102
RTVSPost2010PropOp48
 70
     1
102
RTVSPost2010Prop49
280
     0
102
RTVSPost2010PropOp49
 70
     1
102
RTVSPost2010Prop50
 90
       50
102
RTVSPost2010PropOp50
 70
     1
102
RTVSPost2010Prop51ColorIndex
 90
      256
102
RTVSPost2010Prop51ColorRGB
 90
-16777216
102
RTVSPost2010PropOp51
 70
     0
102
RTVSPost2010Prop52
140
1.0
102
RTVSPost2010PropOp52
 70
     0
102
RTVSPost2010Prop53
 90
        2
102
RTVSPost2010PropOp53
 70
     1
102
RTVSPost2010Prop54
  1
strokes_ogs.tif
102
RTVSPost2010PropOp54
 70
     1
102
RTVSPost2010Prop55
280
     0
102
RTVSPost2010PropOp55
 70
     1
102
RTVSPost2010Prop56
140
1.0
102
RTVSPost2010PropOp56
 70
     1
102
RTVSPost2010Prop57
140
1.0
102
RTVSPost2010PropOp57
 70
     1
  0
XRECORD
  5
9F
102
{ACAD_REACTORS
330
9E
102
}
330
9E
100
AcDbXrecord
280
     1
102
RTVSPropertyOp0
 70
     1
102
RTVSPropertyOp1
 70
     1
102
RTVSPropertyOp2
 70
     1
102
RTVSPropertyOp3
 70
     1
102
RTVSPropertyOp4
 70
     1
102
RTVSPropertyOp5
 70
     1
102
RTVSPropertyOp6
 70
     1
102
RTVSPropertyOp7
 70
     1
102
RTVSPropertyOp8
 70
     1
102
RTVSPropertyOp9
 70
     1
102
RTVSPropertyOp10
 70
     1
102
RTVSPropertyOp11
 70
     1
102
RTVSPropertyOp12
 70
     1
102
RTVSPropertyOp13
 70
     1
102
RTVSPropertyOp14
 70
     1
102
RTVSPropertyOp15
 70
     1
102
RTVSPropertyOp16
 70
     1
102
RTVSPropertyOp17
 70
     1
102
RTVSPropertyOp18
 70
     1
102
RTVSPropertyOp19
 70
     1
102
RTVSPropertyOp20
 70
     1
102
RTVSPropertyOp21
 70
     1
102
RTVSPropertyOp22
 70
     1
102
RTVSPropertyOp23
 70
     1
102
RTVSPropertyOp24
 70
     1
102
RTVSPropertyOp25
 70
     1
102
RTVSPropertyOp26
 70
     1
102
RTVSPropertyOp27
 70
     1
102
RTVSPropertyOp28
 70
     1
102
RTVSPropertyOp29
 70
     1
102
RTVSPropertyOp30
 70
     1
102
RTVSPropertyOp31
 70
     1
102
RTVSPropertyOp32
 70
     1
102
RTVSPropertyOp33
 70
     1
102
RTVSPropertyOp34
 70
     1
102
RTVSPropertyOp35
 70
     1
102
RTVSPropertyOp36
 70
     1
102
RTVSPropertyOp37
 70
     1
102
RTVSPropertyOp38
 70
     1
102
RTVSPropertyOp39
 70
     1
102
RTVSPropertyOp40
 70
     1
102
RTVSPropertyOp41
 70
     1
102
RTVSPropertyOp42
 70
     1
102
RTVSPropertyOp43
 70
     1
102
RTVSPropertyOp44
 70
     1
102
RTVSPropertyOp45
 70
     1
102
RTVSPropertyOp46
 70
     1
102
RTVSPropertyOp47
 70
     1
102
RTVSPropertyOp48
 70
     1
102
RTVSPropertyOp49
 70
     1
102
RTVSPropertyOp50
 70
     1
102
RTVSPropertyOp51
 70
     0
102
RTVSPropertyOp52
 70
     0
102
RTVSPropertyOp53
 70
     1
102
RTVSPropertyOp54
 70
     1
102
RTVSPropertyOp55
 70
     1
102
RTVSPropertyOp56
 70
     1
102
RTVSPropertyOp57
 70
     1
102
RTVSPost2010Prop28
280
     0
102
RTVSPost2010PropOp28
 70
     1
102
RTVSPost2010Prop29
280
     1
102
RTVSPost2010PropOp29
 70
     1
102
RTVSPost2010Prop30
280
     1
102
RTVSPost2010PropOp30
 70
     1
102
RTVSPost2010Prop31
280
     0
102
RTVSPost2010PropOp31
 70
     1
102
RTVSPost2010Prop32
280
     0
102
RTVSPost2010PropOp32
 70
     1
102
RTVSPost2010Prop33
280
     0
102
RTVSPost2010PropOp33
 70
     1
102
RTVSPost2010Prop34
280
     0
102
RTVSPost2010PropOp34
 70
     1
102
RTVSPost2010Prop35
280
     0
102
RTVSPost2010PropOp35
 70
     1
102
RTVSPost2010Prop36
280
     0
102
RTVSPost2010PropOp36
 70
     1
102
RTVSPost2010Prop37
 90
       50
102
RTVSPost2010PropOp37
 70
     1
102
RTVSPost2010Prop38
140
0.0
102
RTVSPost2010PropOp38
 70
     1
102
RTVSPost2010Prop39
140
1.0
102
RTVSPost2010PropOp39
 70
     1
102
RTVSPost2010Prop40
 90
        0
102
RTVSPost2010PropOp40
 70
     1
102
RTVSPost2010Prop41ColorIndex
 90
       18
102
RTVSPost2010Prop41ColorRGB
 90
        0
102
RTVSPost2010PropOp41
 70
     1
102
RTVSPost2010Prop42
 90
       50
102
RTVSPost2010PropOp42
 70
     1
102
RTVSPost2010Prop43
 90
        3
102
RTVSPost2010PropOp43
 70
     1
102
RTVSPost2010Prop44ColorIndex
 90
        5
102
RTVSPost2010Prop44ColorRGB
 90
      255
102
RTVSPost2010PropOp44
 70
     1
102
RTVSPost2010Prop45
280
     0
102
RTVSPost2010PropOp45
 70
     1
102
RTVSPost2010Prop46
 90
       50
102
RTVSPost2010PropOp46
 70
     1
102
RTVSPost2010Prop47
 90
       50
102
RTVSPost2010PropOp47
 70
     1
102
RTVSPost2010Prop48
 90
       50
102
RTVSPost2010PropOp48
 70
     1
102
RTVSPost2010Prop49
280
     0
102
RTVSPost2010PropOp49
 70
     1
102
RTVSPost2010Prop50
 90
       50
102
RTVSPost2010PropOp50
 70
     1
102
RTVSPost2010Prop51ColorIndex
 90
      256
102
RTVSPost2010Prop51ColorRGB
 90
-16777216
102
RTVSPost2010PropOp51
 70
     0
102
RTVSPost2010Prop52
140
1.0
102
RTVSPost2010PropOp52
 70
     0
102
RTVSPost2010Prop53
 90
        2
102
RTVSPost2010PropOp53
 70
     1
102
RTVSPost2010Prop54
  1
strokes_ogs.tif
102
RTVSPost2010PropOp54
 70
     1
102
RTVSPost2010Prop55
280
     0
102
RTVSPost2010PropOp55
 70
     1
102
RTVSPost2010Prop56
140
1.0
102
RTVSPost2010PropOp56
 70
     1
102
RTVSPost2010Prop57
140
1.0
102
RTVSPost2010PropOp57
 70
     1
  0
XRECORD
  5
A1
102
{ACAD_REACTORS
330
A0
102
}
330
A0
100
AcDbXrecord
280
     1
102
RTVSPropertyOp0
 70
     1
102
RTVSPropertyOp1
 70
     1
102
RTVSPropertyOp2
 70
     1
102
RTVSPropertyOp3
 70
     1
102
RTVSPropertyOp4
 70
     1
102
RTVSPropertyOp5
 70
     1
102
RTVSPropertyOp6
 70
     1
102
RTVSPropertyOp7
 70
     1
102
RTVSPropertyOp8
 70
     1
102
RTVSPropertyOp9
 70
     1
102
RTVSPropertyOp10
 70
     1
102
RTVSPropertyOp11
 70
     1
102
RTVSPropertyOp12
 70
     1
102
RTVSPropertyOp13
 70
     1
102
RTVSPropertyOp14
 70
     1
102
RTVSPropertyOp15
 70
     1
102
RTVSPropertyOp16
 70
     1
102
RTVSPropertyOp17
 70
     1
102
RTVSPropertyOp18
 70
     1
102
RTVSPropertyOp19
 70
     1
102
RTVSPropertyOp20
 70
     1
102
RTVSPropertyOp21
 70
     1
102
RTVSPropertyOp22
 70
     1
102
RTVSPropertyOp23
 70
     1
102
RTVSPropertyOp24
 70
     1
102
RTVSPropertyOp25
 70
     1
102
RTVSPropertyOp26
 70
     1
102
RTVSPropertyOp27
 70
     1
102
RTVSPropertyOp28
 70
     1
102
RTVSPropertyOp29
 70
     1
102
RTVSPropertyOp30
 70
     1
102
RTVSPropertyOp31
 70
     1
102
RTVSPropertyOp32
 70
     1
102
RTVSPropertyOp33
 70
     1
102
RTVSPropertyOp34
 70
     1
102
RTVSPropertyOp35
 70
     1
102
RTVSPropertyOp36
 70
     1
102
RTVSPropertyOp37
 70
     1
102
RTVSPropertyOp38
 70
     1
102
RTVSPropertyOp39
 70
     1
102
RTVSPropertyOp40
 70
     1
102
RTVSPropertyOp41
 70
     1
102
RTVSPropertyOp42
 70
     1
102
RTVSPropertyOp43
 70
     1
102
RTVSPropertyOp44
 70
     1
102
RTVSPropertyOp45
 70
     1
102
RTVSPropertyOp46
 70
     1
102
RTVSPropertyOp47
 70
     1
102
RTVSPropertyOp48
 70
     1
102
RTVSPropertyOp49
 70
     1
102
RTVSPropertyOp50
 70
     1
102
RTVSPropertyOp51
 70
     0
102
RTVSPropertyOp52
 70
     0
102
RTVSPropertyOp53
 70
     1
102
RTVSPropertyOp54
 70
     1
102
RTVSPropertyOp55
 70
     1
102
RTVSPropertyOp56
 70
     1
102
RTVSPropertyOp57
 70
     1
102
RTVSPost2010Prop28
280
     0
102
RTVSPost2010PropOp28
 70
     1
102
RTVSPost2010Prop29
280
     1
102
RTVSPost2010PropOp29
 70
     1
102
RTVSPost2010Prop30
280
     1
102
RTVSPost2010PropOp30
 70
     1
102
RTVSPost2010Prop31
280
     0
102
RTVSPost2010PropOp31
 70
     1
102
RTVSPost2010Prop32
280
     0
102
RTVSPost2010PropOp32
 70
     1
102
RTVSPost2010Prop33
280
     0
102
RTVSPost2010PropOp33
 70
     1
102
RTVSPost2010Prop34
280
     0
102
RTVSPost2010PropOp34
 70
     1
102
RTVSPost2010Prop35
280
     0
102
RTVSPost2010PropOp35
 70
     1
102
RTVSPost2010Prop36
280
     0
102
RTVSPost2010PropOp36
 70
     1
102
RTVSPost2010Prop37
 90
       50
102
RTVSPost2010PropOp37
 70
     1
102
RTVSPost2010Prop38
140
0.0
102
RTVSPost2010PropOp38
 70
     1
102
RTVSPost2010Prop39
140
1.0
102
RTVSPost2010PropOp39
 70
     1
102
RTVSPost2010Prop40
 90
        0
102
RTVSPost2010PropOp40
 70
     1
102
RTVSPost2010Prop41ColorIndex
 90
       18
102
RTVSPost2010Prop41ColorRGB
 90
        0
102
RTVSPost2010PropOp41
 70
     1
102
RTVSPost2010Prop42
 90
       50
102
RTVSPost2010PropOp42
 70
     1
102
RTVSPost2010Prop43
 90
        3
102
RTVSPost2010PropOp43
 70
     1
102
RTVSPost2010Prop44ColorIndex
 90
        5
102
RTVSPost2010Prop44ColorRGB
 90
      255
102
RTVSPost2010PropOp44
 70
     1
102
RTVSPost2010Prop45
280
     0
102
RTVSPost2010PropOp45
 70
     1
102
RTVSPost2010Prop46
 90
       50
102
RTVSPost2010PropOp46
 70
     1
102
RTVSPost2010Prop47
 90
       50
102
RTVSPost2010PropOp47
 70
     1
102
RTVSPost2010Prop48
 90
       50
102
RTVSPost2010PropOp48
 70
     1
102
RTVSPost2010Prop49
280
     0
102
RTVSPost2010PropOp49
 70
     1
102
RTVSPost2010Prop50
 90
       50
102
RTVSPost2010PropOp50
 70
     1
102
RTVSPost2010Prop51ColorIndex
 90
      256
102
RTVSPost2010Prop51ColorRGB
 90
-16777216
102
RTVSPost2010PropOp51
 70
     0
102
RTVSPost2010Prop52
140
1.0
102
RTVSPost2010PropOp52
 70
     0
102
RTVSPost2010Prop53
 90
        2
102
RTVSPost2010PropOp53
 70
     1
102
RTVSPost2010Prop54
  1
strokes_ogs.tif
102
RTVSPost2010PropOp54
 70
     1
102
RTVSPost2010Prop55
280
     0
102
RTVSPost2010PropOp55
 70
     1
102
RTVSPost2010Prop56
140
1.0
102
RTVSPost2010PropOp56
 70
     1
102
RTVSPost2010Prop57
140
1.0
102
RTVSPost2010PropOp57
 70
     1
  0
XRECORD
  5
B1
102
{ACAD_REACTORS
330
B0
102
}
330
B0
100
AcDbXrecord
280
     1
102
RTVSPropertyOp0
 70
     0
102
RTVSPropertyOp1
 70
     0
102
RTVSPropertyOp2
 70
     0
102
RTVSPropertyOp3
 70
     0
102
RTVSPropertyOp4
 70
     0
102
RTVSPropertyOp5
 70
     0
102
RTVSPropertyOp6
 70
     0
102
RTVSPropertyOp7
 70
     0
102
RTVSPropertyOp8
 70
     0
102
RTVSPropertyOp9
 70
     0
102
RTVSPropertyOp10
 70
     0
102
RTVSPropertyOp11
 70
     0
102
RTVSPropertyOp12
 70
     0
102
RTVSPropertyOp13
 70
     0
102
RTVSPropertyOp14
 70
     2
102
RTVSPropertyOp15
 70
     0
102
RTVSPropertyOp16
 70
     0
102
RTVSPropertyOp17
 70
     0
102
RTVSPropertyOp18
 70
     0
102
RTVSPropertyOp19
 70
     0
102
RTVSPropertyOp20
 70
     0
102
RTVSPropertyOp21
 70
     0
102
RTVSPropertyOp22
 70
     0
102
RTVSPropertyOp23
 70
     0
102
RTVSPropertyOp24
 70
     0
102
RTVSPropertyOp25
 70
     0
102
RTVSPropertyOp26
 70
     0
102
RTVSPropertyOp27
 70
     0
102
RTVSPropertyOp28
 70
     0
102
RTVSPropertyOp29
 70
     0
102
RTVSPropertyOp30
 70
     0
102
RTVSPropertyOp31
 70
     0
102
RTVSPropertyOp32
 70
     0
102
RTVSPropertyOp33
 70
     0
102
RTVSPropertyOp34
 70
     0
102
RTVSPropertyOp35
 70
     0
102
RTVSPropertyOp36
 70
     0
102
RTVSPropertyOp37
 70
     0
102
RTVSPropertyOp38
 70
     0
102
RTVSPropertyOp39
 70
     0
102
RTVSPropertyOp40
 70
     0
102
RTVSPropertyOp41
 70
     0
102
RTVSPropertyOp42
 70
     0
102
RTVSPropertyOp43
 70
     0
102
RTVSPropertyOp44
 70
     0
102
RTVSPropertyOp45
 70
     0
102
RTVSPropertyOp46
 70
     0
102
RTVSPropertyOp47
 70
     0
102
RTVSPropertyOp48
 70
     0
102
RTVSPropertyOp49
 70
     0
102
RTVSPropertyOp50
 70
     0
102
RTVSPropertyOp51
 70
     0
102
RTVSPropertyOp52
 70
     0
102
RTVSPropertyOp53
 70
     0
102
RTVSPropertyOp54
 70
     0
102
RTVSPropertyOp55
 70
     0
102
RTVSPropertyOp56
 70
     0
102
RTVSPropertyOp57
 70
     0
102
RTVSPost2010Prop28
280
     0
102
RTVSPost2010PropOp28
 70
     0
102
RTVSPost2010Prop29
280
     1
102
RTVSPost2010PropOp29
 70
     0
102
RTVSPost2010Prop30
280
     1
102
RTVSPost2010PropOp30
 70
     0
102
RTVSPost2010Prop31
280
     0
102
RTVSPost2010PropOp31
 70
     0
102
RTVSPost2010Prop32
280
     0
102
RTVSPost2010PropOp32
 70
     0
102
RTVSPost2010Prop33
280
     0
102
RTVSPost2010PropOp33
 70
     0
102
RTVSPost2010Prop34
280
     0
102
RTVSPost2010PropOp34
 70
     0
102
RTVSPost2010Prop35
280
     0
102
RTVSPost2010PropOp35
 70
     0
102
RTVSPost2010Prop36
280
     0
102
RTVSPost2010PropOp36
 70
     0
102
RTVSPost2010Prop37
 90
       50
102
RTVSPost2010PropOp37
 70
     0
102
RTVSPost2010Prop38
140
0.0
102
RTVSPost2010PropOp38
 70
     0
102
RTVSPost2010Prop39
140
1.0
102
RTVSPost2010PropOp39
 70
     0
102
RTVSPost2010Prop40
 90
        0
102
RTVSPost2010PropOp40
 70
     0
102
RTVSPost2010Prop41ColorIndex
 90
       18
102
RTVSPost2010Prop41ColorRGB
 90
        0
102
RTVSPost2010PropOp41
 70
     0
102
RTVSPost2010Prop42
 90
       50
102
RTVSPost2010PropOp42
 70
     0
102
RTVSPost2010Prop43
 90
        3
102
RTVSPost2010PropOp43
 70
     0
102
RTVSPost2010Prop44ColorIndex
 90
        5
102
RTVSPost2010Prop44ColorRGB
 90
      255
102
RTVSPost2010PropOp44
 70
     0
102
RTVSPost2010Prop45
280
     0
102
RTVSPost2010PropOp45
 70
     0
102
RTVSPost2010Prop46
 90
       50
102
RTVSPost2010PropOp46
 70
     0
102
RTVSPost2010Prop47
 90
       50
102
RTVSPost2010PropOp47
 70
     0
102
RTVSPost2010Prop48
 90
       50
102
RTVSPost2010PropOp48
 70
     0
102
RTVSPost2010Prop49
280
     0
102
RTVSPost2010PropOp49
 70
     0
102
RTVSPost2010Prop50
 90
       50
102
RTVSPost2010PropOp50
 70
     0
102
RTVSPost2010Prop51ColorIndex
 90
      256
102
RTVSPost2010Prop51ColorRGB
 90
-16777216
102
RTVSPost2010PropOp51
 70
     0
102
RTVSPost2010Prop52
140
1.0
102
RTVSPost2010PropOp52
 70
     0
102
RTVSPost2010Prop53
 90
        2
102
RTVSPost2010PropOp53
 70
     0
102
RTVSPost2010Prop54
  1
strokes_ogs.tif
102
RTVSPost2010PropOp54
 70
     0
102
RTVSPost2010Prop55
280
     0
102
RTVSPost2010PropOp55
 70
     0
102
RTVSPost2010Prop56
140
1.0
102
RTVSPost2010PropOp56
 70
     0
102
RTVSPost2010Prop57
140
1.0
102
RTVSPost2010PropOp57
 70
     0
  0
XRECORD
  5
A9
102
{ACAD_REACTORS
330
A8
102
}
330
A8
100
AcDbXrecord
280
     1
102
RTVSPropertyOp0
 70
     1
102
RTVSPropertyOp1
 70
     1
102
RTVSPropertyOp2
 70
     1
102
RTVSPropertyOp3
 70
     1
102
RTVSPropertyOp4
 70
     1
102
RTVSPropertyOp5
 70
     1
102
RTVSPropertyOp6
 70
     1
102
RTVSPropertyOp7
 70
     1
102
RTVSPropertyOp8
 70
     1
102
RTVSPropertyOp9
 70
     1
102
RTVSPropertyOp10
 70
     1
102
RTVSPropertyOp11
 70
     1
102
RTVSPropertyOp12
 70
     1
102
RTVSPropertyOp13
 70
     1
102
RTVSPropertyOp14
 70
     1
102
RTVSPropertyOp15
 70
     1
102
RTVSPropertyOp16
 70
     1
102
RTVSPropertyOp17
 70
     1
102
RTVSPropertyOp18
 70
     1
102
RTVSPropertyOp19
 70
     1
102
RTVSPropertyOp20
 70
     1
102
RTVSPropertyOp21
 70
     1
102
RTVSPropertyOp22
 70
     1
102
RTVSPropertyOp23
 70
     1
102
RTVSPropertyOp24
 70
     1
102
RTVSPropertyOp25
 70
     1
102
RTVSPropertyOp26
 70
     1
102
RTVSPropertyOp27
 70
     1
102
RTVSPropertyOp28
 70
     1
102
RTVSPropertyOp29
 70
     1
102
RTVSPropertyOp30
 70
     1
102
RTVSPropertyOp31
 70
     1
102
RTVSPropertyOp32
 70
     1
102
RTVSPropertyOp33
 70
     1
102
RTVSPropertyOp34
 70
     1
102
RTVSPropertyOp35
 70
     1
102
RTVSPropertyOp36
 70
     1
102
RTVSPropertyOp37
 70
     1
102
RTVSPropertyOp38
 70
     1
102
RTVSPropertyOp39
 70
     1
102
RTVSPropertyOp40
 70
     1
102
RTVSPropertyOp41
 70
     1
102
RTVSPropertyOp42
 70
     1
102
RTVSPropertyOp43
 70
     1
102
RTVSPropertyOp44
 70
     1
102
RTVSPropertyOp45
 70
     1
102
RTVSPropertyOp46
 70
     1
102
RTVSPropertyOp47
 70
     1
102
RTVSPropertyOp48
 70
     1
102
RTVSPropertyOp49
 70
     1
102
RTVSPropertyOp50
 70
     1
102
RTVSPropertyOp51
 70
     0
102
RTVSPropertyOp52
 70
     0
102
RTVSPropertyOp53
 70
     1
102
RTVSPropertyOp54
 70
     1
102
RTVSPropertyOp55
 70
     1
102
RTVSPropertyOp56
 70
     1
102
RTVSPropertyOp57
 70
     1
102
RTVSPost2010Prop28
280
     0
102
RTVSPost2010PropOp28
 70
     1
102
RTVSPost2010Prop29
280
     1
102
RTVSPost2010PropOp29
 70
     1
102
RTVSPost2010Prop30
280
     1
102
RTVSPost2010PropOp30
 70
     1
102
RTVSPost2010Prop31
280
     0
102
RTVSPost2010PropOp31
 70
     1
102
RTVSPost2010Prop32
280
     0
102
RTVSPost2010PropOp32
 70
     1
102
RTVSPost2010Prop33
280
     0
102
RTVSPost2010PropOp33
 70
     1
102
RTVSPost2010Prop34
280
     0
102
RTVSPost2010PropOp34
 70
     1
102
RTVSPost2010Prop35
280
     0
102
RTVSPost2010PropOp35
 70
     1
102
RTVSPost2010Prop36
280
     0
102
RTVSPost2010PropOp36
 70
     1
102
RTVSPost2010Prop37
 90
       50
102
RTVSPost2010PropOp37
 70
     1
102
RTVSPost2010Prop38
140
0.0
102
RTVSPost2010PropOp38
 70
     1
102
RTVSPost2010Prop39
140
1.0
102
RTVSPost2010PropOp39
 70
     1
102
RTVSPost2010Prop40
 90
        0
102
RTVSPost2010PropOp40
 70
     1
102
RTVSPost2010Prop41ColorIndex
 90
       18
102
RTVSPost2010Prop41ColorRGB
 90
        0
102
RTVSPost2010PropOp41
 70
     1
102
RTVSPost2010Prop42
 90
       50
102
RTVSPost2010PropOp42
 70
     1
102
RTVSPost2010Prop43
 90
        3
102
RTVSPost2010PropOp43
 70
     1
102
RTVSPost2010Prop44ColorIndex
 90
        5
102
RTVSPost2010Prop44ColorRGB
 90
      255
102
RTVSPost2010PropOp44
 70
     1
102
RTVSPost2010Prop45
280
     0
102
RTVSPost2010PropOp45
 70
     1
102
RTVSPost2010Prop46
 90
       50
102
RTVSPost2010PropOp46
 70
     1
102
RTVSPost2010Prop47
 90
       50
102
RTVSPost2010PropOp47
 70
     1
102
RTVSPost2010Prop48
 90
       50
102
RTVSPost2010PropOp48
 70
     1
102
RTVSPost2010Prop49
280
     0
102
RTVSPost2010PropOp49
 70
     1
102
RTVSPost2010Prop50
 90
       50
102
RTVSPost2010PropOp50
 70
     1
102
RTVSPost2010Prop51ColorIndex
 90
      256
102
RTVSPost2010Prop51ColorRGB
 90
-16777216
102
RTVSPost2010PropOp51
 70
     0
102
RTVSPost2010Prop52
140
1.0
102
RTVSPost2010PropOp52
 70
     0
102
RTVSPost2010Prop53
 90
        2
102
RTVSPost2010PropOp53
 70
     1
102
RTVSPost2010Prop54
  1
strokes_ogs.tif
102
RTVSPost2010PropOp54
 70
     1
102
RTVSPost2010Prop55
280
     0
102
RTVSPost2010PropOp55
 70
     1
102
RTVSPost2010Prop56
140
1.0
102
RTVSPost2010PropOp56
 70
     1
102
RTVSPost2010Prop57
140
1.0
102
RTVSPost2010PropOp57
 70
     1
  0
XRECORD
  5
8F
102
{ACAD_REACTORS
330
8E
102
}
330
8E
100
AcDbXrecord
280
     1
102
RTVSPropertyOp0
 70
     1
102
RTVSPropertyOp1
 70
     1
102
RTVSPropertyOp2
 70
     1
102
RTVSPropertyOp3
 70
     1
102
RTVSPropertyOp4
 70
     1
102
RTVSPropertyOp5
 70
     1
102
RTVSPropertyOp6
 70
     1
102
RTVSPropertyOp7
 70
     1
102
RTVSPropertyOp8
 70
     1
102
RTVSPropertyOp9
 70
     1
102
RTVSPropertyOp10
 70
     1
102
RTVSPropertyOp11
 70
     1
102
RTVSPropertyOp12
 70
     1
102
RTVSPropertyOp13
 70
     1
102
RTVSPropertyOp14
 70
     1
102
RTVSPropertyOp15
 70
     1
102
RTVSPropertyOp16
 70
     1
102
RTVSPropertyOp17
 70
     1
102
RTVSPropertyOp18
 70
     1
102
RTVSPropertyOp19
 70
     1
102
RTVSPropertyOp20
 70
     1
102
RTVSPropertyOp21
 70
     1
102
RTVSPropertyOp22
 70
     1
102
RTVSPropertyOp23
 70
     1
102
RTVSPropertyOp24
 70
     1
102
RTVSPropertyOp25
 70
     1
102
RTVSPropertyOp26
 70
     1
102
RTVSPropertyOp27
 70
     1
102
RTVSPropertyOp28
 70
     1
102
RTVSPropertyOp29
 70
     1
102
RTVSPropertyOp30
 70
     1
102
RTVSPropertyOp31
 70
     1
102
RTVSPropertyOp32
 70
     1
102
RTVSPropertyOp33
 70
     1
102
RTVSPropertyOp34
 70
     1
102
RTVSPropertyOp35
 70
     1
102
RTVSPropertyOp36
 70
     1
102
RTVSPropertyOp37
 70
     1
102
RTVSPropertyOp38
 70
     1
102
RTVSPropertyOp39
 70
     1
102
RTVSPropertyOp40
 70
     1
102
RTVSPropertyOp41
 70
     1
102
RTVSPropertyOp42
 70
     1
102
RTVSPropertyOp43
 70
     1
102
RTVSPropertyOp44
 70
     1
102
RTVSPropertyOp45
 70
     1
102
RTVSPropertyOp46
 70
     1
102
RTVSPropertyOp47
 70
     1
102
RTVSPropertyOp48
 70
     1
102
RTVSPropertyOp49
 70
     1
102
RTVSPropertyOp50
 70
     1
102
RTVSPropertyOp51
 70
     0
102
RTVSPropertyOp52
 70
     0
102
RTVSPropertyOp53
 70
     1
102
RTVSPropertyOp54
 70
     1
102
RTVSPropertyOp55
 70
     1
102
RTVSPropertyOp56
 70
     1
102
RTVSPropertyOp57
 70
     1
102
RTVSPost2010Prop28
280
     0
102
RTVSPost2010PropOp28
 70
     1
102
RTVSPost2010Prop29
280
     1
102
RTVSPost2010PropOp29
 70
     1
102
RTVSPost2010Prop30
280
     1
102
RTVSPost2010PropOp30
 70
     1
102
RTVSPost2010Prop31
280
     0
102
RTVSPost2010PropOp31
 70
     1
102
RTVSPost2010Prop32
280
     0
102
RTVSPost2010PropOp32
 70
     1
102
RTVSPost2010Prop33
280
     0
102
RTVSPost2010PropOp33
 70
     1
102
RTVSPost2010Prop34
280
     0
102
RTVSPost2010PropOp34
 70
     1
102
RTVSPost2010Prop35
280
     0
102
RTVSPost2010PropOp35
 70
     1
102
RTVSPost2010Prop36
280
     0
102
RTVSPost2010PropOp36
 70
     1
102
RTVSPost2010Prop37
 90
       50
102
RTVSPost2010PropOp37
 70
     1
102
RTVSPost2010Prop38
140
0.0
102
RTVSPost2010PropOp38
 70
     1
102
RTVSPost2010Prop39
140
1.0
102
RTVSPost2010PropOp39
 70
     1
102
RTVSPost2010Prop40
 90
        0
102
RTVSPost2010PropOp40
 70
     1
102
RTVSPost2010Prop41ColorIndex
 90
       18
102
RTVSPost2010Prop41ColorRGB
 90
        0
102
RTVSPost2010PropOp41
 70
     1
102
RTVSPost2010Prop42
 90
       50
102
RTVSPost2010PropOp42
 70
     1
102
RTVSPost2010Prop43
 90
        3
102
RTVSPost2010PropOp43
 70
     1
102
RTVSPost2010Prop44ColorIndex
 90
        5
102
RTVSPost2010Prop44ColorRGB
 90
      255
102
RTVSPost2010PropOp44
 70
     1
102
RTVSPost2010Prop45
280
     0
102
RTVSPost2010PropOp45
 70
     1
102
RTVSPost2010Prop46
 90
       50
102
RTVSPost2010PropOp46
 70
     1
102
RTVSPost2010Prop47
 90
       50
102
RTVSPost2010PropOp47
 70
     1
102
RTVSPost2010Prop48
 90
       50
102
RTVSPost2010PropOp48
 70
     1
102
RTVSPost2010Prop49
280
     0
102
RTVSPost2010PropOp49
 70
     1
102
RTVSPost2010Prop50
 90
       50
102
RTVSPost2010PropOp50
 70
     1
102
RTVSPost2010Prop51ColorIndex
 90
      256
102
RTVSPost2010Prop51ColorRGB
 90
-16777216
102
RTVSPost2010PropOp51
 70
     0
102
RTVSPost2010Prop52
140
1.0
102
RTVSPost2010PropOp52
 70
     0
102
RTVSPost2010Prop53
 90
        2
102
RTVSPost2010PropOp53
 70
     1
102
RTVSPost2010Prop54
  1
strokes_ogs.tif
102
RTVSPost2010PropOp54
 70
     1
102
RTVSPost2010Prop55
280
     0
102
RTVSPost2010PropOp55
 70
     1
102
RTVSPost2010Prop56
140
1.0
102
RTVSPost2010PropOp56
 70
     1
102
RTVSPost2010Prop57
140
1.0
102
RTVSPost2010PropOp57
 70
     1
  0
XRECORD
  5
91
102
{ACAD_REACTORS
330
90
102
}
330
90
100
AcDbXrecord
280
     1
102
RTVSPropertyOp0
 70
     1
102
RTVSPropertyOp1
 70
     1
102
RTVSPropertyOp2
 70
     1
102
RTVSPropertyOp3
 70
     1
102
RTVSPropertyOp4
 70
     1
102
RTVSPropertyOp5
 70
     1
102
RTVSPropertyOp6
 70
     1
102
RTVSPropertyOp7
 70
     1
102
RTVSPropertyOp8
 70
     1
102
RTVSPropertyOp9
 70
     1
102
RTVSPropertyOp10
 70
     1
102
RTVSPropertyOp11
 70
     1
102
RTVSPropertyOp12
 70
     1
102
RTVSPropertyOp13
 70
     1
102
RTVSPropertyOp14
 70
     1
102
RTVSPropertyOp15
 70
     1
102
RTVSPropertyOp16
 70
     1
102
RTVSPropertyOp17
 70
     1
102
RTVSPropertyOp18
 70
     1
102
RTVSPropertyOp19
 70
     1
102
RTVSPropertyOp20
 70
     1
102
RTVSPropertyOp21
 70
     1
102
RTVSPropertyOp22
 70
     1
102
RTVSPropertyOp23
 70
     1
102
RTVSPropertyOp24
 70
     1
102
RTVSPropertyOp25
 70
     1
102
RTVSPropertyOp26
 70
     1
102
RTVSPropertyOp27
 70
     1
102
RTVSPropertyOp28
 70
     1
102
RTVSPropertyOp29
 70
     1
102
RTVSPropertyOp30
 70
     1
102
RTVSPropertyOp31
 70
     1
102
RTVSPropertyOp32
 70
     1
102
RTVSPropertyOp33
 70
     1
102
RTVSPropertyOp34
 70
     1
102
RTVSPropertyOp35
 70
     1
102
RTVSPropertyOp36
 70
     1
102
RTVSPropertyOp37
 70
     1
102
RTVSPropertyOp38
 70
     1
102
RTVSPropertyOp39
 70
     1
102
RTVSPropertyOp40
 70
     1
102
RTVSPropertyOp41
 70
     1
102
RTVSPropertyOp42
 70
     1
102
RTVSPropertyOp43
 70
     1
102
RTVSPropertyOp44
 70
     1
102
RTVSPropertyOp45
 70
     1
102
RTVSPropertyOp46
 70
     1
102
RTVSPropertyOp47
 70
     1
102
RTVSPropertyOp48
 70
     1
102
RTVSPropertyOp49
 70
     1
102
RTVSPropertyOp50
 70
     1
102
RTVSPropertyOp51
 70
     0
102
RTVSPropertyOp52
 70
     0
102
RTVSPropertyOp53
 70
     1
102
RTVSPropertyOp54
 70
     1
102
RTVSPropertyOp55
 70
     1
102
RTVSPropertyOp56
 70
     1
102
RTVSPropertyOp57
 70
     1
102
RTVSPost2010Prop28
280
     0
102
RTVSPost2010PropOp28
 70
     1
102
RTVSPost2010Prop29
280
     1
102
RTVSPost2010PropOp29
 70
     1
102
RTVSPost2010Prop30
280
     1
102
RTVSPost2010PropOp30
 70
     1
102
RTVSPost2010Prop31
280
     0
102
RTVSPost2010PropOp31
 70
     1
102
RTVSPost2010Prop32
280
     0
102
RTVSPost2010PropOp32
 70
     1
102
RTVSPost2010Prop33
280
     0
102
RTVSPost2010PropOp33
 70
     1
102
RTVSPost2010Prop34
280
     0
102
RTVSPost2010PropOp34
 70
     1
102
RTVSPost2010Prop35
280
     0
102
RTVSPost2010PropOp35
 70
     1
102
RTVSPost2010Prop36
280
     0
102
RTVSPost2010PropOp36
 70
     1
102
RTVSPost2010Prop37
 90
       50
102
RTVSPost2010PropOp37
 70
     1
102
RTVSPost2010Prop38
140
0.0
102
RTVSPost2010PropOp38
 70
     1
102
RTVSPost2010Prop39
140
1.0
102
RTVSPost2010PropOp39
 70
     1
102
RTVSPost2010Prop40
 90
        0
102
RTVSPost2010PropOp40
 70
     1
102
RTVSPost2010Prop41ColorIndex
 90
       18
102
RTVSPost2010Prop41ColorRGB
 90
        0
102
RTVSPost2010PropOp41
 70
     1
102
RTVSPost2010Prop42
 90
       50
102
RTVSPost2010PropOp42
 70
     1
102
RTVSPost2010Prop43
 90
        3
102
RTVSPost2010PropOp43
 70
     1
102
RTVSPost2010Prop44ColorIndex
 90
        5
102
RTVSPost2010Prop44ColorRGB
 90
      255
102
RTVSPost2010PropOp44
 70
     1
102
RTVSPost2010Prop45
280
     0
102
RTVSPost2010PropOp45
 70
     1
102
RTVSPost2010Prop46
 90
       50
102
RTVSPost2010PropOp46
 70
     1
102
RTVSPost2010Prop47
 90
       50
102
RTVSPost2010PropOp47
 70
     1
102
RTVSPost2010Prop48
 90
       50
102
RTVSPost2010PropOp48
 70
     1
102
RTVSPost2010Prop49
280
     0
102
RTVSPost2010PropOp49
 70
     1
102
RTVSPost2010Prop50
 90
       50
102
RTVSPost2010PropOp50
 70
     1
102
RTVSPost2010Prop51ColorIndex
 90
      256
102
RTVSPost2010Prop51ColorRGB
 90
-16777216
102
RTVSPost2010PropOp51
 70
     0
102
RTVSPost2010Prop52
140
1.0
102
RTVSPost2010PropOp52
 70
     0
102
RTVSPost2010Prop53
 90
        2
102
RTVSPost2010PropOp53
 70
     1
102
RTVSPost2010Prop54
  1
strokes_ogs.tif
102
RTVSPost2010PropOp54
 70
     1
102
RTVSPost2010Prop55
280
     0
102
RTVSPost2010PropOp55
 70
     1
102
RTVSPost2010Prop56
140
1.0
102
RTVSPost2010PropOp56
 70
     1
102
RTVSPost2010Prop57
140
1.0
102
RTVSPost2010PropOp57
 70
     1
  0
XRECORD
  5
93
102
{ACAD_REACTORS
330
92
102
}
330
92
100
AcDbXrecord
280
     1
102
RTVSPropertyOp0
 70
     1
102
RTVSPropertyOp1
 70
     1
102
RTVSPropertyOp2
 70
     1
102
RTVSPropertyOp3
 70
     1
102
RTVSPropertyOp4
 70
     1
102
RTVSPropertyOp5
 70
     1
102
RTVSPropertyOp6
 70
     1
102
RTVSPropertyOp7
 70
     1
102
RTVSPropertyOp8
 70
     1
102
RTVSPropertyOp9
 70
     1
102
RTVSPropertyOp10
 70
     1
102
RTVSPropertyOp11
 70
     1
102
RTVSPropertyOp12
 70
     1
102
RTVSPropertyOp13
 70
     1
102
RTVSPropertyOp14
 70
     1
102
RTVSPropertyOp15
 70
     1
102
RTVSPropertyOp16
 70
     1
102
RTVSPropertyOp17
 70
     1
102
RTVSPropertyOp18
 70
     1
102
RTVSPropertyOp19
 70
     1
102
RTVSPropertyOp20
 70
     1
102
RTVSPropertyOp21
 70
     1
102
RTVSPropertyOp22
 70
     1
102
RTVSPropertyOp23
 70
     1
102
RTVSPropertyOp24
 70
     1
102
RTVSPropertyOp25
 70
     1
102
RTVSPropertyOp26
 70
     1
102
RTVSPropertyOp27
 70
     1
102
RTVSPropertyOp28
 70
     1
102
RTVSPropertyOp29
 70
     1
102
RTVSPropertyOp30
 70
     1
102
RTVSPropertyOp31
 70
     1
102
RTVSPropertyOp32
 70
     1
102
RTVSPropertyOp33
 70
     1
102
RTVSPropertyOp34
 70
     1
102
RTVSPropertyOp35
 70
     1
102
RTVSPropertyOp36
 70
     1
102
RTVSPropertyOp37
 70
     1
102
RTVSPropertyOp38
 70
     1
102
RTVSPropertyOp39
 70
     1
102
RTVSPropertyOp40
 70
     1
102
RTVSPropertyOp41
 70
     1
102
RTVSPropertyOp42
 70
     1
102
RTVSPropertyOp43
 70
     1
102
RTVSPropertyOp44
 70
     1
102
RTVSPropertyOp45
 70
     1
102
RTVSPropertyOp46
 70
     1
102
RTVSPropertyOp47
 70
     1
102
RTVSPropertyOp48
 70
     1
102
RTVSPropertyOp49
 70
     1
102
RTVSPropertyOp50
 70
     1
102
RTVSPropertyOp51
 70
     0
102
RTVSPropertyOp52
 70
     0
102
RTVSPropertyOp53
 70
     1
102
RTVSPropertyOp54
 70
     1
102
RTVSPropertyOp55
 70
     1
102
RTVSPropertyOp56
 70
     1
102
RTVSPropertyOp57
 70
     1
102
RTVSPost2010Prop28
280
     0
102
RTVSPost2010PropOp28
 70
     1
102
RTVSPost2010Prop29
280
     1
102
RTVSPost2010PropOp29
 70
     1
102
RTVSPost2010Prop30
280
     1
102
RTVSPost2010PropOp30
 70
     1
102
RTVSPost2010Prop31
280
     0
102
RTVSPost2010PropOp31
 70
     1
102
RTVSPost2010Prop32
280
     0
102
RTVSPost2010PropOp32
 70
     1
102
RTVSPost2010Prop33
280
     0
102
RTVSPost2010PropOp33
 70
     1
102
RTVSPost2010Prop34
280
     0
102
RTVSPost2010PropOp34
 70
     1
102
RTVSPost2010Prop35
280
     0
102
RTVSPost2010PropOp35
 70
     1
102
RTVSPost2010Prop36
280
     0
102
RTVSPost2010PropOp36
 70
     1
102
RTVSPost2010Prop37
 90
       50
102
RTVSPost2010PropOp37
 70
     1
102
RTVSPost2010Prop38
140
0.0
102
RTVSPost2010PropOp38
 70
     1
102
RTVSPost2010Prop39
140
1.0
102
RTVSPost2010PropOp39
 70
     1
102
RTVSPost2010Prop40
 90
        0
102
RTVSPost2010PropOp40
 70
     1
102
RTVSPost2010Prop41ColorIndex
 90
       18
102
RTVSPost2010Prop41ColorRGB
 90
        0
102
RTVSPost2010PropOp41
 70
     1
102
RTVSPost2010Prop42
 90
       50
102
RTVSPost2010PropOp42
 70
     1
102
RTVSPost2010Prop43
 90
        3
102
RTVSPost2010PropOp43
 70
     1
102
RTVSPost2010Prop44ColorIndex
 90
        5
102
RTVSPost2010Prop44ColorRGB
 90
      255
102
RTVSPost2010PropOp44
 70
     1
102
RTVSPost2010Prop45
280
     0
102
RTVSPost2010PropOp45
 70
     1
102
RTVSPost2010Prop46
 90
       50
102
RTVSPost2010PropOp46
 70
     1
102
RTVSPost2010Prop47
 90
       50
102
RTVSPost2010PropOp47
 70
     1
102
RTVSPost2010Prop48
 90
       50
102
RTVSPost2010PropOp48
 70
     1
102
RTVSPost2010Prop49
280
     0
102
RTVSPost2010PropOp49
 70
     1
102
RTVSPost2010Prop50
 90
       50
102
RTVSPost2010PropOp50
 70
     1
102
RTVSPost2010Prop51ColorIndex
 90
      256
102
RTVSPost2010Prop51ColorRGB
 90
-16777216
102
RTVSPost2010PropOp51
 70
     0
102
RTVSPost2010Prop52
140
1.0
102
RTVSPost2010PropOp52
 70
     0
102
RTVSPost2010Prop53
 90
        2
102
RTVSPost2010PropOp53
 70
     1
102
RTVSPost2010Prop54
  1
strokes_ogs.tif
102
RTVSPost2010PropOp54
 70
     1
102
RTVSPost2010Prop55
280
     0
102
RTVSPost2010PropOp55
 70
     1
102
RTVSPost2010Prop56
140
1.0
102
RTVSPost2010PropOp56
 70
     1
102
RTVSPost2010Prop57
140
1.0
102
RTVSPost2010PropOp57
 70
     1
  0
XRECORD
  5
95
102
{ACAD_REACTORS
330
94
102
}
330
94
100
AcDbXrecord
280
     1
102
RTVSPropertyOp0
 70
     1
102
RTVSPropertyOp1
 70
     1
102
RTVSPropertyOp2
 70
     1
102
RTVSPropertyOp3
 70
     1
102
RTVSPropertyOp4
 70
     1
102
RTVSPropertyOp5
 70
     1
102
RTVSPropertyOp6
 70
     1
102
RTVSPropertyOp7
 70
     1
102
RTVSPropertyOp8
 70
     1
102
RTVSPropertyOp9
 70
     1
102
RTVSPropertyOp10
 70
     1
102
RTVSPropertyOp11
 70
     1
102
RTVSPropertyOp12
 70
     1
102
RTVSPropertyOp13
 70
     1
102
RTVSPropertyOp14
 70
     1
102
RTVSPropertyOp15
 70
     1
102
RTVSPropertyOp16
 70
     1
102
RTVSPropertyOp17
 70
     1
102
RTVSPropertyOp18
 70
     1
102
RTVSPropertyOp19
 70
     1
102
RTVSPropertyOp20
 70
     1
102
RTVSPropertyOp21
 70
     1
102
RTVSPropertyOp22
 70
     1
102
RTVSPropertyOp23
 70
     1
102
RTVSPropertyOp24
 70
     1
102
RTVSPropertyOp25
 70
     1
102
RTVSPropertyOp26
 70
     1
102
RTVSPropertyOp27
 70
     1
102
RTVSPropertyOp28
 70
     1
102
RTVSPropertyOp29
 70
     1
102
RTVSPropertyOp30
 70
     1
102
RTVSPropertyOp31
 70
     1
102
RTVSPropertyOp32
 70
     1
102
RTVSPropertyOp33
 70
     1
102
RTVSPropertyOp34
 70
     1
102
RTVSPropertyOp35
 70
     1
102
RTVSPropertyOp36
 70
     1
102
RTVSPropertyOp37
 70
     1
102
RTVSPropertyOp38
 70
     1
102
RTVSPropertyOp39
 70
     1
102
RTVSPropertyOp40
 70
     1
102
RTVSPropertyOp41
 70
     1
102
RTVSPropertyOp42
 70
     1
102
RTVSPropertyOp43
 70
     1
102
RTVSPropertyOp44
 70
     1
102
RTVSPropertyOp45
 70
     1
102
RTVSPropertyOp46
 70
     1
102
RTVSPropertyOp47
 70
     1
102
RTVSPropertyOp48
 70
     1
102
RTVSPropertyOp49
 70
     1
102
RTVSPropertyOp50
 70
     1
102
RTVSPropertyOp51
 70
     0
102
RTVSPropertyOp52
 70
     0
102
RTVSPropertyOp53
 70
     1
102
RTVSPropertyOp54
 70
     1
102
RTVSPropertyOp55
 70
     1
102
RTVSPropertyOp56
 70
     1
102
RTVSPropertyOp57
 70
     1
102
RTVSPost2010Prop28
280
     0
102
RTVSPost2010PropOp28
 70
     1
102
RTVSPost2010Prop29
280
     1
102
RTVSPost2010PropOp29
 70
     1
102
RTVSPost2010Prop30
280
     1
102
RTVSPost2010PropOp30
 70
     1
102
RTVSPost2010Prop31
280
     0
102
RTVSPost2010PropOp31
 70
     1
102
RTVSPost2010Prop32
280
     0
102
RTVSPost2010PropOp32
 70
     1
102
RTVSPost2010Prop33
280
     0
102
RTVSPost2010PropOp33
 70
     1
102
RTVSPost2010Prop34
280
     0
102
RTVSPost2010PropOp34
 70
     1
102
RTVSPost2010Prop35
280
     0
102
RTVSPost2010PropOp35
 70
     1
102
RTVSPost2010Prop36
280
     0
102
RTVSPost2010PropOp36
 70
     1
102
RTVSPost2010Prop37
 90
       50
102
RTVSPost2010PropOp37
 70
     1
102
RTVSPost2010Prop38
140
0.0
102
RTVSPost2010PropOp38
 70
     1
102
RTVSPost2010Prop39
140
1.0
102
RTVSPost2010PropOp39
 70
     1
102
RTVSPost2010Prop40
 90
        0
102
RTVSPost2010PropOp40
 70
     1
102
RTVSPost2010Prop41ColorIndex
 90
       18
102
RTVSPost2010Prop41ColorRGB
 90
        0
102
RTVSPost2010PropOp41
 70
     1
102
RTVSPost2010Prop42
 90
       50
102
RTVSPost2010PropOp42
 70
     1
102
RTVSPost2010Prop43
 90
        3
102
RTVSPost2010PropOp43
 70
     1
102
RTVSPost2010Prop44ColorIndex
 90
        5
102
RTVSPost2010Prop44ColorRGB
 90
      255
102
RTVSPost2010PropOp44
 70
     1
102
RTVSPost2010Prop45
280
     0
102
RTVSPost2010PropOp45
 70
     1
102
RTVSPost2010Prop46
 90
       50
102
RTVSPost2010PropOp46
 70
     1
102
RTVSPost2010Prop47
 90
       50
102
RTVSPost2010PropOp47
 70
     1
102
RTVSPost2010Prop48
 90
       50
102
RTVSPost2010PropOp48
 70
     1
102
RTVSPost2010Prop49
280
     0
102
RTVSPost2010PropOp49
 70
     1
102
RTVSPost2010Prop50
 90
       50
102
RTVSPost2010PropOp50
 70
     1
102
RTVSPost2010Prop51ColorIndex
 90
      256
102
RTVSPost2010Prop51ColorRGB
 90
-16777216
102
RTVSPost2010PropOp51
 70
     0
102
RTVSPost2010Prop52
140
1.0
102
RTVSPost2010PropOp52
 70
     0
102
RTVSPost2010Prop53
 90
        2
102
RTVSPost2010PropOp53
 70
     1
102
RTVSPost2010Prop54
  1
strokes_ogs.tif
102
RTVSPost2010PropOp54
 70
     1
102
RTVSPost2010Prop55
280
     0
102
RTVSPost2010PropOp55
 70
     1
102
RTVSPost2010Prop56
140
1.0
102
RTVSPost2010PropOp56
 70
     1
102
RTVSPost2010Prop57
140
1.0
102
RTVSPost2010PropOp57
 70
     1
  0
XRECORD
  5
99
102
{ACAD_REACTORS
330
98
102
}
330
98
100
AcDbXrecord
280
     1
102
RTVSPropertyOp0
 70
     1
102
RTVSPropertyOp1
 70
     1
102
RTVSPropertyOp2
 70
     1
102
RTVSPropertyOp3
 70
     1
102
RTVSPropertyOp4
 70
     1
102
RTVSPropertyOp5
 70
     1
102
RTVSPropertyOp6
 70
     1
102
RTVSPropertyOp7
 70
     1
102
RTVSPropertyOp8
 70
     1
102
RTVSPropertyOp9
 70
     1
102
RTVSPropertyOp10
 70
     1
102
RTVSPropertyOp11
 70
     1
102
RTVSPropertyOp12
 70
     1
102
RTVSPropertyOp13
 70
     1
102
RTVSPropertyOp14
 70
     1
102
RTVSPropertyOp15
 70
     1
102
RTVSPropertyOp16
 70
     1
102
RTVSPropertyOp17
 70
     1
102
RTVSPropertyOp18
 70
     1
102
RTVSPropertyOp19
 70
     1
102
RTVSPropertyOp20
 70
     1
102
RTVSPropertyOp21
 70
     1
102
RTVSPropertyOp22
 70
     1
102
RTVSPropertyOp23
 70
     1
102
RTVSPropertyOp24
 70
     1
102
RTVSPropertyOp25
 70
     1
102
RTVSPropertyOp26
 70
     1
102
RTVSPropertyOp27
 70
     1
102
RTVSPropertyOp28
 70
     1
102
RTVSPropertyOp29
 70
     1
102
RTVSPropertyOp30
 70
     1
102
RTVSPropertyOp31
 70
     1
102
RTVSPropertyOp32
 70
     1
102
RTVSPropertyOp33
 70
     1
102
RTVSPropertyOp34
 70
     1
102
RTVSPropertyOp35
 70
     1
102
RTVSPropertyOp36
 70
     1
102
RTVSPropertyOp37
 70
     1
102
RTVSPropertyOp38
 70
     1
102
RTVSPropertyOp39
 70
     1
102
RTVSPropertyOp40
 70
     1
102
RTVSPropertyOp41
 70
     1
102
RTVSPropertyOp42
 70
     1
102
RTVSPropertyOp43
 70
     1
102
RTVSPropertyOp44
 70
     1
102
RTVSPropertyOp45
 70
     1
102
RTVSPropertyOp46
 70
     1
102
RTVSPropertyOp47
 70
     1
102
RTVSPropertyOp48
 70
     1
102
RTVSPropertyOp49
 70
     1
102
RTVSPropertyOp50
 70
     1
102
RTVSPropertyOp51
 70
     0
102
RTVSPropertyOp52
 70
     0
102
RTVSPropertyOp53
 70
     1
102
RTVSPropertyOp54
 70
     1
102
RTVSPropertyOp55
 70
     1
102
RTVSPropertyOp56
 70
     1
102
RTVSPropertyOp57
 70
     1
102
RTVSPost2010Prop28
280
     0
102
RTVSPost2010PropOp28
 70
     1
102
RTVSPost2010Prop29
280
     1
102
RTVSPost2010PropOp29
 70
     1
102
RTVSPost2010Prop30
280
     1
102
RTVSPost2010PropOp30
 70
     1
102
RTVSPost2010Prop31
280
     0
102
RTVSPost2010PropOp31
 70
     1
102
RTVSPost2010Prop32
280
     0
102
RTVSPost2010PropOp32
 70
     1
102
RTVSPost2010Prop33
280
     0
102
RTVSPost2010PropOp33
 70
     1
102
RTVSPost2010Prop34
280
     0
102
RTVSPost2010PropOp34
 70
     1
102
RTVSPost2010Prop35
280
     0
102
RTVSPost2010PropOp35
 70
     1
102
RTVSPost2010Prop36
280
     0
102
RTVSPost2010PropOp36
 70
     1
102
RTVSPost2010Prop37
 90
       50
102
RTVSPost2010PropOp37
 70
     1
102
RTVSPost2010Prop38
140
0.0
102
RTVSPost2010PropOp38
 70
     1
102
RTVSPost2010Prop39
140
1.0
102
RTVSPost2010PropOp39
 70
     1
102
RTVSPost2010Prop40
 90
        0
102
RTVSPost2010PropOp40
 70
     1
102
RTVSPost2010Prop41ColorIndex
 90
       18
102
RTVSPost2010Prop41ColorRGB
 90
        0
102
RTVSPost2010PropOp41
 70
     1
102
RTVSPost2010Prop42
 90
       50
102
RTVSPost2010PropOp42
 70
     1
102
RTVSPost2010Prop43
 90
        3
102
RTVSPost2010PropOp43
 70
     1
102
RTVSPost2010Prop44ColorIndex
 90
        5
102
RTVSPost2010Prop44ColorRGB
 90
      255
102
RTVSPost2010PropOp44
 70
     1
102
RTVSPost2010Prop45
280
     0
102
RTVSPost2010PropOp45
 70
     1
102
RTVSPost2010Prop46
 90
       50
102
RTVSPost2010PropOp46
 70
     1
102
RTVSPost2010Prop47
 90
       50
102
RTVSPost2010PropOp47
 70
     1
102
RTVSPost2010Prop48
 90
       50
102
RTVSPost2010PropOp48
 70
     1
102
RTVSPost2010Prop49
280
     0
102
RTVSPost2010PropOp49
 70
     1
102
RTVSPost2010Prop50
 90
       50
102
RTVSPost2010PropOp50
 70
     1
102
RTVSPost2010Prop51ColorIndex
 90
      256
102
RTVSPost2010Prop51ColorRGB
 90
-16777216
102
RTVSPost2010PropOp51
 70
     0
102
RTVSPost2010Prop52
140
1.0
102
RTVSPost2010PropOp52
 70
     0
102
RTVSPost2010Prop53
 90
        2
102
RTVSPost2010PropOp53
 70
     1
102
RTVSPost2010Prop54
  1
strokes_ogs.tif
102
RTVSPost2010PropOp54
 70
     1
102
RTVSPost2010Prop55
280
     0
102
RTVSPost2010PropOp55
 70
     1
102
RTVSPost2010Prop56
140
1.0
102
RTVSPost2010PropOp56
 70
     1
102
RTVSPost2010Prop57
140
1.0
102
RTVSPost2010PropOp57
 70
     1
  0
XRECORD
  5
AD
102
{ACAD_REACTORS
330
AC
102
}
330
AC
100
AcDbXrecord
280
     1
102
RTVSPropertyOp0
 70
     0
102
RTVSPropertyOp1
 70
     0
102
RTVSPropertyOp2
 70
     0
102
RTVSPropertyOp3
 70
     0
102
RTVSPropertyOp4
 70
     0
102
RTVSPropertyOp5
 70
     0
102
RTVSPropertyOp6
 70
     0
102
RTVSPropertyOp7
 70
     0
102
RTVSPropertyOp8
 70
     0
102
RTVSPropertyOp9
 70
     0
102
RTVSPropertyOp10
 70
     0
102
RTVSPropertyOp11
 70
     0
102
RTVSPropertyOp12
 70
     0
102
RTVSPropertyOp13
 70
     0
102
RTVSPropertyOp14
 70
     2
102
RTVSPropertyOp15
 70
     0
102
RTVSPropertyOp16
 70
     0
102
RTVSPropertyOp17
 70
     0
102
RTVSPropertyOp18
 70
     0
102
RTVSPropertyOp19
 70
     0
102
RTVSPropertyOp20
 70
     0
102
RTVSPropertyOp21
 70
     0
102
RTVSPropertyOp22
 70
     0
102
RTVSPropertyOp23
 70
     0
102
RTVSPropertyOp24
 70
     0
102
RTVSPropertyOp25
 70
     0
102
RTVSPropertyOp26
 70
     0
102
RTVSPropertyOp27
 70
     0
102
RTVSPropertyOp28
 70
     0
102
RTVSPropertyOp29
 70
     0
102
RTVSPropertyOp30
 70
     0
102
RTVSPropertyOp31
 70
     0
102
RTVSPropertyOp32
 70
     0
102
RTVSPropertyOp33
 70
     0
102
RTVSPropertyOp34
 70
     0
102
RTVSPropertyOp35
 70
     0
102
RTVSPropertyOp36
 70
     0
102
RTVSPropertyOp37
 70
     0
102
RTVSPropertyOp38
 70
     0
102
RTVSPropertyOp39
 70
     0
102
RTVSPropertyOp40
 70
     0
102
RTVSPropertyOp41
 70
     0
102
RTVSPropertyOp42
 70
     0
102
RTVSPropertyOp43
 70
     0
102
RTVSPropertyOp44
 70
     0
102
RTVSPropertyOp45
 70
     0
102
RTVSPropertyOp46
 70
     0
102
RTVSPropertyOp47
 70
     0
102
RTVSPropertyOp48
 70
     0
102
RTVSPropertyOp49
 70
     0
102
RTVSPropertyOp50
 70
     0
102
RTVSPropertyOp51
 70
     0
102
RTVSPropertyOp52
 70
     0
102
RTVSPropertyOp53
 70
     0
102
RTVSPropertyOp54
 70
     0
102
RTVSPropertyOp55
 70
     0
102
RTVSPropertyOp56
 70
     0
102
RTVSPropertyOp57
 70
     0
102
RTVSPost2010Prop28
280
     0
102
RTVSPost2010PropOp28
 70
     0
102
RTVSPost2010Prop29
280
     1
102
RTVSPost2010PropOp29
 70
     0
102
RTVSPost2010Prop30
280
     1
102
RTVSPost2010PropOp30
 70
     0
102
RTVSPost2010Prop31
280
     0
102
RTVSPost2010PropOp31
 70
     0
102
RTVSPost2010Prop32
280
     0
102
RTVSPost2010PropOp32
 70
     0
102
RTVSPost2010Prop33
280
     0
102
RTVSPost2010PropOp33
 70
     0
102
RTVSPost2010Prop34
280
     0
102
RTVSPost2010PropOp34
 70
     0
102
RTVSPost2010Prop35
280
     0
102
RTVSPost2010PropOp35
 70
     0
102
RTVSPost2010Prop36
280
     0
102
RTVSPost2010PropOp36
 70
     0
102
RTVSPost2010Prop37
 90
       50
102
RTVSPost2010PropOp37
 70
     0
102
RTVSPost2010Prop38
140
0.0
102
RTVSPost2010PropOp38
 70
     0
102
RTVSPost2010Prop39
140
1.0
102
RTVSPost2010PropOp39
 70
     0
102
RTVSPost2010Prop40
 90
        0
102
RTVSPost2010PropOp40
 70
     0
102
RTVSPost2010Prop41ColorIndex
 90
       18
102
RTVSPost2010Prop41ColorRGB
 90
        0
102
RTVSPost2010PropOp41
 70
     0
102
RTVSPost2010Prop42
 90
       50
102
RTVSPost2010PropOp42
 70
     0
102
RTVSPost2010Prop43
 90
        3
102
RTVSPost2010PropOp43
 70
     0
102
RTVSPost2010Prop44ColorIndex
 90
        5
102
RTVSPost2010Prop44ColorRGB
 90
      255
102
RTVSPost2010PropOp44
 70
     0
102
RTVSPost2010Prop45
280
     0
102
RTVSPost2010PropOp45
 70
     0
102
RTVSPost2010Prop46
 90
       50
102
RTVSPost2010PropOp46
 70
     0
102
RTVSPost2010Prop47
 90
       50
102
RTVSPost2010PropOp47
 70
     0
102
RTVSPost2010Prop48
 90
       50
102
RTVSPost2010PropOp48
 70
     0
102
RTVSPost2010Prop49
280
     0
102
RTVSPost2010PropOp49
 70
     0
102
RTVSPost2010Prop50
 90
       50
102
RTVSPost2010PropOp50
 70
     0
102
RTVSPost2010Prop51ColorIndex
 90
      256
102
RTVSPost2010Prop51ColorRGB
 90
-16777216
102
RTVSPost2010PropOp51
 70
     0
102
RTVSPost2010Prop52
140
1.0
102
RTVSPost2010PropOp52
 70
     0
102
RTVSPost2010Prop53
 90
        2
102
RTVSPost2010PropOp53
 70
     0
102
RTVSPost2010Prop54
  1
strokes_ogs.tif
102
RTVSPost2010PropOp54
 70
     0
102
RTVSPost2010Prop55
280
     0
102
RTVSPost2010PropOp55
 70
     0
102
RTVSPost2010Prop56
140
1.0
102
RTVSPost2010PropOp56
 70
     0
102
RTVSPost2010Prop57
140
1.0
102
RTVSPost2010PropOp57
 70
     0
  0
XRECORD
  5
A7
102
{ACAD_REACTORS
330
A6
102
}
330
A6
100
AcDbXrecord
280
     1
102
RTVSPropertyOp0
 70
     1
102
RTVSPropertyOp1
 70
     1
102
RTVSPropertyOp2
 70
     1
102
RTVSPropertyOp3
 70
     1
102
RTVSPropertyOp4
 70
     1
102
RTVSPropertyOp5
 70
     1
102
RTVSPropertyOp6
 70
     1
102
RTVSPropertyOp7
 70
     1
102
RTVSPropertyOp8
 70
     1
102
RTVSPropertyOp9
 70
     1
102
RTVSPropertyOp10
 70
     1
102
RTVSPropertyOp11
 70
     1
102
RTVSPropertyOp12
 70
     1
102
RTVSPropertyOp13
 70
     1
102
RTVSPropertyOp14
 70
     1
102
RTVSPropertyOp15
 70
     1
102
RTVSPropertyOp16
 70
     1
102
RTVSPropertyOp17
 70
     1
102
RTVSPropertyOp18
 70
     1
102
RTVSPropertyOp19
 70
     1
102
RTVSPropertyOp20
 70
     1
102
RTVSPropertyOp21
 70
     1
102
RTVSPropertyOp22
 70
     1
102
RTVSPropertyOp23
 70
     1
102
RTVSPropertyOp24
 70
     1
102
RTVSPropertyOp25
 70
     1
102
RTVSPropertyOp26
 70
     1
102
RTVSPropertyOp27
 70
     1
102
RTVSPropertyOp28
 70
     1
102
RTVSPropertyOp29
 70
     1
102
RTVSPropertyOp30
 70
     1
102
RTVSPropertyOp31
 70
     1
102
RTVSPropertyOp32
 70
     1
102
RTVSPropertyOp33
 70
     1
102
RTVSPropertyOp34
 70
     1
102
RTVSPropertyOp35
 70
     1
102
RTVSPropertyOp36
 70
     1
102
RTVSPropertyOp37
 70
     1
102
RTVSPropertyOp38
 70
     1
102
RTVSPropertyOp39
 70
     1
102
RTVSPropertyOp40
 70
     1
102
RTVSPropertyOp41
 70
     1
102
RTVSPropertyOp42
 70
     1
102
RTVSPropertyOp43
 70
     1
102
RTVSPropertyOp44
 70
     1
102
RTVSPropertyOp45
 70
     1
102
RTVSPropertyOp46
 70
     1
102
RTVSPropertyOp47
 70
     1
102
RTVSPropertyOp48
 70
     1
102
RTVSPropertyOp49
 70
     1
102
RTVSPropertyOp50
 70
     1
102
RTVSPropertyOp51
 70
     0
102
RTVSPropertyOp52
 70
     0
102
RTVSPropertyOp53
 70
     1
102
RTVSPropertyOp54
 70
     1
102
RTVSPropertyOp55
 70
     1
102
RTVSPropertyOp56
 70
     1
102
RTVSPropertyOp57
 70
     1
102
RTVSPost2010Prop28
280
     0
102
RTVSPost2010PropOp28
 70
     1
102
RTVSPost2010Prop29
280
     1
102
RTVSPost2010PropOp29
 70
     1
102
RTVSPost2010Prop30
280
     1
102
RTVSPost2010PropOp30
 70
     1
102
RTVSPost2010Prop31
280
     0
102
RTVSPost2010PropOp31
 70
     1
102
RTVSPost2010Prop32
280
     0
102
RTVSPost2010PropOp32
 70
     1
102
RTVSPost2010Prop33
280
     0
102
RTVSPost2010PropOp33
 70
     1
102
RTVSPost2010Prop34
280
     0
102
RTVSPost2010PropOp34
 70
     1
102
RTVSPost2010Prop35
280
     0
102
RTVSPost2010PropOp35
 70
     1
102
RTVSPost2010Prop36
280
     0
102
RTVSPost2010PropOp36
 70
     1
102
RTVSPost2010Prop37
 90
       50
102
RTVSPost2010PropOp37
 70
     1
102
RTVSPost2010Prop38
140
0.0
102
RTVSPost2010PropOp38
 70
     1
102
RTVSPost2010Prop39
140
1.0
102
RTVSPost2010PropOp39
 70
     1
102
RTVSPost2010Prop40
 90
        0
102
RTVSPost2010PropOp40
 70
     1
102
RTVSPost2010Prop41ColorIndex
 90
       18
102
RTVSPost2010Prop41ColorRGB
 90
        0
102
RTVSPost2010PropOp41
 70
     1
102
RTVSPost2010Prop42
 90
       50
102
RTVSPost2010PropOp42
 70
     1
102
RTVSPost2010Prop43
 90
        3
102
RTVSPost2010PropOp43
 70
     1
102
RTVSPost2010Prop44ColorIndex
 90
        5
102
RTVSPost2010Prop44ColorRGB
 90
      255
102
RTVSPost2010PropOp44
 70
     1
102
RTVSPost2010Prop45
280
     0
102
RTVSPost2010PropOp45
 70
     1
102
RTVSPost2010Prop46
 90
       50
102
RTVSPost2010PropOp46
 70
     1
102
RTVSPost2010Prop47
 90
       50
102
RTVSPost2010PropOp47
 70
     1
102
RTVSPost2010Prop48
 90
       50
102
RTVSPost2010PropOp48
 70
     1
102
RTVSPost2010Prop49
280
     0
102
RTVSPost2010PropOp49
 70
     1
102
RTVSPost2010Prop50
 90
       50
102
RTVSPost2010PropOp50
 70
     1
102
RTVSPost2010Prop51ColorIndex
 90
      256
102
RTVSPost2010Prop51ColorRGB
 90
-16777216
102
RTVSPost2010PropOp51
 70
     0
102
RTVSPost2010Prop52
140
1.0
102
RTVSPost2010PropOp52
 70
     0
102
RTVSPost2010Prop53
 90
        2
102
RTVSPost2010PropOp53
 70
     1
102
RTVSPost2010Prop54
  1
strokes_ogs.tif
102
RTVSPost2010PropOp54
 70
     1
102
RTVSPost2010Prop55
280
     0
102
RTVSPost2010PropOp55
 70
     1
102
RTVSPost2010Prop56
140
1.0
102
RTVSPost2010PropOp56
 70
     1
102
RTVSPost2010Prop57
140
1.0
102
RTVSPost2010PropOp57
 70
     1
  0
XRECORD
  5
AF
102
{ACAD_REACTORS
330
AE
102
}
330
AE
100
AcDbXrecord
280
     1
102
RTVSPropertyOp0
 70
     0
102
RTVSPropertyOp1
 70
     0
102
RTVSPropertyOp2
 70
     0
102
RTVSPropertyOp3
 70
     0
102
RTVSPropertyOp4
 70
     0
102
RTVSPropertyOp5
 70
     0
102
RTVSPropertyOp6
 70
     0
102
RTVSPropertyOp7
 70
     0
102
RTVSPropertyOp8
 70
     0
102
RTVSPropertyOp9
 70
     0
102
RTVSPropertyOp10
 70
     0
102
RTVSPropertyOp11
 70
     0
102
RTVSPropertyOp12
 70
     0
102
RTVSPropertyOp13
 70
     0
102
RTVSPropertyOp14
 70
     2
102
RTVSPropertyOp15
 70
     0
102
RTVSPropertyOp16
 70
     0
102
RTVSPropertyOp17
 70
     0
102
RTVSPropertyOp18
 70
     0
102
RTVSPropertyOp19
 70
     0
102
RTVSPropertyOp20
 70
     0
102
RTVSPropertyOp21
 70
     0
102
RTVSPropertyOp22
 70
     0
102
RTVSPropertyOp23
 70
     0
102
RTVSPropertyOp24
 70
     0
102
RTVSPropertyOp25
 70
     0
102
RTVSPropertyOp26
 70
     0
102
RTVSPropertyOp27
 70
     0
102
RTVSPropertyOp28
 70
     0
102
RTVSPropertyOp29
 70
     0
102
RTVSPropertyOp30
 70
     0
102
RTVSPropertyOp31
 70
     0
102
RTVSPropertyOp32
 70
     0
102
RTVSPropertyOp33
 70
     0
102
RTVSPropertyOp34
 70
     0
102
RTVSPropertyOp35
 70
     0
102
RTVSPropertyOp36
 70
     0
102
RTVSPropertyOp37
 70
     0
102
RTVSPropertyOp38
 70
     0
102
RTVSPropertyOp39
 70
     0
102
RTVSPropertyOp40
 70
     0
102
RTVSPropertyOp41
 70
     0
102
RTVSPropertyOp42
 70
     0
102
RTVSPropertyOp43
 70
     0
102
RTVSPropertyOp44
 70
     0
102
RTVSPropertyOp45
 70
     0
102
RTVSPropertyOp46
 70
     0
102
RTVSPropertyOp47
 70
     0
102
RTVSPropertyOp48
 70
     0
102
RTVSPropertyOp49
 70
     0
102
RTVSPropertyOp50
 70
     0
102
RTVSPropertyOp51
 70
     0
102
RTVSPropertyOp52
 70
     0
102
RTVSPropertyOp53
 70
     0
102
RTVSPropertyOp54
 70
     0
102
RTVSPropertyOp55
 70
     0
102
RTVSPropertyOp56
 70
     0
102
RTVSPropertyOp57
 70
     0
102
RTVSPost2010Prop28
280
     0
102
RTVSPost2010PropOp28
 70
     0
102
RTVSPost2010Prop29
280
     1
102
RTVSPost2010PropOp29
 70
     0
102
RTVSPost2010Prop30
280
     1
102
RTVSPost2010PropOp30
 70
     0
102
RTVSPost2010Prop31
280
     0
102
RTVSPost2010PropOp31
 70
     0
102
RTVSPost2010Prop32
280
     0
102
RTVSPost2010PropOp32
 70
     0
102
RTVSPost2010Prop33
280
     0
102
RTVSPost2010PropOp33
 70
     0
102
RTVSPost2010Prop34
280
     0
102
RTVSPost2010PropOp34
 70
     0
102
RTVSPost2010Prop35
280
     0
102
RTVSPost2010PropOp35
 70
     0
102
RTVSPost2010Prop36
280
     0
102
RTVSPost2010PropOp36
 70
     0
102
RTVSPost2010Prop37
 90
       50
102
RTVSPost2010PropOp37
 70
     0
102
RTVSPost2010Prop38
140
0.0
102
RTVSPost2010PropOp38
 70
     0
102
RTVSPost2010Prop39
140
1.0
102
RTVSPost2010PropOp39
 70
     0
102
RTVSPost2010Prop40
 90
        0
102
RTVSPost2010PropOp40
 70
     0
102
RTVSPost2010Prop41ColorIndex
 90
       18
102
RTVSPost2010Prop41ColorRGB
 90
        0
102
RTVSPost2010PropOp41
 70
     0
102
RTVSPost2010Prop42
 90
       50
102
RTVSPost2010PropOp42
 70
     0
102
RTVSPost2010Prop43
 90
        3
102
RTVSPost2010PropOp43
 70
     0
102
RTVSPost2010Prop44ColorIndex
 90
        5
102
RTVSPost2010Prop44ColorRGB
 90
      255
102
RTVSPost2010PropOp44
 70
     0
102
RTVSPost2010Prop45
280
     0
102
RTVSPost2010PropOp45
 70
     0
102
RTVSPost2010Prop46
 90
       50
102
RTVSPost2010PropOp46
 70
     0
102
RTVSPost2010Prop47
 90
       50
102
RTVSPost2010PropOp47
 70
     0
102
RTVSPost2010Prop48
 90
       50
102
RTVSPost2010PropOp48
 70
     0
102
RTVSPost2010Prop49
280
     0
102
RTVSPost2010PropOp49
 70
     0
102
RTVSPost2010Prop50
 90
       50
102
RTVSPost2010PropOp50
 70
     0
102
RTVSPost2010Prop51ColorIndex
 90
      256
102
RTVSPost2010Prop51ColorRGB
 90
-16777216
102
RTVSPost2010PropOp51
 70
     0
102
RTVSPost2010Prop52
140
1.0
102
RTVSPost2010PropOp52
 70
     0
102
RTVSPost2010Prop53
 90
        2
102
RTVSPost2010PropOp53
 70
     0
102
RTVSPost2010Prop54
  1
strokes_ogs.tif
102
RTVSPost2010PropOp54
 70
     0
102
RTVSPost2010Prop55
280
     0
102
RTVSPost2010PropOp55
 70
     0
102
RTVSPost2010Prop56
140
1.0
102
RTVSPost2010PropOp56
 70
     0
102
RTVSPost2010Prop57
140
1.0
102
RTVSPost2010PropOp57
 70
     0
  0
XRECORD
  5
9D
102
{ACAD_REACTORS
330
9C
102
}
330
9C
100
AcDbXrecord
280
     1
102
RTVSPropertyOp0
 70
     1
102
RTVSPropertyOp1
 70
     1
102
RTVSPropertyOp2
 70
     1
102
RTVSPropertyOp3
 70
     1
102
RTVSPropertyOp4
 70
     1
102
RTVSPropertyOp5
 70
     1
102
RTVSPropertyOp6
 70
     1
102
RTVSPropertyOp7
 70
     1
102
RTVSPropertyOp8
 70
     1
102
RTVSPropertyOp9
 70
     1
102
RTVSPropertyOp10
 70
     1
102
RTVSPropertyOp11
 70
     1
102
RTVSPropertyOp12
 70
     1
102
RTVSPropertyOp13
 70
     1
102
RTVSPropertyOp14
 70
     1
102
RTVSPropertyOp15
 70
     1
102
RTVSPropertyOp16
 70
     1
102
RTVSPropertyOp17
 70
     1
102
RTVSPropertyOp18
 70
     1
102
RTVSPropertyOp19
 70
     1
102
RTVSPropertyOp20
 70
     1
102
RTVSPropertyOp21
 70
     1
102
RTVSPropertyOp22
 70
     1
102
RTVSPropertyOp23
 70
     1
102
RTVSPropertyOp24
 70
     1
102
RTVSPropertyOp25
 70
     1
102
RTVSPropertyOp26
 70
     1
102
RTVSPropertyOp27
 70
     1
102
RTVSPropertyOp28
 70
     1
102
RTVSPropertyOp29
 70
     1
102
RTVSPropertyOp30
 70
     1
102
RTVSPropertyOp31
 70
     1
102
RTVSPropertyOp32
 70
     1
102
RTVSPropertyOp33
 70
     1
102
RTVSPropertyOp34
 70
     1
102
RTVSPropertyOp35
 70
     1
102
RTVSPropertyOp36
 70
     1
102
RTVSPropertyOp37
 70
     1
102
RTVSPropertyOp38
 70
     1
102
RTVSPropertyOp39
 70
     1
102
RTVSPropertyOp40
 70
     1
102
RTVSPropertyOp41
 70
     1
102
RTVSPropertyOp42
 70
     1
102
RTVSPropertyOp43
 70
     1
102
RTVSPropertyOp44
 70
     1
102
RTVSPropertyOp45
 70
     1
102
RTVSPropertyOp46
 70
     1
102
RTVSPropertyOp47
 70
     1
102
RTVSPropertyOp48
 70
     1
102
RTVSPropertyOp49
 70
     1
102
RTVSPropertyOp50
 70
     1
102
RTVSPropertyOp51
 70
     0
102
RTVSPropertyOp52
 70
     0
102
RTVSPropertyOp53
 70
     1
102
RTVSPropertyOp54
 70
     1
102
RTVSPropertyOp55
 70
     1
102
RTVSPropertyOp56
 70
     1
102
RTVSPropertyOp57
 70
     1
102
RTVSPost2010Prop28
280
     0
102
RTVSPost2010PropOp28
 70
     1
102
RTVSPost2010Prop29
280
     1
102
RTVSPost2010PropOp29
 70
     1
102
RTVSPost2010Prop30
280
     1
102
RTVSPost2010PropOp30
 70
     1
102
RTVSPost2010Prop31
280
     0
102
RTVSPost2010PropOp31
 70
     1
102
RTVSPost2010Prop32
280
     0
102
RTVSPost2010PropOp32
 70
     1
102
RTVSPost2010Prop33
280
     0
102
RTVSPost2010PropOp33
 70
     1
102
RTVSPost2010Prop34
280
     0
102
RTVSPost2010PropOp34
 70
     1
102
RTVSPost2010Prop35
280
     0
102
RTVSPost2010PropOp35
 70
     1
102
RTVSPost2010Prop36
280
     0
102
RTVSPost2010PropOp36
 70
     1
102
RTVSPost2010Prop37
 90
       50
102
RTVSPost2010PropOp37
 70
     1
102
RTVSPost2010Prop38
140
0.0
102
RTVSPost2010PropOp38
 70
     1
102
RTVSPost2010Prop39
140
1.0
102
RTVSPost2010PropOp39
 70
     1
102
RTVSPost2010Prop40
 90
        0
102
RTVSPost2010PropOp40
 70
     1
102
RTVSPost2010Prop41ColorIndex
 90
       18
102
RTVSPost2010Prop41ColorRGB
 90
        0
102
RTVSPost2010PropOp41
 70
     1
102
RTVSPost2010Prop42
 90
       50
102
RTVSPost2010PropOp42
 70
     1
102
RTVSPost2010Prop43
 90
        3
102
RTVSPost2010PropOp43
 70
     1
102
RTVSPost2010Prop44ColorIndex
 90
        5
102
RTVSPost2010Prop44ColorRGB
 90
      255
102
RTVSPost2010PropOp44
 70
     1
102
RTVSPost2010Prop45
280
     0
102
RTVSPost2010PropOp45
 70
     1
102
RTVSPost2010Prop46
 90
       50
102
RTVSPost2010PropOp46
 70
     1
102
RTVSPost2010Prop47
 90
       50
102
RTVSPost2010PropOp47
 70
     1
102
RTVSPost2010Prop48
 90
       50
102
RTVSPost2010PropOp48
 70
     1
102
RTVSPost2010Prop49
280
     0
102
RTVSPost2010PropOp49
 70
     1
102
RTVSPost2010Prop50
 90
       50
102
RTVSPost2010PropOp50
 70
     1
102
RTVSPost2010Prop51ColorIndex
 90
      256
102
RTVSPost2010Prop51ColorRGB
 90
-16777216
102
RTVSPost2010PropOp51
 70
     0
102
RTVSPost2010Prop52
140
1.0
102
RTVSPost2010PropOp52
 70
     0
102
RTVSPost2010Prop53
 90
        2
102
RTVSPost2010PropOp53
 70
     1
102
RTVSPost2010Prop54
  1
strokes_ogs.tif
102
RTVSPost2010PropOp54
 70
     1
102
RTVSPost2010Prop55
280
     0
102
RTVSPost2010PropOp55
 70
     1
102
RTVSPost2010Prop56
140
1.0
102
RTVSPost2010PropOp56
 70
     1
102
RTVSPost2010Prop57
140
1.0
102
RTVSPost2010PropOp57
 70
     1
  0
XRECORD
  5
BB
102
{ACAD_REACTORS
330
BA
102
}
330
BA
100
AcDbXrecord
280
     1
102
RTVSPropertyOp0
 70
     1
102
RTVSPropertyOp1
 70
     1
102
RTVSPropertyOp2
 70
     1
102
RTVSPropertyOp3
 70
     1
102
RTVSPropertyOp4
 70
     1
102
RTVSPropertyOp5
 70
     1
102
RTVSPropertyOp6
 70
     1
102
RTVSPropertyOp7
 70
     1
102
RTVSPropertyOp8
 70
     1
102
RTVSPropertyOp9
 70
     1
102
RTVSPropertyOp10
 70
     1
102
RTVSPropertyOp11
 70
     1
102
RTVSPropertyOp12
 70
     1
102
RTVSPropertyOp13
 70
     1
102
RTVSPropertyOp14
 70
     1
102
RTVSPropertyOp15
 70
     1
102
RTVSPropertyOp16
 70
     1
102
RTVSPropertyOp17
 70
     1
102
RTVSPropertyOp18
 70
     1
102
RTVSPropertyOp19
 70
     1
102
RTVSPropertyOp20
 70
     1
102
RTVSPropertyOp21
 70
     1
102
RTVSPropertyOp22
 70
     1
102
RTVSPropertyOp23
 70
     1
102
RTVSPropertyOp24
 70
     1
102
RTVSPropertyOp25
 70
     1
102
RTVSPropertyOp26
 70
     1
102
RTVSPropertyOp27
 70
     1
102
RTVSPropertyOp28
 70
     1
102
RTVSPropertyOp29
 70
     1
102
RTVSPropertyOp30
 70
     1
102
RTVSPropertyOp31
 70
     1
102
RTVSPropertyOp32
 70
     1
102
RTVSPropertyOp33
 70
     1
102
RTVSPropertyOp34
 70
     1
102
RTVSPropertyOp35
 70
     1
102
RTVSPropertyOp36
 70
     1
102
RTVSPropertyOp37
 70
     1
102
RTVSPropertyOp38
 70
     1
102
RTVSPropertyOp39
 70
     1
102
RTVSPropertyOp40
 70
     1
102
RTVSPropertyOp41
 70
     1
102
RTVSPropertyOp42
 70
     1
102
RTVSPropertyOp43
 70
     1
102
RTVSPropertyOp44
 70
     1
102
RTVSPropertyOp45
 70
     1
102
RTVSPropertyOp46
 70
     1
102
RTVSPropertyOp47
 70
     1
102
RTVSPropertyOp48
 70
     1
102
RTVSPropertyOp49
 70
     1
102
RTVSPropertyOp50
 70
     1
102
RTVSPropertyOp51
 70
     0
102
RTVSPropertyOp52
 70
     0
102
RTVSPropertyOp53
 70
     1
102
RTVSPropertyOp54
 70
     1
102
RTVSPropertyOp55
 70
     1
102
RTVSPropertyOp56
 70
     1
102
RTVSPropertyOp57
 70
     1
102
RTVSPost2010Prop28
280
     0
102
RTVSPost2010PropOp28
 70
     1
102
RTVSPost2010Prop29
280
     1
102
RTVSPost2010PropOp29
 70
     1
102
RTVSPost2010Prop30
280
     1
102
RTVSPost2010PropOp30
 70
     1
102
RTVSPost2010Prop31
280
     0
102
RTVSPost2010PropOp31
 70
     1
102
RTVSPost2010Prop32
280
     0
102
RTVSPost2010PropOp32
 70
     1
102
RTVSPost2010Prop33
280
     0
102
RTVSPost2010PropOp33
 70
     1
102
RTVSPost2010Prop34
280
     0
102
RTVSPost2010PropOp34
 70
     1
102
RTVSPost2010Prop35
280
     0
102
RTVSPost2010PropOp35
 70
     1
102
RTVSPost2010Prop36
280
     0
102
RTVSPost2010PropOp36
 70
     1
102
RTVSPost2010Prop37
 90
       50
102
RTVSPost2010PropOp37
 70
     1
102
RTVSPost2010Prop38
140
0.0
102
RTVSPost2010PropOp38
 70
     1
102
RTVSPost2010Prop39
140
1.0
102
RTVSPost2010PropOp39
 70
     1
102
RTVSPost2010Prop40
 90
        0
102
RTVSPost2010PropOp40
 70
     1
102
RTVSPost2010Prop41ColorIndex
 90
       18
102
RTVSPost2010Prop41ColorRGB
 90
        0
102
RTVSPost2010PropOp41
 70
     1
102
RTVSPost2010Prop42
 90
       50
102
RTVSPost2010PropOp42
 70
     1
102
RTVSPost2010Prop43
 90
        3
102
RTVSPost2010PropOp43
 70
     1
102
RTVSPost2010Prop44ColorIndex
 90
        5
102
RTVSPost2010Prop44ColorRGB
 90
      255
102
RTVSPost2010PropOp44
 70
     1
102
RTVSPost2010Prop45
280
     0
102
RTVSPost2010PropOp45
 70
     1
102
RTVSPost2010Prop46
 90
       50
102
RTVSPost2010PropOp46
 70
     1
102
RTVSPost2010Prop47
 90
       50
102
RTVSPost2010PropOp47
 70
     1
102
RTVSPost2010Prop48
 90
       50
102
RTVSPost2010PropOp48
 70
     1
102
RTVSPost2010Prop49
280
     0
102
RTVSPost2010PropOp49
 70
     1
102
RTVSPost2010Prop50
 90
       50
102
RTVSPost2010PropOp50
 70
     1
102
RTVSPost2010Prop51ColorIndex
 90
      256
102
RTVSPost2010Prop51ColorRGB
 90
-16777216
102
RTVSPost2010PropOp51
 70
     0
102
RTVSPost2010Prop52
140
1.0
102
RTVSPost2010PropOp52
 70
     0
102
RTVSPost2010Prop53
 90
        2
102
RTVSPost2010PropOp53
 70
     1
102
RTVSPost2010Prop54
  1
strokes_ogs.tif
102
RTVSPost2010PropOp54
 70
     1
102
RTVSPost2010Prop55
280
     0
102
RTVSPost2010PropOp55
 70
     1
102
RTVSPost2010Prop56
140
1.0
102
RTVSPost2010PropOp56
 70
     1
102
RTVSPost2010Prop57
140
1.0
102
RTVSPost2010PropOp57
 70
     1
  0
XRECORD
  5
B9
102
{ACAD_REACTORS
330
B8
102
}
330
B8
100
AcDbXrecord
280
     1
102
RTVSPropertyOp0
 70
     1
102
RTVSPropertyOp1
 70
     1
102
RTVSPropertyOp2
 70
     1
102
RTVSPropertyOp3
 70
     1
102
RTVSPropertyOp4
 70
     1
102
RTVSPropertyOp5
 70
     1
102
RTVSPropertyOp6
 70
     1
102
RTVSPropertyOp7
 70
     1
102
RTVSPropertyOp8
 70
     1
102
RTVSPropertyOp9
 70
     1
102
RTVSPropertyOp10
 70
     1
102
RTVSPropertyOp11
 70
     1
102
RTVSPropertyOp12
 70
     1
102
RTVSPropertyOp13
 70
     1
102
RTVSPropertyOp14
 70
     1
102
RTVSPropertyOp15
 70
     1
102
RTVSPropertyOp16
 70
     1
102
RTVSPropertyOp17
 70
     1
102
RTVSPropertyOp18
 70
     1
102
RTVSPropertyOp19
 70
     1
102
RTVSPropertyOp20
 70
     1
102
RTVSPropertyOp21
 70
     1
102
RTVSPropertyOp22
 70
     1
102
RTVSPropertyOp23
 70
     1
102
RTVSPropertyOp24
 70
     1
102
RTVSPropertyOp25
 70
     1
102
RTVSPropertyOp26
 70
     1
102
RTVSPropertyOp27
 70
     1
102
RTVSPropertyOp28
 70
     1
102
RTVSPropertyOp29
 70
     1
102
RTVSPropertyOp30
 70
     1
102
RTVSPropertyOp31
 70
     1
102
RTVSPropertyOp32
 70
     1
102
RTVSPropertyOp33
 70
     1
102
RTVSPropertyOp34
 70
     1
102
RTVSPropertyOp35
 70
     1
102
RTVSPropertyOp36
 70
     1
102
RTVSPropertyOp37
 70
     1
102
RTVSPropertyOp38
 70
     1
102
RTVSPropertyOp39
 70
     1
102
RTVSPropertyOp40
 70
     1
102
RTVSPropertyOp41
 70
     1
102
RTVSPropertyOp42
 70
     1
102
RTVSPropertyOp43
 70
     1
102
RTVSPropertyOp44
 70
     1
102
RTVSPropertyOp45
 70
     1
102
RTVSPropertyOp46
 70
     1
102
RTVSPropertyOp47
 70
     1
102
RTVSPropertyOp48
 70
     1
102
RTVSPropertyOp49
 70
     1
102
RTVSPropertyOp50
 70
     1
102
RTVSPropertyOp51
 70
     0
102
RTVSPropertyOp52
 70
     0
102
RTVSPropertyOp53
 70
     1
102
RTVSPropertyOp54
 70
     1
102
RTVSPropertyOp55
 70
     1
102
RTVSPropertyOp56
 70
     1
102
RTVSPropertyOp57
 70
     1
102
RTVSPost2010Prop28
280
     0
102
RTVSPost2010PropOp28
 70
     1
102
RTVSPost2010Prop29
280
     1
102
RTVSPost2010PropOp29
 70
     1
102
RTVSPost2010Prop30
280
     1
102
RTVSPost2010PropOp30
 70
     1
102
RTVSPost2010Prop31
280
     0
102
RTVSPost2010PropOp31
 70
     1
102
RTVSPost2010Prop32
280
     0
102
RTVSPost2010PropOp32
 70
     1
102
RTVSPost2010Prop33
280
     0
102
RTVSPost2010PropOp33
 70
     1
102
RTVSPost2010Prop34
280
     0
102
RTVSPost2010PropOp34
 70
     1
102
RTVSPost2010Prop35
280
     0
102
RTVSPost2010PropOp35
 70
     1
102
RTVSPost2010Prop36
280
     0
102
RTVSPost2010PropOp36
 70
     1
102
RTVSPost2010Prop37
 90
       50
102
RTVSPost2010PropOp37
 70
     1
102
RTVSPost2010Prop38
140
0.0
102
RTVSPost2010PropOp38
 70
     1
102
RTVSPost2010Prop39
140
1.0
102
RTVSPost2010PropOp39
 70
     1
102
RTVSPost2010Prop40
 90
        0
102
RTVSPost2010PropOp40
 70
     1
102
RTVSPost2010Prop41ColorIndex
 90
       18
102
RTVSPost2010Prop41ColorRGB
 90
        0
102
RTVSPost2010PropOp41
 70
     1
102
RTVSPost2010Prop42
 90
       50
102
RTVSPost2010PropOp42
 70
     1
102
RTVSPost2010Prop43
 90
        3
102
RTVSPost2010PropOp43
 70
     1
102
RTVSPost2010Prop44ColorIndex
 90
        5
102
RTVSPost2010Prop44ColorRGB
 90
      255
102
RTVSPost2010PropOp44
 70
     1
102
RTVSPost2010Prop45
280
     0
102
RTVSPost2010PropOp45
 70
     1
102
RTVSPost2010Prop46
 90
       50
102
RTVSPost2010PropOp46
 70
     1
102
RTVSPost2010Prop47
 90
       50
102
RTVSPost2010PropOp47
 70
     1
102
RTVSPost2010Prop48
 90
       50
102
RTVSPost2010PropOp48
 70
     1
102
RTVSPost2010Prop49
280
     0
102
RTVSPost2010PropOp49
 70
     1
102
RTVSPost2010Prop50
 90
       50
102
RTVSPost2010PropOp50
 70
     1
102
RTVSPost2010Prop51ColorIndex
 90
      256
102
RTVSPost2010Prop51ColorRGB
 90
-16777216
102
RTVSPost2010PropOp51
 70
     0
102
RTVSPost2010Prop52
140
1.0
102
RTVSPost2010PropOp52
 70
     0
102
RTVSPost2010Prop53
 90
        2
102
RTVSPost2010PropOp53
 70
     1
102
RTVSPost2010Prop54
  1
strokes_ogs.tif
102
RTVSPost2010PropOp54
 70
     1
102
RTVSPost2010Prop55
280
     0
102
RTVSPost2010PropOp55
 70
     1
102
RTVSPost2010Prop56
140
1.0
102
RTVSPost2010PropOp56
 70
     1
102
RTVSPost2010Prop57
140
1.0
102
RTVSPost2010PropOp57
 70
     1
  0
XRECORD
  5
B3
102
{ACAD_REACTORS
330
B2
102
}
330
B2
100
AcDbXrecord
280
     1
102
RTVSPropertyOp0
 70
     1
102
RTVSPropertyOp1
 70
     1
102
RTVSPropertyOp2
 70
     1
102
RTVSPropertyOp3
 70
     1
102
RTVSPropertyOp4
 70
     1
102
RTVSPropertyOp5
 70
     1
102
RTVSPropertyOp6
 70
     1
102
RTVSPropertyOp7
 70
     1
102
RTVSPropertyOp8
 70
     1
102
RTVSPropertyOp9
 70
     1
102
RTVSPropertyOp10
 70
     1
102
RTVSPropertyOp11
 70
     1
102
RTVSPropertyOp12
 70
     1
102
RTVSPropertyOp13
 70
     1
102
RTVSPropertyOp14
 70
     1
102
RTVSPropertyOp15
 70
     1
102
RTVSPropertyOp16
 70
     1
102
RTVSPropertyOp17
 70
     1
102
RTVSPropertyOp18
 70
     1
102
RTVSPropertyOp19
 70
     1
102
RTVSPropertyOp20
 70
     1
102
RTVSPropertyOp21
 70
     1
102
RTVSPropertyOp22
 70
     1
102
RTVSPropertyOp23
 70
     1
102
RTVSPropertyOp24
 70
     1
102
RTVSPropertyOp25
 70
     1
102
RTVSPropertyOp26
 70
     1
102
RTVSPropertyOp27
 70
     1
102
RTVSPropertyOp28
 70
     1
102
RTVSPropertyOp29
 70
     1
102
RTVSPropertyOp30
 70
     1
102
RTVSPropertyOp31
 70
     1
102
RTVSPropertyOp32
 70
     1
102
RTVSPropertyOp33
 70
     1
102
RTVSPropertyOp34
 70
     1
102
RTVSPropertyOp35
 70
     1
102
RTVSPropertyOp36
 70
     1
102
RTVSPropertyOp37
 70
     1
102
RTVSPropertyOp38
 70
     1
102
RTVSPropertyOp39
 70
     1
102
RTVSPropertyOp40
 70
     1
102
RTVSPropertyOp41
 70
     1
102
RTVSPropertyOp42
 70
     1
102
RTVSPropertyOp43
 70
     1
102
RTVSPropertyOp44
 70
     1
102
RTVSPropertyOp45
 70
     1
102
RTVSPropertyOp46
 70
     1
102
RTVSPropertyOp47
 70
     1
102
RTVSPropertyOp48
 70
     1
102
RTVSPropertyOp49
 70
     1
102
RTVSPropertyOp50
 70
     1
102
RTVSPropertyOp51
 70
     0
102
RTVSPropertyOp52
 70
     0
102
RTVSPropertyOp53
 70
     1
102
RTVSPropertyOp54
 70
     1
102
RTVSPropertyOp55
 70
     1
102
RTVSPropertyOp56
 70
     1
102
RTVSPropertyOp57
 70
     1
102
RTVSPost2010Prop28
280
     0
102
RTVSPost2010PropOp28
 70
     1
102
RTVSPost2010Prop29
280
     1
102
RTVSPost2010PropOp29
 70
     1
102
RTVSPost2010Prop30
280
     1
102
RTVSPost2010PropOp30
 70
     1
102
RTVSPost2010Prop31
280
     0
102
RTVSPost2010PropOp31
 70
     1
102
RTVSPost2010Prop32
280
     0
102
RTVSPost2010PropOp32
 70
     1
102
RTVSPost2010Prop33
280
     0
102
RTVSPost2010PropOp33
 70
     1
102
RTVSPost2010Prop34
280
     0
102
RTVSPost2010PropOp34
 70
     1
102
RTVSPost2010Prop35
280
     0
102
RTVSPost2010PropOp35
 70
     1
102
RTVSPost2010Prop36
280
     0
102
RTVSPost2010PropOp36
 70
     1
102
RTVSPost2010Prop37
 90
       50
102
RTVSPost2010PropOp37
 70
     1
102
RTVSPost2010Prop38
140
0.0
102
RTVSPost2010PropOp38
 70
     1
102
RTVSPost2010Prop39
140
1.0
102
RTVSPost2010PropOp39
 70
     1
102
RTVSPost2010Prop40
 90
        0
102
RTVSPost2010PropOp40
 70
     1
102
RTVSPost2010Prop41ColorIndex
 90
       18
102
RTVSPost2010Prop41ColorRGB
 90
        0
102
RTVSPost2010PropOp41
 70
     1
102
RTVSPost2010Prop42
 90
       50
102
RTVSPost2010PropOp42
 70
     1
102
RTVSPost2010Prop43
 90
        3
102
RTVSPost2010PropOp43
 70
     1
102
RTVSPost2010Prop44ColorIndex
 90
        5
102
RTVSPost2010Prop44ColorRGB
 90
      255
102
RTVSPost2010PropOp44
 70
     1
102
RTVSPost2010Prop45
280
     0
102
RTVSPost2010PropOp45
 70
     1
102
RTVSPost2010Prop46
 90
       50
102
RTVSPost2010PropOp46
 70
     1
102
RTVSPost2010Prop47
 90
       50
102
RTVSPost2010PropOp47
 70
     1
102
RTVSPost2010Prop48
 90
       50
102
RTVSPost2010PropOp48
 70
     1
102
RTVSPost2010Prop49
280
     0
102
RTVSPost2010PropOp49
 70
     1
102
RTVSPost2010Prop50
 90
       50
102
RTVSPost2010PropOp50
 70
     1
102
RTVSPost2010Prop51ColorIndex
 90
      256
102
RTVSPost2010Prop51ColorRGB
 90
-16777216
102
RTVSPost2010PropOp51
 70
     0
102
RTVSPost2010Prop52
140
1.0
102
RTVSPost2010PropOp52
 70
     0
102
RTVSPost2010Prop53
 90
        2
102
RTVSPost2010PropOp53
 70
     1
102
RTVSPost2010Prop54
  1
strokes_ogs.tif
102
RTVSPost2010PropOp54
 70
     1
102
RTVSPost2010Prop55
280
     0
102
RTVSPost2010PropOp55
 70
     1
102
RTVSPost2010Prop56
140
1.0
102
RTVSPost2010PropOp56
 70
     1
102
RTVSPost2010Prop57
140
1.0
102
RTVSPost2010PropOp57
 70
     1
  0
XRECORD
  5
B5
102
{ACAD_REACTORS
330
B4
102
}
330
B4
100
AcDbXrecord
280
     1
102
RTVSPropertyOp0
 70
     1
102
RTVSPropertyOp1
 70
     1
102
RTVSPropertyOp2
 70
     1
102
RTVSPropertyOp3
 70
     1
102
RTVSPropertyOp4
 70
     1
102
RTVSPropertyOp5
 70
     1
102
RTVSPropertyOp6
 70
     1
102
RTVSPropertyOp7
 70
     1
102
RTVSPropertyOp8
 70
     1
102
RTVSPropertyOp9
 70
     1
102
RTVSPropertyOp10
 70
     1
102
RTVSPropertyOp11
 70
     1
102
RTVSPropertyOp12
 70
     1
102
RTVSPropertyOp13
 70
     1
102
RTVSPropertyOp14
 70
     1
102
RTVSPropertyOp15
 70
     1
102
RTVSPropertyOp16
 70
     1
102
RTVSPropertyOp17
 70
     1
102
RTVSPropertyOp18
 70
     1
102
RTVSPropertyOp19
 70
     1
102
RTVSPropertyOp20
 70
     1
102
RTVSPropertyOp21
 70
     1
102
RTVSPropertyOp22
 70
     1
102
RTVSPropertyOp23
 70
     1
102
RTVSPropertyOp24
 70
     1
102
RTVSPropertyOp25
 70
     1
102
RTVSPropertyOp26
 70
     1
102
RTVSPropertyOp27
 70
     1
102
RTVSPropertyOp28
 70
     1
102
RTVSPropertyOp29
 70
     1
102
RTVSPropertyOp30
 70
     1
102
RTVSPropertyOp31
 70
     1
102
RTVSPropertyOp32
 70
     1
102
RTVSPropertyOp33
 70
     1
102
RTVSPropertyOp34
 70
     1
102
RTVSPropertyOp35
 70
     1
102
RTVSPropertyOp36
 70
     1
102
RTVSPropertyOp37
 70
     1
102
RTVSPropertyOp38
 70
     1
102
RTVSPropertyOp39
 70
     1
102
RTVSPropertyOp40
 70
     1
102
RTVSPropertyOp41
 70
     1
102
RTVSPropertyOp42
 70
     1
102
RTVSPropertyOp43
 70
     1
102
RTVSPropertyOp44
 70
     1
102
RTVSPropertyOp45
 70
     1
102
RTVSPropertyOp46
 70
     1
102
RTVSPropertyOp47
 70
     1
102
RTVSPropertyOp48
 70
     1
102
RTVSPropertyOp49
 70
     1
102
RTVSPropertyOp50
 70
     1
102
RTVSPropertyOp51
 70
     0
102
RTVSPropertyOp52
 70
     0
102
RTVSPropertyOp53
 70
     1
102
RTVSPropertyOp54
 70
     1
102
RTVSPropertyOp55
 70
     1
102
RTVSPropertyOp56
 70
     1
102
RTVSPropertyOp57
 70
     1
102
RTVSPost2010Prop28
280
     0
102
RTVSPost2010PropOp28
 70
     1
102
RTVSPost2010Prop29
280
     1
102
RTVSPost2010PropOp29
 70
     1
102
RTVSPost2010Prop30
280
     1
102
RTVSPost2010PropOp30
 70
     1
102
RTVSPost2010Prop31
280
     0
102
RTVSPost2010PropOp31
 70
     1
102
RTVSPost2010Prop32
280
     0
102
RTVSPost2010PropOp32
 70
     1
102
RTVSPost2010Prop33
280
     0
102
RTVSPost2010PropOp33
 70
     1
102
RTVSPost2010Prop34
280
     0
102
RTVSPost2010PropOp34
 70
     1
102
RTVSPost2010Prop35
280
     0
102
RTVSPost2010PropOp35
 70
     1
102
RTVSPost2010Prop36
280
     0
102
RTVSPost2010PropOp36
 70
     1
102
RTVSPost2010Prop37
 90
       50
102
RTVSPost2010PropOp37
 70
     1
102
RTVSPost2010Prop38
140
0.0
102
RTVSPost2010PropOp38
 70
     1
102
RTVSPost2010Prop39
140
1.0
102
RTVSPost2010PropOp39
 70
     1
102
RTVSPost2010Prop40
 90
        0
102
RTVSPost2010PropOp40
 70
     1
102
RTVSPost2010Prop41ColorIndex
 90
       18
102
RTVSPost2010Prop41ColorRGB
 90
        0
102
RTVSPost2010PropOp41
 70
     1
102
RTVSPost2010Prop42
 90
       50
102
RTVSPost2010PropOp42
 70
     1
102
RTVSPost2010Prop43
 90
        3
102
RTVSPost2010PropOp43
 70
     1
102
RTVSPost2010Prop44ColorIndex
 90
        5
102
RTVSPost2010Prop44ColorRGB
 90
      255
102
RTVSPost2010PropOp44
 70
     1
102
RTVSPost2010Prop45
280
     0
102
RTVSPost2010PropOp45
 70
     1
102
RTVSPost2010Prop46
 90
       50
102
RTVSPost2010PropOp46
 70
     1
102
RTVSPost2010Prop47
 90
       50
102
RTVSPost2010PropOp47
 70
     1
102
RTVSPost2010Prop48
 90
       50
102
RTVSPost2010PropOp48
 70
     1
102
RTVSPost2010Prop49
280
     0
102
RTVSPost2010PropOp49
 70
     1
102
RTVSPost2010Prop50
 90
       50
102
RTVSPost2010PropOp50
 70
     1
102
RTVSPost2010Prop51ColorIndex
 90
      256
102
RTVSPost2010Prop51ColorRGB
 90
-16777216
102
RTVSPost2010PropOp51
 70
     0
102
RTVSPost2010Prop52
140
1.0
102
RTVSPost2010PropOp52
 70
     0
102
RTVSPost2010Prop53
 90
        2
102
RTVSPost2010PropOp53
 70
     1
102
RTVSPost2010Prop54
  1
strokes_ogs.tif
102
RTVSPost2010PropOp54
 70
     1
102
RTVSPost2010Prop55
280
     0
102
RTVSPost2010PropOp55
 70
     1
102
RTVSPost2010Prop56
140
1.0
102
RTVSPost2010PropOp56
 70
     1
102
RTVSPost2010Prop57
140
1.0
102
RTVSPost2010PropOp57
 70
     1
  0
XRECORD
  5
A5
102
{ACAD_REACTORS
330
A4
102
}
330
A4
100
AcDbXrecord
280
     1
102
RTVSPropertyOp0
 70
     1
102
RTVSPropertyOp1
 70
     1
102
RTVSPropertyOp2
 70
     1
102
RTVSPropertyOp3
 70
     1
102
RTVSPropertyOp4
 70
     1
102
RTVSPropertyOp5
 70
     1
102
RTVSPropertyOp6
 70
     1
102
RTVSPropertyOp7
 70
     1
102
RTVSPropertyOp8
 70
     1
102
RTVSPropertyOp9
 70
     1
102
RTVSPropertyOp10
 70
     1
102
RTVSPropertyOp11
 70
     1
102
RTVSPropertyOp12
 70
     1
102
RTVSPropertyOp13
 70
     1
102
RTVSPropertyOp14
 70
     1
102
RTVSPropertyOp15
 70
     1
102
RTVSPropertyOp16
 70
     1
102
RTVSPropertyOp17
 70
     1
102
RTVSPropertyOp18
 70
     1
102
RTVSPropertyOp19
 70
     1
102
RTVSPropertyOp20
 70
     1
102
RTVSPropertyOp21
 70
     1
102
RTVSPropertyOp22
 70
     1
102
RTVSPropertyOp23
 70
     1
102
RTVSPropertyOp24
 70
     1
102
RTVSPropertyOp25
 70
     1
102
RTVSPropertyOp26
 70
     1
102
RTVSPropertyOp27
 70
     1
102
RTVSPropertyOp28
 70
     1
102
RTVSPropertyOp29
 70
     1
102
RTVSPropertyOp30
 70
     1
102
RTVSPropertyOp31
 70
     1
102
RTVSPropertyOp32
 70
     1
102
RTVSPropertyOp33
 70
     1
102
RTVSPropertyOp34
 70
     1
102
RTVSPropertyOp35
 70
     1
102
RTVSPropertyOp36
 70
     1
102
RTVSPropertyOp37
 70
     1
102
RTVSPropertyOp38
 70
     1
102
RTVSPropertyOp39
 70
     1
102
RTVSPropertyOp40
 70
     1
102
RTVSPropertyOp41
 70
     1
102
RTVSPropertyOp42
 70
     1
102
RTVSPropertyOp43
 70
     1
102
RTVSPropertyOp44
 70
     1
102
RTVSPropertyOp45
 70
     1
102
RTVSPropertyOp46
 70
     1
102
RTVSPropertyOp47
 70
     1
102
RTVSPropertyOp48
 70
     1
102
RTVSPropertyOp49
 70
     1
102
RTVSPropertyOp50
 70
     1
102
RTVSPropertyOp51
 70
     0
102
RTVSPropertyOp52
 70
     0
102
RTVSPropertyOp53
 70
     1
102
RTVSPropertyOp54
 70
     1
102
RTVSPropertyOp55
 70
     1
102
RTVSPropertyOp56
 70
     1
102
RTVSPropertyOp57
 70
     1
102
RTVSPost2010Prop28
280
     0
102
RTVSPost2010PropOp28
 70
     1
102
RTVSPost2010Prop29
280
     1
102
RTVSPost2010PropOp29
 70
     1
102
RTVSPost2010Prop30
280
     1
102
RTVSPost2010PropOp30
 70
     1
102
RTVSPost2010Prop31
280
     0
102
RTVSPost2010PropOp31
 70
     1
102
RTVSPost2010Prop32
280
     0
102
RTVSPost2010PropOp32
 70
     1
102
RTVSPost2010Prop33
280
     0
102
RTVSPost2010PropOp33
 70
     1
102
RTVSPost2010Prop34
280
     0
102
RTVSPost2010PropOp34
 70
     1
102
RTVSPost2010Prop35
280
     0
102
RTVSPost2010PropOp35
 70
     1
102
RTVSPost2010Prop36
280
     0
102
RTVSPost2010PropOp36
 70
     1
102
RTVSPost2010Prop37
 90
       50
102
RTVSPost2010PropOp37
 70
     1
102
RTVSPost2010Prop38
140
0.0
102
RTVSPost2010PropOp38
 70
     1
102
RTVSPost2010Prop39
140
1.0
102
RTVSPost2010PropOp39
 70
     1
102
RTVSPost2010Prop40
 90
        0
102
RTVSPost2010PropOp40
 70
     1
102
RTVSPost2010Prop41ColorIndex
 90
       18
102
RTVSPost2010Prop41ColorRGB
 90
        0
102
RTVSPost2010PropOp41
 70
     1
102
RTVSPost2010Prop42
 90
       50
102
RTVSPost2010PropOp42
 70
     1
102
RTVSPost2010Prop43
 90
        3
102
RTVSPost2010PropOp43
 70
     1
102
RTVSPost2010Prop44ColorIndex
 90
        5
102
RTVSPost2010Prop44ColorRGB
 90
      255
102
RTVSPost2010PropOp44
 70
     1
102
RTVSPost2010Prop45
280
     0
102
RTVSPost2010PropOp45
 70
     1
102
RTVSPost2010Prop46
 90
       50
102
RTVSPost2010PropOp46
 70
     1
102
RTVSPost2010Prop47
 90
       50
102
RTVSPost2010PropOp47
 70
     1
102
RTVSPost2010Prop48
 90
       50
102
RTVSPost2010PropOp48
 70
     1
102
RTVSPost2010Prop49
280
     0
102
RTVSPost2010PropOp49
 70
     1
102
RTVSPost2010Prop50
 90
       50
102
RTVSPost2010PropOp50
 70
     1
102
RTVSPost2010Prop51ColorIndex
 90
      256
102
RTVSPost2010Prop51ColorRGB
 90
-16777216
102
RTVSPost2010PropOp51
 70
     0
102
RTVSPost2010Prop52
140
1.0
102
RTVSPost2010PropOp52
 70
     0
102
RTVSPost2010Prop53
 90
        2
102
RTVSPost2010PropOp53
 70
     1
102
RTVSPost2010Prop54
  1
strokes_ogs.tif
102
RTVSPost2010PropOp54
 70
     1
102
RTVSPost2010Prop55
280
     0
102
RTVSPost2010PropOp55
 70
     1
102
RTVSPost2010Prop56
140
1.0
102
RTVSPost2010PropOp56
 70
     1
102
RTVSPost2010Prop57
140
1.0
102
RTVSPost2010PropOp57
 70
     1
  0
XRECORD
  5
97
102
{ACAD_REACTORS
330
96
102
}
330
96
100
AcDbXrecord
280
     1
102
RTVSPropertyOp0
 70
     1
102
RTVSPropertyOp1
 70
     1
102
RTVSPropertyOp2
 70
     1
102
RTVSPropertyOp3
 70
     1
102
RTVSPropertyOp4
 70
     1
102
RTVSPropertyOp5
 70
     1
102
RTVSPropertyOp6
 70
     1
102
RTVSPropertyOp7
 70
     1
102
RTVSPropertyOp8
 70
     1
102
RTVSPropertyOp9
 70
     1
102
RTVSPropertyOp10
 70
     1
102
RTVSPropertyOp11
 70
     1
102
RTVSPropertyOp12
 70
     1
102
RTVSPropertyOp13
 70
     1
102
RTVSPropertyOp14
 70
     1
102
RTVSPropertyOp15
 70
     1
102
RTVSPropertyOp16
 70
     1
102
RTVSPropertyOp17
 70
     1
102
RTVSPropertyOp18
 70
     1
102
RTVSPropertyOp19
 70
     1
102
RTVSPropertyOp20
 70
     1
102
RTVSPropertyOp21
 70
     1
102
RTVSPropertyOp22
 70
     1
102
RTVSPropertyOp23
 70
     1
102
RTVSPropertyOp24
 70
     1
102
RTVSPropertyOp25
 70
     1
102
RTVSPropertyOp26
 70
     1
102
RTVSPropertyOp27
 70
     1
102
RTVSPropertyOp28
 70
     1
102
RTVSPropertyOp29
 70
     1
102
RTVSPropertyOp30
 70
     1
102
RTVSPropertyOp31
 70
     1
102
RTVSPropertyOp32
 70
     1
102
RTVSPropertyOp33
 70
     1
102
RTVSPropertyOp34
 70
     1
102
RTVSPropertyOp35
 70
     1
102
RTVSPropertyOp36
 70
     1
102
RTVSPropertyOp37
 70
     1
102
RTVSPropertyOp38
 70
     1
102
RTVSPropertyOp39
 70
     1
102
RTVSPropertyOp40
 70
     1
102
RTVSPropertyOp41
 70
     1
102
RTVSPropertyOp42
 70
     1
102
RTVSPropertyOp43
 70
     1
102
RTVSPropertyOp44
 70
     1
102
RTVSPropertyOp45
 70
     1
102
RTVSPropertyOp46
 70
     1
102
RTVSPropertyOp47
 70
     1
102
RTVSPropertyOp48
 70
     1
102
RTVSPropertyOp49
 70
     1
102
RTVSPropertyOp50
 70
     1
102
RTVSPropertyOp51
 70
     0
102
RTVSPropertyOp52
 70
     0
102
RTVSPropertyOp53
 70
     1
102
RTVSPropertyOp54
 70
     1
102
RTVSPropertyOp55
 70
     1
102
RTVSPropertyOp56
 70
     1
102
RTVSPropertyOp57
 70
     1
102
RTVSPost2010Prop28
280
     0
102
RTVSPost2010PropOp28
 70
     1
102
RTVSPost2010Prop29
280
     1
102
RTVSPost2010PropOp29
 70
     1
102
RTVSPost2010Prop30
280
     1
102
RTVSPost2010PropOp30
 70
     1
102
RTVSPost2010Prop31
280
     0
102
RTVSPost2010PropOp31
 70
     1
102
RTVSPost2010Prop32
280
     0
102
RTVSPost2010PropOp32
 70
     1
102
RTVSPost2010Prop33
280
     0
102
RTVSPost2010PropOp33
 70
     1
102
RTVSPost2010Prop34
280
     0
102
RTVSPost2010PropOp34
 70
     1
102
RTVSPost2010Prop35
280
     0
102
RTVSPost2010PropOp35
 70
     1
102
RTVSPost2010Prop36
280
     0
102
RTVSPost2010PropOp36
 70
     1
102
RTVSPost2010Prop37
 90
       50
102
RTVSPost2010PropOp37
 70
     1
102
RTVSPost2010Prop38
140
0.0
102
RTVSPost2010PropOp38
 70
     1
102
RTVSPost2010Prop39
140
1.0
102
RTVSPost2010PropOp39
 70
     1
102
RTVSPost2010Prop40
 90
        0
102
RTVSPost2010PropOp40
 70
     1
102
RTVSPost2010Prop41ColorIndex
 90
       18
102
RTVSPost2010Prop41ColorRGB
 90
        0
102
RTVSPost2010PropOp41
 70
     1
102
RTVSPost2010Prop42
 90
       50
102
RTVSPost2010PropOp42
 70
     1
102
RTVSPost2010Prop43
 90
        3
102
RTVSPost2010PropOp43
 70
     1
102
RTVSPost2010Prop44ColorIndex
 90
        5
102
RTVSPost2010Prop44ColorRGB
 90
      255
102
RTVSPost2010PropOp44
 70
     1
102
RTVSPost2010Prop45
280
     0
102
RTVSPost2010PropOp45
 70
     1
102
RTVSPost2010Prop46
 90
       50
102
RTVSPost2010PropOp46
 70
     1
102
RTVSPost2010Prop47
 90
       50
102
RTVSPost2010PropOp47
 70
     1
102
RTVSPost2010Prop48
 90
       50
102
RTVSPost2010PropOp48
 70
     1
102
RTVSPost2010Prop49
280
     0
102
RTVSPost2010PropOp49
 70
     1
102
RTVSPost2010Prop50
 90
       50
102
RTVSPost2010PropOp50
 70
     1
102
RTVSPost2010Prop51ColorIndex
 90
      256
102
RTVSPost2010Prop51ColorRGB
 90
-16777216
102
RTVSPost2010PropOp51
 70
     0
102
RTVSPost2010Prop52
140
1.0
102
RTVSPost2010PropOp52
 70
     0
102
RTVSPost2010Prop53
 90
        2
102
RTVSPost2010PropOp53
 70
     1
102
RTVSPost2010Prop54
  1
strokes_ogs.tif
102
RTVSPost2010PropOp54
 70
     1
102
RTVSPost2010Prop55
280
     0
102
RTVSPost2010PropOp55
 70
     1
102
RTVSPost2010Prop56
140
1.0
102
RTVSPost2010PropOp56
 70
     1
102
RTVSPost2010Prop57
140
1.0
102
RTVSPost2010PropOp57
 70
     1
  0
XRECORD
  5
B7
102
{ACAD_REACTORS
330
B6
102
}
330
B6
100
AcDbXrecord
280
     1
102
RTVSPropertyOp0
 70
     1
102
RTVSPropertyOp1
 70
     1
102
RTVSPropertyOp2
 70
     1
102
RTVSPropertyOp3
 70
     1
102
RTVSPropertyOp4
 70
     1
102
RTVSPropertyOp5
 70
     1
102
RTVSPropertyOp6
 70
     1
102
RTVSPropertyOp7
 70
     1
102
RTVSPropertyOp8
 70
     1
102
RTVSPropertyOp9
 70
     1
102
RTVSPropertyOp10
 70
     1
102
RTVSPropertyOp11
 70
     1
102
RTVSPropertyOp12
 70
     1
102
RTVSPropertyOp13
 70
     1
102
RTVSPropertyOp14
 70
     1
102
RTVSPropertyOp15
 70
     1
102
RTVSPropertyOp16
 70
     1
102
RTVSPropertyOp17
 70
     1
102
RTVSPropertyOp18
 70
     1
102
RTVSPropertyOp19
 70
     1
102
RTVSPropertyOp20
 70
     1
102
RTVSPropertyOp21
 70
     1
102
RTVSPropertyOp22
 70
     1
102
RTVSPropertyOp23
 70
     1
102
RTVSPropertyOp24
 70
     1
102
RTVSPropertyOp25
 70
     1
102
RTVSPropertyOp26
 70
     1
102
RTVSPropertyOp27
 70
     1
102
RTVSPropertyOp28
 70
     1
102
RTVSPropertyOp29
 70
     1
102
RTVSPropertyOp30
 70
     1
102
RTVSPropertyOp31
 70
     1
102
RTVSPropertyOp32
 70
     1
102
RTVSPropertyOp33
 70
     1
102
RTVSPropertyOp34
 70
     1
102
RTVSPropertyOp35
 70
     1
102
RTVSPropertyOp36
 70
     1
102
RTVSPropertyOp37
 70
     1
102
RTVSPropertyOp38
 70
     1
102
RTVSPropertyOp39
 70
     1
102
RTVSPropertyOp40
 70
     1
102
RTVSPropertyOp41
 70
     1
102
RTVSPropertyOp42
 70
     1
102
RTVSPropertyOp43
 70
     1
102
RTVSPropertyOp44
 70
     1
102
RTVSPropertyOp45
 70
     1
102
RTVSPropertyOp46
 70
     1
102
RTVSPropertyOp47
 70
     1
102
RTVSPropertyOp48
 70
     1
102
RTVSPropertyOp49
 70
     1
102
RTVSPropertyOp50
 70
     1
102
RTVSPropertyOp51
 70
     0
102
RTVSPropertyOp52
 70
     0
102
RTVSPropertyOp53
 70
     1
102
RTVSPropertyOp54
 70
     1
102
RTVSPropertyOp55
 70
     1
102
RTVSPropertyOp56
 70
     1
102
RTVSPropertyOp57
 70
     1
102
RTVSPost2010Prop28
280
     0
102
RTVSPost2010PropOp28
 70
     1
102
RTVSPost2010Prop29
280
     1
102
RTVSPost2010PropOp29
 70
     1
102
RTVSPost2010Prop30
280
     1
102
RTVSPost2010PropOp30
 70
     1
102
RTVSPost2010Prop31
280
     0
102
RTVSPost2010PropOp31
 70
     1
102
RTVSPost2010Prop32
280
     0
102
RTVSPost2010PropOp32
 70
     1
102
RTVSPost2010Prop33
280
     0
102
RTVSPost2010PropOp33
 70
     1
102
RTVSPost2010Prop34
280
     0
102
RTVSPost2010PropOp34
 70
     1
102
RTVSPost2010Prop35
280
     0
102
RTVSPost2010PropOp35
 70
     1
102
RTVSPost2010Prop36
280
     0
102
RTVSPost2010PropOp36
 70
     1
102
RTVSPost2010Prop37
 90
       50
102
RTVSPost2010PropOp37
 70
     1
102
RTVSPost2010Prop38
140
0.0
102
RTVSPost2010PropOp38
 70
     1
102
RTVSPost2010Prop39
140
1.0
102
RTVSPost2010PropOp39
 70
     1
102
RTVSPost2010Prop40
 90
        0
102
RTVSPost2010PropOp40
 70
     1
102
RTVSPost2010Prop41ColorIndex
 90
       18
102
RTVSPost2010Prop41ColorRGB
 90
        0
102
RTVSPost2010PropOp41
 70
     1
102
RTVSPost2010Prop42
 90
       50
102
RTVSPost2010PropOp42
 70
     1
102
RTVSPost2010Prop43
 90
        3
102
RTVSPost2010PropOp43
 70
     1
102
RTVSPost2010Prop44ColorIndex
 90
        5
102
RTVSPost2010Prop44ColorRGB
 90
      255
102
RTVSPost2010PropOp44
 70
     1
102
RTVSPost2010Prop45
280
     0
102
RTVSPost2010PropOp45
 70
     1
102
RTVSPost2010Prop46
 90
       50
102
RTVSPost2010PropOp46
 70
     1
102
RTVSPost2010Prop47
 90
       50
102
RTVSPost2010PropOp47
 70
     1
102
RTVSPost2010Prop48
 90
       50
102
RTVSPost2010PropOp48
 70
     1
102
RTVSPost2010Prop49
280
     0
102
RTVSPost2010PropOp49
 70
     1
102
RTVSPost2010Prop50
 90
       50
102
RTVSPost2010PropOp50
 70
     1
102
RTVSPost2010Prop51ColorIndex
 90
      256
102
RTVSPost2010Prop51ColorRGB
 90
-16777216
102
RTVSPost2010PropOp51
 70
     0
102
RTVSPost2010Prop52
140
1.0
102
RTVSPost2010PropOp52
 70
     0
102
RTVSPost2010Prop53
 90
        2
102
RTVSPost2010PropOp53
 70
     1
102
RTVSPost2010Prop54
  1
strokes_ogs.tif
102
RTVSPost2010PropOp54
 70
     1
102
RTVSPost2010Prop55
280
     0
102
RTVSPost2010PropOp55
 70
     1
102
RTVSPost2010Prop56
140
1.0
102
RTVSPost2010PropOp56
 70
     1
102
RTVSPost2010Prop57
140
1.0
102
RTVSPost2010PropOp57
 70
     1
  0
ENDSEC
  0
EOF
