  0
SECTION
  2
HEADER
  9
$ACADVER
  1
AC1015
  9
$ACADMAINTVER
 70
     6
  9
$DWGCODEPAGE
  3
ANSI_1252
  9
$INSBASE
 10
208.2794763403586
 20
489.9397296321938
 30
0.0
  9
$EXTMIN
 10
191.1903951701242
 20
481.6964290347399
 30
0.0
  9
$EXTMAX
 10
224.7349805978174
 20
502.3843228446239
 30
0.0
  9
$LIMMIN
 10
0.0
 20
0.0
  9
$LIMMAX
 10
12.0
 20
9.0
  9
$ORTHOMODE
 70
     0
  9
$REGENMODE
 70
     1
  9
$FILLMODE
 70
     1
  9
$QTEXTMODE
 70
     0
  9
$MIRRTEXT
 70
     1
  9
$LTSCALE
 40
1.0
  9
$ATTMODE
 70
     1
  9
$TEXTSIZE
 40
0.2
  9
$TRACEWID
 40
0.05
  9
$TEXTSTYLE
  7
Standard
  9
$CLAYER
  8
0
  9
$CELTYPE
  6
ByLayer
  9
$CECOLOR
 62
   256
  9
$CELTSCALE
 40
1.0
  9
$DISPSILH
 70
     0
  9
$DIMSCALE
 40
1.0
  9
$DIMASZ
 40
0.18
  9
$DIMEXO
 40
0.0625
  9
$DIMDLI
 40
0.38
  9
$DIMRND
 40
0.0
  9
$DIMDLE
 40
0.0
  9
$DIMEXE
 40
0.18
  9
$DIMTP
 40
0.0
  9
$DIMTM
 40
0.0
  9
$DIMTXT
 40
0.18
  9
$DIMCEN
 40
0.09
  9
$DIMTSZ
 40
0.0
  9
$DIMTOL
 70
     0
  9
$DIMLIM
 70
     0
  9
$DIMTIH
 70
     1
  9
$DIMTOH
 70
     1
  9
$DIMSE1
 70
     0
  9
$DIMSE2
 70
     0
  9
$DIMTAD
 70
     0
  9
$DIMZIN
 70
     0
  9
$DIMBLK
  1

  9
$DIMASO
 70
     1
  9
$DIMSHO
 70
     1
  9
$DIMPOST
  1

  9
$DIMAPOST
  1

  9
$DIMALT
 70
     0
  9
$DIMALTD
 70
     2
  9
$DIMALTF
 40
25.4
  9
$DIMLFAC
 40
1.0
  9
$DIMTOFL
 70
     0
  9
$DIMTVP
 40
0.0
  9
$DIMTIX
 70
     0
  9
$DIMSOXD
 70
     0
  9
$DIMSAH
 70
     0
  9
$DIMBLK1
  1

  9
$DIMBLK2
  1

  9
$DIMSTYLE
  2
Standard
  9
$DIMCLRD
 70
     0
  9
$DIMCLRE
 70
     0
  9
$DIMCLRT
 70
     0
  9
$DIMTFAC
 40
1.0
  9
$DIMGAP
 40
0.09
  9
$DIMJUST
 70
     0
  9
$DIMSD1
 70
     0
  9
$DIMSD2
 70
     0
  9
$DIMTOLJ
 70
     1
  9
$DIMTZIN
 70
     0
  9
$DIMALTZ
 70
     0
  9
$DIMALTTZ
 70
     0
  9
$DIMUPT
 70
     0
  9
$DIMDEC
 70
     4
  9
$DIMTDEC
 70
     4
  9
$DIMALTU
 70
     2
  9
$DIMALTTD
 70
     2
  9
$DIMTXSTY
  7
Standard
  9
$DIMAUNIT
 70
     0
  9
$DIMADEC
 70
     0
  9
$DIMALTRND
 40
0.0
  9
$DIMAZIN
 70
     0
  9
$DIMDSEP
 70
    46
  9
$DIMATFIT
 70
     3
  9
$DIMFRAC
 70
     0
  9
$DIMLDRBLK
  1

  9
$DIMLUNIT
 70
     2
  9
$DIMLWD
 70
    -2
  9
$DIMLWE
 70
    -2
  9
$DIMTMOVE
 70
     0
  9
$LUNITS
 70
     2
  9
$LUPREC
 70
     4
  9
$SKETCHINC
 40
0.1
  9
$FILLETRAD
 40
0.5
  9
$AUNITS
 70
     0
  9
$AUPREC
 70
     0
  9
$MENU
  1
.
  9
$ELEVATION
 40
0.0
  9
$PELEVATION
 40
0.0
  9
$THICKNESS
 40
0.0
  9
$LIMCHECK
 70
     0
  9
$CHAMFERA
 40
0.5
  9
$CHAMFERB
 40
0.5
  9
$CHAMFERC
 40
1.0
  9
$CHAMFERD
 40
0.0
  9
$SKPOLY
 70
     0
  9
$TDCREATE
 40
2458676.485268229
  9
$TDUCREATE
 40
2458676.651934896
  9
$TDUPDATE
 40
2458708.506921447
  9
$TDUUPDATE
 40
2458708.673588113
  9
$TDINDWG
 40
0.0332955324
  9
$TDUSRTIMER
 40
0.0332955324
  9
$USRTIMER
 70
     1
  9
$ANGBASE
 50
0.0
  9
$ANGDIR
 70
     0
  9
$PDMODE
 70
     0
  9
$PDSIZE
 40
0.0
  9
$PLINEWID
 40
0.0
  9
$SPLFRAME
 70
     0
  9
$SPLINETYPE
 70
     6
  9
$SPLINESEGS
 70
     8
  9
$HANDSEED
  5
B7
  9
$SURFTAB1
 70
     6
  9
$SURFTAB2
 70
     6
  9
$SURFTYPE
 70
     6
  9
$SURFU
 70
     6
  9
$SURFV
 70
     6
  9
$UCSBASE
  2

  9
$UCSNAME
  2

  9
$UCSORG
 10
0.0
 20
0.0
 30
0.0
  9
$UCSXDIR
 10
1.0
 20
0.0
 30
0.0
  9
$UCSYDIR
 10
0.0
 20
1.0
 30
0.0
  9
$UCSORTHOREF
  2

  9
$UCSORTHOVIEW
 70
     0
  9
$UCSORGTOP
 10
0.0
 20
0.0
 30
0.0
  9
$UCSORGBOTTOM
 10
0.0
 20
0.0
 30
0.0
  9
$UCSORGLEFT
 10
0.0
 20
0.0
 30
0.0
  9
$UCSORGRIGHT
 10
0.0
 20
0.0
 30
0.0
  9
$UCSORGFRONT
 10
0.0
 20
0.0
 30
0.0
  9
$UCSORGBACK
 10
0.0
 20
0.0
 30
0.0
  9
$PUCSBASE
  2

  9
$PUCSNAME
  2

  9
$PUCSORG
 10
0.0
 20
0.0
 30
0.0
  9
$PUCSXDIR
 10
1.0
 20
0.0
 30
0.0
  9
$PUCSYDIR
 10
0.0
 20
1.0
 30
0.0
  9
$PUCSORTHOREF
  2

  9
$PUCSORTHOVIEW
 70
     0
  9
$PUCSORGTOP
 10
0.0
 20
0.0
 30
0.0
  9
$PUCSORGBOTTOM
 10
0.0
 20
0.0
 30
0.0
  9
$PUCSORGLEFT
 10
0.0
 20
0.0
 30
0.0
  9
$PUCSORGRIGHT
 10
0.0
 20
0.0
 30
0.0
  9
$PUCSORGFRONT
 10
0.0
 20
0.0
 30
0.0
  9
$PUCSORGBACK
 10
0.0
 20
0.0
 30
0.0
  9
$USERI1
 70
     0
  9
$USERI2
 70
     0
  9
$USERI3
 70
     0
  9
$USERI4
 70
     0
  9
$USERI5
 70
     0
  9
$USERR1
 40
0.0
  9
$USERR2
 40
0.0
  9
$USERR3
 40
0.0
  9
$USERR4
 40
0.0
  9
$USERR5
 40
0.0
  9
$WORLDVIEW
 70
     1
  9
$SHADEDGE
 70
     3
  9
$SHADEDIF
 70
    70
  9
$TILEMODE
 70
     1
  9
$MAXACTVP
 70
    64
  9
$PINSBASE
 10
0.0
 20
0.0
 30
0.0
  9
$PLIMCHECK
 70
     0
  9
$PEXTMIN
 10
1.000000000000000E+20
 20
1.000000000000000E+20
 30
1.000000000000000E+20
  9
$PEXTMAX
 10
-1.000000000000000E+20
 20
-1.000000000000000E+20
 30
-1.000000000000000E+20
  9
$PLIMMIN
 10
-0.25
 20
-0.25
  9
$PLIMMAX
 10
10.75
 20
8.25
  9
$UNITMODE
 70
     0
  9
$VISRETAIN
 70
     1
  9
$PLINEGEN
 70
     0
  9
$PSLTSCALE
 70
     1
  9
$TREEDEPTH
 70
  3020
  9
$CMLSTYLE
  2
Standard
  9
$CMLJUST
 70
     0
  9
$CMLSCALE
 40
1.0
  9
$PROXYGRAPHICS
 70
     1
  9
$MEASUREMENT
 70
     0
  9
$CELWEIGHT
370
    -1
  9
$ENDCAPS
280
     0
  9
$JOINSTYLE
280
     0
  9
$LWDISPLAY
290
     1
  9
$INSUNITS
 70
     1
  9
$HYPERLINKBASE
  1

  9
$STYLESHEET
  1

  9
$XEDIT
290
     1
  9
$CEPSNTYPE
380
     0
  9
$PSTYLEMODE
290
     1
  9
$FINGERPRINTGUID
  2
{3FF96223-F9C2-48F7-A4C5-C732E40B2087}
  9
$VERSIONGUID
  2
{FAEB1C32-E019-11D5-929B-00C0DF256EC4}
  9
$EXTNAMES
290
     1
  9
$PSVPSCALE
 40
0.0
  9
$OLESTARTUP
290
     0
  0
ENDSEC
  0
SECTION
  2
CLASSES
  0
CLASS
  1
ACDBDICTIONARYWDFLT
  2
AcDbDictionaryWithDefault
  3
ObjectDBX Classes
 90
        0
280
     0
281
     0
  0
CLASS
  1
MATERIAL
  2
AcDbMaterial
  3
ObjectDBX Classes
 90
     1153
280
     0
281
     0
  0
CLASS
  1
VISUALSTYLE
  2
AcDbVisualStyle
  3
ObjectDBX Classes
 90
     4095
280
     0
281
     0
  0
CLASS
  1
SUN
  2
AcDbSun
  3
SCENEOE
 90
     1153
280
     0
281
     0
  0
CLASS
  1
SCALE
  2
AcDbScale
  3
ObjectDBX Classes
 90
     1153
280
     0
281
     0
  0
CLASS
  1
DICTIONARYVAR
  2
AcDbDictionaryVar
  3
ObjectDBX Classes
 90
        0
280
     0
281
     0
  0
CLASS
  1
MLEADERSTYLE
  2
AcDbMLeaderStyle
  3
ACDB_MLEADERSTYLE_CLASS
 90
     4095
280
     0
281
     0
  0
CLASS
  1
TABLESTYLE
  2
AcDbTableStyle
  3
ObjectDBX Classes
 90
     4095
280
     0
281
     0
  0
CLASS
  1
ACDBPLACEHOLDER
  2
AcDbPlaceHolder
  3
ObjectDBX Classes
 90
        0
280
     0
281
     0
  0
CLASS
  1
LAYOUT
  2
AcDbLayout
  3
ObjectDBX Classes
 90
        0
280
     0
281
     0
  0
ENDSEC
  0
SECTION
  2
TABLES
  0
TABLE
  2
VPORT
  5
1F
102
{ACAD_XDICTIONARY
360
7B
102
}
330
0
100
AcDbSymbolTable
 70
     1
  0
VPORT
  5
25
330
1F
100
AcDbSymbolTableRecord
100
AcDbViewportTableRecord
  2
*Active
 70
     0
 10
0.0
 20
0.0
 11
1.0
 21
1.0
 12
207.9626878839708
 22
492.0403759396819
 13
0.0
 23
0.0
 14
0.5
 24
0.5
 15
0.5
 25
0.5
 16
0.0
 26
0.0
 36
1.0
 17
0.0
 27
0.0
 37
0.0
 40
21.1016516860816
 41
1.621459667956477
 42
50.0
 43
0.0
 44
0.0
 50
0.0
 51
0.0
 71
    16
 72
   100
 73
     1
 74
     3
 75
     0
 76
     0
 77
     0
 78
     0
281
     0
 65
     1
110
0.0
120
0.0
130
0.0
111
1.0
121
0.0
131
0.0
112
0.0
122
1.0
132
0.0
 79
     0
146
0.0
  0
ENDTAB
  0
TABLE
  2
LTYPE
  5
9
330
0
100
AcDbSymbolTable
 70
     1
  0
LTYPE
  5
A
330
9
100
AcDbSymbolTableRecord
100
AcDbLinetypeTableRecord
  2
ByBlock
 70
     0
  3

 72
    65
 73
     0
 40
0.0
  0
LTYPE
  5
B
330
9
100
AcDbSymbolTableRecord
100
AcDbLinetypeTableRecord
  2
ByLayer
 70
     0
  3

 72
    65
 73
     0
 40
0.0
  0
LTYPE
  5
8
330
9
100
AcDbSymbolTableRecord
100
AcDbLinetypeTableRecord
  2
Continuous
 70
     0
  3
Solid line
 72
    65
 73
     0
 40
0.0
  0
ENDTAB
  0
TABLE
  2
LAYER
  5
2
330
0
100
AcDbSymbolTable
 70
     2
  0
LAYER
  5
1
330
2
100
AcDbSymbolTableRecord
100
AcDbLayerTableRecord
  2
0
 70
     0
 62
     7
  6
Continuous
370
    -3
390
3
  0
LAYER
  5
4E
330
2
100
AcDbSymbolTableRecord
100
AcDbLayerTableRecord
  2
Layer 1
 70
     0
 62
     7
  6
Continuous
370
    -3
390
3
  0
ENDTAB
  0
TABLE
  2
STYLE
  5
D
330
0
100
AcDbSymbolTable
 70
     1
  0
STYLE
  5
C
330
D
100
AcDbSymbolTableRecord
100
AcDbTextStyleTableRecord
  2
Standard
 70
     0
 40
0.0
 41
1.0
 50
0.0
 71
     0
 42
0.2
  3
txt
  4

  0
ENDTAB
  0
TABLE
  2
VIEW
  5
1D
330
0
100
AcDbSymbolTable
 70
     0
  0
ENDTAB
  0
TABLE
  2
UCS
  5
1E
330
0
100
AcDbSymbolTable
 70
     0
  0
ENDTAB
  0
TABLE
  2
APPID
  5
20
330
0
100
AcDbSymbolTable
 70
     2
  0
APPID
  5
24
330
20
100
AcDbSymbolTableRecord
100
AcDbRegAppTableRecord
  2
ACAD
 70
     0
  0
APPID
  5
B4
330
20
100
AcDbSymbolTableRecord
100
AcDbRegAppTableRecord
  2
ACAD_MLEADERVER
 70
     0
  0
ENDTAB
  0
TABLE
  2
DIMSTYLE
  5
10
330
0
100
AcDbSymbolTable
 70
     1
100
AcDbDimStyleTable
  0
DIMSTYLE
105
F
330
10
100
AcDbSymbolTableRecord
100
AcDbDimStyleTableRecord
  2
Standard
 70
     0
178
     0
340
C
  0
ENDTAB
  0
TABLE
  2
BLOCK_RECORD
  5
13
330
0
100
AcDbSymbolTable
 70
     0
  0
BLOCK_RECORD
  5
14
330
13
100
AcDbSymbolTableRecord
100
AcDbBlockTableRecord
  2
*Model_Space
340
17
  0
BLOCK_RECORD
  5
19
330
13
100
AcDbSymbolTableRecord
100
AcDbBlockTableRecord
  2
*Paper_Space
340
1C
  0
ENDTAB
  0
ENDSEC
  0
SECTION
  2
BLOCKS
  0
BLOCK
  5
15
330
14
100
AcDbEntity
  8
0
100
AcDbBlockBegin
  2
*Model_Space
 70
     0
 10
0.0
 20
0.0
 30
0.0
  3
*Model_Space
  1

  0
ENDBLK
  5
16
330
14
100
AcDbEntity
  8
0
100
AcDbBlockEnd
  0
BLOCK
  5
1A
330
19
100
AcDbEntity
 67
     1
  8
0
100
AcDbBlockBegin
  2
*Paper_Space
 70
     0
 10
0.0
 20
0.0
 30
0.0
  3
*Paper_Space
  1

  0
ENDBLK
  5
1B
330
19
100
AcDbEntity
 67
     1
  8
0
100
AcDbBlockEnd
  0
ENDSEC
  0
SECTION
  2
ENTITIES
  0
SPLINE
  5
4D
330
14
100
AcDbEntity
  8
Layer 1
370
     0
100
AcDbSpline
210
0.0
220
0.0
230
1.0
 70
    11
 71
     3
 72
    23
 73
    19
 74
     0
 42
0.000000001
 43
0.0000000001
 40
0.0
 40
0.0
 40
0.0
 40
0.0
 40
1.0
 40
1.0
 40
1.0
 40
2.0
 40
2.0
 40
2.0
 40
3.0
 40
3.0
 40
3.0
 40
4.0
 40
4.0
 40
4.0
 40
5.0
 40
5.0
 40
5.0
 40
6.0
 40
6.0
 40
6.0
 40
6.0
 10
217.8061944977526
 20
493.8978875230896
 30
0.0
 10
218.0185944923869
 20
494.2245875148365
 30
0.0
 10
218.2313944870111
 20
494.5517875065707
 30
0.0
 10
218.4433944816556
 20
494.8788874983074
 30
0.0
 10
218.0595944913512
 20
495.4394874841455
 30
0.0
 10
217.6030000000001
 20
495.915
 30
0.0
 10
217.0741945162445
 20
496.3065874622407
 30
0.0
 10
216.5351945298607
 20
496.2665874632512
 30
0.0
 10
215.9955945434922
 20
496.2270874642491
 30
0.0
 10
215.456494557111
 20
496.1869999999999
 30
0.0
 10
215.4462945573687
 20
495.9491874712694
 30
0.0
 10
215.4359999999997
 20
495.71
 30
0.0
 10
215.4257945578865
 20
495.4711874833447
 30
0.0
 10
216.2187945378537
 20
494.9467874965922
 30
0.0
 10
217.0121945178107
 20
494.4223875098396
 30
0.0
 10
217.8061944977526
 20
493.8978875230896
 30
0.0
 10
217.8061944977526
 20
493.8978875230896
 30
0.0
 10
217.8061944977526
 20
493.8978875230896
 30
0.0
 10
217.8061944977526
 20
493.8978875230896
 30
0.0
  0
SPLINE
  5
4F
330
14
100
AcDbEntity
  8
Layer 1
370
     0
100
AcDbSpline
210
0.0
220
0.0
230
1.0
 70
    11
 71
     3
 72
    32
 73
    28
 74
     0
 42
0.000000001
 43
0.0000000001
 40
0.0
 40
0.0
 40
0.0
 40
0.0
 40
1.0
 40
1.0
 40
1.0
 40
2.0
 40
2.0
 40
2.0
 40
3.0
 40
3.0
 40
3.0
 40
4.0
 40
4.0
 40
4.0
 40
5.0
 40
5.0
 40
5.0
 40
6.0
 40
6.0
 40
6.0
 40
7.0
 40
7.0
 40
7.0
 40
8.0
 40
8.0
 40
8.0
 40
9.0
 40
9.0
 40
9.0
 40
9.0
 10
214.3002945863191
 20
497.3158874367437
 30
0.0
 10
214.3002945863191
 20
497.3158874367437
 30
0.0
 10
214.2055945887114
 20
497.5268874314133
 30
0.0
 10
214.2055945887114
 20
497.5268874314133
 30
0.0
 10
214.2055945887114
 20
497.5268874314133
 30
0.0
 10
215.2768945616481
 20
498.004887419338
 30
0.0
 10
215.2768945616481
 20
498.004887419338
 30
0.0
 10
215.2768945616481
 20
498.004887419338
 30
0.0
 10
215.3617945595033
 20
497.8130000000001
 30
0.0
 10
215.3617945595033
 20
497.8130000000001
 30
0.0
 10
215.5145945556433
 20
497.7694874252848
 30
0.0
 10
215.6620945519171
 20
497.7211874265049
 30
0.0
 10
215.8056945482895
 20
497.6693874278135
 30
0.0
 10
215.8056945482895
 20
497.6693874278135
 30
0.0
 10
212.955594620289
 20
501.4818873315016
 30
0.0
 10
212.955594620289
 20
501.4818873315016
 30
0.0
 10
212.955594620289
 20
501.4818873315016
 30
0.0
 10
212.7006946267284
 20
501.2143873382593
 30
0.0
 10
212.7006946267284
 20
501.2143873382593
 30
0.0
 10
212.7006946267284
 20
501.2143873382593
 30
0.0
 10
213.7738945996171
 20
497.0248874440949
 30
0.0
 10
213.7738945996171
 20
497.0248874440949
 30
0.0
 10
213.7738945996171
 20
497.0248874440949
 30
0.0
 10
214.3002945863191
 20
497.3158874367437
 30
0.0
 10
214.3002945863191
 20
497.3158874367437
 30
0.0
 10
214.3002945863191
 20
497.3158874367437
 30
0.0
 10
214.3002945863191
 20
497.3158874367437
 30
0.0
 10
214.3002945863191
 20
497.3158874367437
 30
0.0
  0
SPLINE
  5
50
330
14
100
AcDbEntity
  8
Layer 1
370
     0
100
AcDbSpline
210
0.0
220
0.0
230
1.0
 70
    11
 71
     3
 72
    44
 73
    40
 74
     0
 42
0.000000001
 43
0.0000000001
 40
0.0
 40
0.0
 40
0.0
 40
0.0
 40
1.0
 40
1.0
 40
1.0
 40
2.0
 40
2.0
 40
2.0
 40
3.0
 40
3.0
 40
3.0
 40
4.0
 40
4.0
 40
4.0
 40
5.0
 40
5.0
 40
5.0
 40
6.0
 40
6.0
 40
6.0
 40
7.0
 40
7.0
 40
7.0
 40
8.0
 40
8.0
 40
8.0
 40
9.0
 40
9.0
 40
9.0
 40
10.0
 40
10.0
 40
10.0
 40
11.0
 40
11.0
 40
11.0
 40
12.0
 40
12.0
 40
12.0
 40
13.0
 40
13.0
 40
13.0
 40
13.0
 10
220.461894430664
 20
489.9452876229407
 30
0.0
 10
220.461894430664
 20
489.9452876229407
 30
0.0
 10
219.0741944657202
 20
489.5258876335356
 30
0.0
 10
219.0741944657202
 20
489.5258876335356
 30
0.0
 10
219.0741944657202
 20
489.5258876335356
 30
0.0
 10
220.2133944369416
 20
486.9848876977267
 30
0.0
 10
220.2133944369416
 20
486.9848876977267
 30
0.0
 10
220.2133944369416
 20
486.9848876977267
 30
0.0
 10
219.1430944639797
 20
486.5067877098045
 30
0.0
 10
219.1430944639797
 20
486.5067877098045
 30
0.0
 10
219.1430944639797
 20
486.5067877098045
 30
0.0
 10
217.9437944942765
 20
489.1835876421828
 30
0.0
 10
217.9437944942765
 20
489.1835876421828
 30
0.0
 10
217.9437944942765
 20
489.1835876421828
 30
0.0
 10
217.2538945117049
 20
488.97508764745
 30
0.0
 10
217.2538945117049
 20
488.97508764745
 30
0.0
 10
216.7147945253237
 20
488.3886876622637
 30
0.0
 10
216.3852945336475
 20
487.6059999999998
 30
0.0
 10
216.3852945336475
 20
486.7460877037593
 30
0.0
 10
216.3852945336475
 20
485.8363877267402
 30
0.0
 10
216.7533945243486
 20
485.0126877475486
 30
0.0
 10
217.3490945092999
 20
484.4164877626099
 30
0.0
 10
217.9447944942513
 20
483.8207877776586
 30
0.0
 10
218.7685944734403
 20
483.4520877869727
 30
0.0
 10
219.6771944504871
 20
483.4520877869727
 30
0.0
 10
220.5873944274936
 20
483.4520877869727
 30
0.0
 10
221.4110944066852
 20
483.8207877776586
 30
0.0
 10
222.0067943916365
 20
484.4164877626099
 30
0.0
 10
222.6024943765879
 20
485.0126877475486
 30
0.0
 10
222.9711943672737
 20
485.8363877267402
 30
0.0
 10
222.9711943672737
 20
486.7460877037593
 30
0.0
 10
222.9711943672737
 20
487.6547876808036
 30
0.0
 10
222.6024943765879
 20
488.4784876599952
 30
0.0
 10
222.0067943916365
 20
489.0741876449465
 30
0.0
 10
221.5878944022188
 20
489.4931876343617
 30
0.0
 10
221.0570944156279
 20
489.7997876266163
 30
0.0
 10
220.461894430664
 20
489.9452876229407
 30
0.0
 10
220.461894430664
 20
489.9452876229407
 30
0.0
 10
220.461894430664
 20
489.9452876229407
 30
0.0
 10
220.461894430664
 20
489.9452876229407
 30
0.0
  0
SPLINE
  5
51
330
14
100
AcDbEntity
  8
Layer 1
370
     0
100
AcDbSpline
210
0.0
220
0.0
230
1.0
 70
    11
 71
     3
 72
    77
 73
    73
 74
     0
 42
0.000000001
 43
0.0000000001
 40
0.0
 40
0.0
 40
0.0
 40
0.0
 40
1.0
 40
1.0
 40
1.0
 40
2.0
 40
2.0
 40
2.0
 40
3.0
 40
3.0
 40
3.0
 40
4.0
 40
4.0
 40
4.0
 40
5.0
 40
5.0
 40
5.0
 40
6.0
 40
6.0
 40
6.0
 40
7.0
 40
7.0
 40
7.0
 40
8.0
 40
8.0
 40
8.0
 40
9.0
 40
9.0
 40
9.0
 40
10.0
 40
10.0
 40
10.0
 40
11.0
 40
11.0
 40
11.0
 40
12.0
 40
12.0
 40
12.0
 40
13.0
 40
13.0
 40
13.0
 40
14.0
 40
14.0
 40
14.0
 40
15.0
 40
15.0
 40
15.0
 40
16.0
 40
16.0
 40
16.0
 40
17.0
 40
17.0
 40
17.0
 40
18.0
 40
18.0
 40
18.0
 40
19.0
 40
19.0
 40
19.0
 40
20.0
 40
20.0
 40
20.0
 40
21.0
 40
21.0
 40
21.0
 40
22.0
 40
22.0
 40
22.0
 40
23.0
 40
23.0
 40
23.0
 40
24.0
 40
24.0
 40
24.0
 40
24.0
 10
192.1220951465875
 20
486.4115877122094
 30
0.0
 10
192.1220951465875
 20
486.4115877122094
 30
0.0
 10
191.77879515526
 20
486.4115877122094
 30
0.0
 10
191.77879515526
 20
486.4115877122094
 30
0.0
 10
191.77879515526
 20
486.4115877122094
 30
0.0
 10
191.77879515526
 20
485.8231877270737
 30
0.0
 10
191.77879515526
 20
485.8231877270737
 30
0.0
 10
191.77879515526
 20
485.8231877270737
 30
0.0
 10
192.1957951447257
 20
485.8231877270737
 30
0.0
 10
192.1957951447257
 20
485.8231877270737
 30
0.0
 10
192.1957951447257
 20
485.8231877270737
 30
0.0
 10
201.5380949087194
 20
485.8231877270737
 30
0.0
 10
201.5380949087194
 20
485.8231877270737
 30
0.0
 10
201.5380949087194
 20
485.8231877270737
 30
0.0
 10
201.5595949081762
 20
485.8241877270484
 30
0.0
 10
201.5595949081762
 20
485.8241877270484
 30
0.0
 10
201.8476949008982
 20
485.8353877267655
 30
0.0
 10
202.1210948939915
 20
485.8554877262577
 30
0.0
 10
202.3778948875042
 20
485.8861877254822
 30
0.0
 10
202.6288948811634
 20
485.915487724742
 30
0.0
 10
202.8540000000003
 20
485.955587723729
 30
0.0
 10
203.0531948704447
 20
486.0038877225088
 30
0.0
 10
203.2748948648441
 20
486.0575877211522
 30
0.0
 10
203.4721948598599
 20
486.125
 30
0.0
 10
203.6440000000002
 20
486.2060877174008
 30
0.0
 10
203.807594851387
 20
486.2826877154657
 30
0.0
 10
203.9452948479084
 20
486.3710877132326
 30
0.0
 10
204.0585948450462
 20
486.4706877107164
 30
0.0
 10
204.0585948450462
 20
486.4706877107164
 30
0.0
 10
204.0575948450714
 20
486.4716877106912
 30
0.0
 10
204.0575948450714
 20
486.4716877106912
 30
0.0
 10
204.0575948450714
 20
486.4716877106912
 30
0.0
 10
204.0863948443439
 20
486.4975877100369
 30
0.0
 10
204.0863948443439
 20
486.4975877100369
 30
0.0
 10
204.0863948443439
 20
486.4975877100369
 30
0.0
 10
205.6049999999996
 20
488.097687669615
 30
0.0
 10
205.6049999999996
 20
488.097687669615
 30
0.0
 10
205.6049999999996
 20
488.097687669615
 30
0.0
 10
205.1796948167248
 20
488.5023876593914
 30
0.0
 10
205.1796948167248
 20
488.5023876593914
 30
0.0
 10
205.1796948167248
 20
488.5023876593914
 30
0.0
 10
203.6684948549009
 20
486.9096876996264
 30
0.0
 10
203.6684948549009
 20
486.9096876996264
 30
0.0
 10
203.6684948549009
 20
486.9096876996264
 30
0.0
 10
203.6576948551738
 20
486.8969999999999
 30
0.0
 10
203.6576948551738
 20
486.8969999999999
 30
0.0
 10
203.6576948551738
 20
486.8969999999999
 30
0.0
 10
203.6415948555805
 20
486.884287700268
 30
0.0
 10
203.6415948555805
 20
486.884287700268
 30
0.0
 10
203.5565948577278
 20
486.8153877020086
 30
0.0
 10
203.450694860403
 20
486.754887703537
 30
0.0
 10
203.3236948636113
 20
486.7020877048708
 30
0.0
 10
203.2094948664962
 20
486.6542877060783
 30
0.0
 10
203.0727948699496
 20
486.611787707152
 30
0.0
 10
202.915
 20
486.5736877081144
 30
0.0
 10
202.7280000000001
 20
486.5272877092866
 30
0.0
 10
202.5204948839018
 20
486.4916877101859
 30
0.0
 10
202.2963948895631
 20
486.4652877108529
 30
0.0
 10
202.0785948950652
 20
486.4394877115046
 30
0.0
 10
201.8324949012822
 20
486.4208877119745
 30
0.0
 10
201.5595949081762
 20
486.4105877122347
 30
0.0
 10
201.5595949081762
 20
486.4105877122347
 30
0.0
 10
201.2558949158483
 20
486.3993877125176
 30
0.0
 10
201.2558949158483
 20
486.3993877125176
 30
0.0
 10
201.2558949158483
 20
486.3993877125176
 30
0.0
 10
201.2558949158483
 20
486.4115877122094
 30
0.0
 10
201.2558949158483
 20
486.4115877122094
 30
0.0
 10
201.2558949158483
 20
486.4115877122094
 30
0.0
 10
192.1220951465875
 20
486.4115877122094
 30
0.0
 10
192.1220951465875
 20
486.4115877122094
 30
0.0
 10
192.1220951465875
 20
486.4115877122094
 30
0.0
 10
192.1220951465875
 20
486.4115877122094
 30
0.0
 10
192.1220951465875
 20
486.4115877122094
 30
0.0
  0
SPLINE
  5
52
330
14
100
AcDbEntity
  8
Layer 1
370
     0
100
AcDbSpline
210
0.0
220
0.0
230
1.0
 70
    11
 71
     3
 72
    23
 73
    19
 74
     0
 42
0.000000001
 43
0.0000000001
 40
0.0
 40
0.0
 40
0.0
 40
0.0
 40
1.0
 40
1.0
 40
1.0
 40
2.0
 40
2.0
 40
2.0
 40
3.0
 40
3.0
 40
3.0
 40
4.0
 40
4.0
 40
4.0
 40
5.0
 40
5.0
 40
5.0
 40
6.0
 40
6.0
 40
6.0
 40
6.0
 10
194.5321950857033
 20
484.7714877536418
 30
0.0
 10
194.6264950833211
 20
484.6464877567996
 30
0.0
 10
194.7299999999996
 20
484.5282877597856
 30
0.0
 10
194.8397950779326
 20
484.4164877626099
 30
0.0
 10
195.435495062884
 20
483.8207877776586
 30
0.0
 10
196.2592950420731
 20
483.4520877869727
 30
0.0
 10
197.1688950190946
 20
483.4520877869727
 30
0.0
 10
198.0775949961389
 20
483.4520877869727
 30
0.0
 10
198.901394975328
 20
483.8207877776586
 30
0.0
 10
199.4975949602667
 20
484.4164877626099
 30
0.0
 10
199.6083949574677
 20
484.5282877597856
 30
0.0
 10
199.7113949548657
 20
484.6464877567996
 30
0.0
 10
199.8046949525087
 20
484.7714877536418
 30
0.0
 10
199.8046949525087
 20
484.7714877536418
 30
0.0
 10
194.5321950857033
 20
484.7714877536418
 30
0.0
 10
194.5321950857033
 20
484.7714877536418
 30
0.0
 10
194.5321950857033
 20
484.7714877536418
 30
0.0
 10
194.5321950857033
 20
484.7714877536418
 30
0.0
 10
194.5321950857033
 20
484.7714877536418
 30
0.0
  0
SPLINE
  5
53
330
14
100
AcDbEntity
  8
Layer 1
370
     0
100
AcDbSpline
210
0.0
220
0.0
230
1.0
 70
    11
 71
     3
 72
   230
 73
   226
 74
     0
 42
0.000000001
 43
0.0000000001
 40
0.0
 40
0.0
 40
0.0
 40
0.0
 40
1.0
 40
1.0
 40
1.0
 40
2.0
 40
2.0
 40
2.0
 40
3.0
 40
3.0
 40
3.0
 40
4.0
 40
4.0
 40
4.0
 40
5.0
 40
5.0
 40
5.0
 40
6.0
 40
6.0
 40
6.0
 40
7.0
 40
7.0
 40
7.0
 40
8.0
 40
8.0
 40
8.0
 40
9.0
 40
9.0
 40
9.0
 40
10.0
 40
10.0
 40
10.0
 40
11.0
 40
11.0
 40
11.0
 40
12.0
 40
12.0
 40
12.0
 40
13.0
 40
13.0
 40
13.0
 40
14.0
 40
14.0
 40
14.0
 40
15.0
 40
15.0
 40
15.0
 40
16.0
 40
16.0
 40
16.0
 40
17.0
 40
17.0
 40
17.0
 40
18.0
 40
18.0
 40
18.0
 40
19.0
 40
19.0
 40
19.0
 40
20.0
 40
20.0
 40
20.0
 40
21.0
 40
21.0
 40
21.0
 40
22.0
 40
22.0
 40
22.0
 40
23.0
 40
23.0
 40
23.0
 40
24.0
 40
24.0
 40
24.0
 40
25.0
 40
25.0
 40
25.0
 40
26.0
 40
26.0
 40
26.0
 40
27.0
 40
27.0
 40
27.0
 40
28.0
 40
28.0
 40
28.0
 40
29.0
 40
29.0
 40
29.0
 40
30.0
 40
30.0
 40
30.0
 40
31.0
 40
31.0
 40
31.0
 40
32.0
 40
32.0
 40
32.0
 40
33.0
 40
33.0
 40
33.0
 40
34.0
 40
34.0
 40
34.0
 40
35.0
 40
35.0
 40
35.0
 40
36.0
 40
36.0
 40
36.0
 40
37.0
 40
37.0
 40
37.0
 40
38.0
 40
38.0
 40
38.0
 40
39.0
 40
39.0
 40
39.0
 40
40.0
 40
40.0
 40
40.0
 40
41.0
 40
41.0
 40
41.0
 40
42.0
 40
42.0
 40
42.0
 40
43.0
 40
43.0
 40
43.0
 40
44.0
 40
44.0
 40
44.0
 40
45.0
 40
45.0
 40
45.0
 40
46.0
 40
46.0
 40
46.0
 40
47.0
 40
47.0
 40
47.0
 40
48.0
 40
48.0
 40
48.0
 40
49.0
 40
49.0
 40
49.0
 40
50.0
 40
50.0
 40
50.0
 40
51.0
 40
51.0
 40
51.0
 40
52.0
 40
52.0
 40
52.0
 40
53.0
 40
53.0
 40
53.0
 40
54.0
 40
54.0
 40
54.0
 40
55.0
 40
55.0
 40
55.0
 40
56.0
 40
56.0
 40
56.0
 40
57.0
 40
57.0
 40
57.0
 40
58.0
 40
58.0
 40
58.0
 40
59.0
 40
59.0
 40
59.0
 40
60.0
 40
60.0
 40
60.0
 40
61.0
 40
61.0
 40
61.0
 40
62.0
 40
62.0
 40
62.0
 40
63.0
 40
63.0
 40
63.0
 40
64.0
 40
64.0
 40
64.0
 40
65.0
 40
65.0
 40
65.0
 40
66.0
 40
66.0
 40
66.0
 40
67.0
 40
67.0
 40
67.0
 40
68.0
 40
68.0
 40
68.0
 40
69.0
 40
69.0
 40
69.0
 40
70.0
 40
70.0
 40
70.0
 40
71.0
 40
71.0
 40
71.0
 40
72.0
 40
72.0
 40
72.0
 40
73.0
 40
73.0
 40
73.0
 40
74.0
 40
74.0
 40
74.0
 40
75.0
 40
75.0
 40
75.0
 40
75.0
 10
192.8588951279744
 20
489.4008876366934
 30
0.0
 10
192.839395128467
 20
489.0976876443528
 30
0.0
 10
192.8358951285554
 20
488.8100876516182
 30
0.0
 10
192.8485951282346
 20
488.5395876584516
 30
0.0
 10
192.8764951275298
 20
487.9403876735887
 30
0.0
 10
192.9867951247434
 20
487.4223876866745
 30
0.0
 10
193.1820951198097
 20
486.9916876975549
 30
0.0
 10
193.1820951198097
 20
486.9916876975549
 30
0.0
 10
199.5585949587257
 20
487.0336876964939
 30
0.0
 10
199.5585949587257
 20
487.0336876964939
 30
0.0
 10
199.7172949547166
 20
487.1205876942986
 30
0.0
 10
199.8505949513492
 20
487.2338876914364
 30
0.0
 10
199.9613949485502
 20
487.3695876880083
 30
0.0
 10
200.0824949454909
 20
487.5150876843327
 30
0.0
 10
200.1791949430481
 20
487.6864876800028
 30
0.0
 10
200.2582949410498
 20
487.8778876751676
 30
0.0
 10
200.2670949408275
 20
488.3783876625239
 30
0.0
 10
200.1830949429495
 20
488.8686876501379
 30
0.0
 10
199.9945949477114
 20
489.3451876381005
 30
0.0
 10
199.8085949524102
 20
489.8140000000003
 30
0.0
 10
199.5224949596377
 20
490.2714876147002
 30
0.0
 10
199.1270000000004
 20
490.7162876034636
 30
0.0
 10
198.1395949945727
 20
490.8432876002553
 30
0.0
 10
197.1283950201178
 20
490.8988875988507
 30
0.0
 10
196.0961950461933
 20
490.8944875989619
 30
0.0
 10
195.0966950714428
 20
490.8910875990478
 30
0.0
 10
194.0727950973087
 20
490.8300876005887
 30
0.0
 10
193.0287951236824
 20
490.7235876032792
 30
0.0
 10
192.9608951253977
 20
490.3549999999996
 30
0.0
 10
192.9115951266431
 20
490.0028876214856
 30
0.0
 10
192.8808951274186
 20
489.6693876299105
 30
0.0
 10
192.8808951274186
 20
489.6693876299105
 30
0.0
 10
192.8803951274313
 20
489.6674876299585
 30
0.0
 10
192.8803951274313
 20
489.6674876299585
 30
0.0
 10
192.8803951274313
 20
489.6674876299585
 30
0.0
 10
192.8803951274313
 20
489.6645876300317
 30
0.0
 10
192.8803951274313
 20
489.6645876300317
 30
0.0
 10
192.8803951274313
 20
489.6645876300317
 30
0.0
 10
192.8803951274313
 20
489.6596876301555
 30
0.0
 10
192.8803951274313
 20
489.6596876301555
 30
0.0
 10
192.8803951274313
 20
489.6596876301555
 30
0.0
 10
192.8793951274565
 20
489.6562876302414
 30
0.0
 10
192.8793951274565
 20
489.6562876302414
 30
0.0
 10
192.8793951274565
 20
489.6562876302414
 30
0.0
 10
192.8793951274565
 20
489.6513876303652
 30
0.0
 10
192.8793951274565
 20
489.6513876303652
 30
0.0
 10
192.8793951274565
 20
489.6513876303652
 30
0.0
 10
192.8783951274818
 20
489.6469999999999
 30
0.0
 10
192.8783951274818
 20
489.6469999999999
 30
0.0
 10
192.8783951274818
 20
489.6469999999999
 30
0.0
 10
192.8783951274818
 20
489.6425876305875
 30
0.0
 10
192.8783951274818
 20
489.6425876305875
 30
0.0
 10
192.8783951274818
 20
489.6425876305875
 30
0.0
 10
192.877395127507
 20
489.6381876306987
 30
0.0
 10
192.877395127507
 20
489.6381876306987
 30
0.0
 10
192.877395127507
 20
489.6381876306987
 30
0.0
 10
192.877395127507
 20
489.6337876308098
 30
0.0
 10
192.877395127507
 20
489.6337876308098
 30
0.0
 10
192.877395127507
 20
489.6337876308098
 30
0.0
 10
192.877395127507
 20
489.6332876308225
 30
0.0
 10
192.877395127507
 20
489.6332876308225
 30
0.0
 10
192.877395127507
 20
489.6332876308225
 30
0.0
 10
192.877395127507
 20
489.629387630921
 30
0.0
 10
192.877395127507
 20
489.629387630921
 30
0.0
 10
192.877395127507
 20
489.629387630921
 30
0.0
 10
192.8764951275298
 20
489.6254876310195
 30
0.0
 10
192.8764951275298
 20
489.6254876310195
 30
0.0
 10
192.8764951275298
 20
489.6254876310195
 30
0.0
 10
192.8764951275298
 20
489.6210876311306
 30
0.0
 10
192.8764951275298
 20
489.6210876311306
 30
0.0
 10
192.8764951275298
 20
489.6210876311306
 30
0.0
 10
192.875495127555
 20
489.6161876312544
 30
0.0
 10
192.875495127555
 20
489.6161876312544
 30
0.0
 10
192.875495127555
 20
489.6161876312544
 30
0.0
 10
192.875495127555
 20
489.6117876313656
 30
0.0
 10
192.875495127555
 20
489.6117876313656
 30
0.0
 10
192.875495127555
 20
489.6117876313656
 30
0.0
 10
192.875495127555
 20
489.6078876314641
 30
0.0
 10
192.875495127555
 20
489.6078876314641
 30
0.0
 10
192.875495127555
 20
489.6078876314641
 30
0.0
 10
192.8744951275803
 20
489.6034876315753
 30
0.0
 10
192.8744951275803
 20
489.6034876315753
 30
0.0
 10
192.8744951275803
 20
489.6034876315753
 30
0.0
 10
192.8744951275803
 20
489.598587631699
 30
0.0
 10
192.8744951275803
 20
489.598587631699
 30
0.0
 10
192.8744951275803
 20
489.598587631699
 30
0.0
 10
192.8744951275803
 20
489.598587631699
 30
0.0
 10
192.8744951275803
 20
489.598587631699
 30
0.0
 10
192.8744951275803
 20
489.598587631699
 30
0.0
 10
192.8739999999998
 20
489.5951876317849
 30
0.0
 10
192.8739999999998
 20
489.5951876317849
 30
0.0
 10
192.8739999999998
 20
489.5951876317849
 30
0.0
 10
192.8739999999998
 20
489.5902876319087
 30
0.0
 10
192.8739999999998
 20
489.5902876319087
 30
0.0
 10
192.8739999999998
 20
489.5902876319087
 30
0.0
 10
192.8739999999998
 20
489.5858876320199
 30
0.0
 10
192.8739999999998
 20
489.5858876320199
 30
0.0
 10
192.8739999999998
 20
489.5858876320199
 30
0.0
 10
192.8725951276283
 20
489.5810876321411
 30
0.0
 10
192.8725951276283
 20
489.5810876321411
 30
0.0
 10
192.8725951276283
 20
489.5810876321411
 30
0.0
 10
192.8725951276283
 20
489.5775876322296
 30
0.0
 10
192.8725951276283
 20
489.5775876322296
 30
0.0
 10
192.8725951276283
 20
489.5775876322296
 30
0.0
 10
192.8720951276409
 20
489.5727876323508
 30
0.0
 10
192.8720951276409
 20
489.5727876323508
 30
0.0
 10
192.8720951276409
 20
489.5727876323508
 30
0.0
 10
192.8720951276409
 20
489.5678876324746
 30
0.0
 10
192.8720951276409
 20
489.5678876324746
 30
0.0
 10
192.8720951276409
 20
489.5678876324746
 30
0.0
 10
192.8720951276409
 20
489.5644876325605
 30
0.0
 10
192.8720951276409
 20
489.5644876325605
 30
0.0
 10
192.8720951276409
 20
489.5644876325605
 30
0.0
 10
192.8720951276409
 20
489.5644876325605
 30
0.0
 10
192.8720951276409
 20
489.5644876325605
 30
0.0
 10
192.8720951276409
 20
489.5644876325605
 30
0.0
 10
192.8705951276788
 20
489.5600876326716
 30
0.0
 10
192.8705951276788
 20
489.5600876326716
 30
0.0
 10
192.8705951276788
 20
489.5600876326716
 30
0.0
 10
192.8705951276788
 20
489.5551876327954
 30
0.0
 10
192.8705951276788
 20
489.5551876327954
 30
0.0
 10
192.8705951276788
 20
489.5551876327954
 30
0.0
 10
192.8700951276915
 20
489.5512876328939
 30
0.0
 10
192.8700951276915
 20
489.5512876328939
 30
0.0
 10
192.8700951276915
 20
489.5512876328939
 30
0.0
 10
192.8700951276915
 20
489.5468876330051
 30
0.0
 10
192.8700951276915
 20
489.5468876330051
 30
0.0
 10
192.8700951276915
 20
489.5468876330051
 30
0.0
 10
192.8700951276915
 20
489.5424876331163
 30
0.0
 10
192.8700951276915
 20
489.5424876331163
 30
0.0
 10
192.8700951276915
 20
489.5424876331163
 30
0.0
 10
192.8690951277167
 20
489.5385876332148
 30
0.0
 10
192.8690951277167
 20
489.5385876332148
 30
0.0
 10
192.8690951277167
 20
489.5385876332148
 30
0.0
 10
192.8690951277167
 20
489.5336876333386
 30
0.0
 10
192.8690951277167
 20
489.5336876333386
 30
0.0
 10
192.8690951277167
 20
489.5336876333386
 30
0.0
 10
192.8690951277167
 20
489.5302876334245
 30
0.0
 10
192.8690951277167
 20
489.5302876334245
 30
0.0
 10
192.8690951277167
 20
489.5302876334245
 30
0.0
 10
192.8690951277167
 20
489.5292876334497
 30
0.0
 10
192.8690951277167
 20
489.5292876334497
 30
0.0
 10
192.8690951277167
 20
489.5292876334497
 30
0.0
 10
192.8681951277395
 20
489.5258876335356
 30
0.0
 10
192.8681951277395
 20
489.5258876335356
 30
0.0
 10
192.8681951277395
 20
489.5258876335356
 30
0.0
 10
192.8681951277395
 20
489.5209999999997
 30
0.0
 10
192.8681951277395
 20
489.5209999999997
 30
0.0
 10
192.8681951277395
 20
489.5209999999997
 30
0.0
 10
192.8671951277647
 20
489.5160876337832
 30
0.0
 10
192.8671951277647
 20
489.5160876337832
 30
0.0
 10
192.8671951277647
 20
489.5160876337832
 30
0.0
 10
192.8671951277647
 20
489.5126876338691
 30
0.0
 10
192.8671951277647
 20
489.5126876338691
 30
0.0
 10
192.8671951277647
 20
489.5126876338691
 30
0.0
 10
192.8671951277647
 20
489.5082876339802
 30
0.0
 10
192.8671951277647
 20
489.5082876339802
 30
0.0
 10
192.8671951277647
 20
489.5082876339802
 30
0.0
 10
192.86619512779
 20
489.503387634104
 30
0.0
 10
192.86619512779
 20
489.503387634104
 30
0.0
 10
192.86619512779
 20
489.503387634104
 30
0.0
 10
192.86619512779
 20
489.4994876342025
 30
0.0
 10
192.86619512779
 20
489.4994876342025
 30
0.0
 10
192.86619512779
 20
489.4994876342025
 30
0.0
 10
192.86619512779
 20
489.4965876342758
 30
0.0
 10
192.86619512779
 20
489.4965876342758
 30
0.0
 10
192.86619512779
 20
489.4965876342758
 30
0.0
 10
192.8651951278152
 20
489.4901876344375
 30
0.0
 10
192.8651951278152
 20
489.4901876344375
 30
0.0
 10
192.8651951278152
 20
489.4901876344375
 30
0.0
 10
192.8651951278152
 20
489.4867876345234
 30
0.0
 10
192.8651951278152
 20
489.4867876345234
 30
0.0
 10
192.8651951278152
 20
489.4867876345234
 30
0.0
 10
192.8651951278152
 20
489.4818876346471
 30
0.0
 10
192.8651951278152
 20
489.4818876346471
 30
0.0
 10
192.8651951278152
 20
489.4818876346471
 30
0.0
 10
192.864295127838
 20
489.4774876347583
 30
0.0
 10
192.864295127838
 20
489.4774876347583
 30
0.0
 10
192.864295127838
 20
489.4774876347583
 30
0.0
 10
192.864295127838
 20
489.4735876348568
 30
0.0
 10
192.864295127838
 20
489.4735876348568
 30
0.0
 10
192.864295127838
 20
489.4735876348568
 30
0.0
 10
192.864295127838
 20
489.4687876349781
 30
0.0
 10
192.864295127838
 20
489.4687876349781
 30
0.0
 10
192.864295127838
 20
489.4687876349781
 30
0.0
 10
192.8632951278632
 20
489.4643876350892
 30
0.0
 10
192.8632951278632
 20
489.4643876350892
 30
0.0
 10
192.8632951278632
 20
489.4643876350892
 30
0.0
 10
192.8632951278632
 20
489.4628876351271
 30
0.0
 10
192.8632951278632
 20
489.4628876351271
 30
0.0
 10
192.8632951278632
 20
489.4628876351271
 30
0.0
 10
192.8632951278632
 20
489.4608876351776
 30
0.0
 10
192.8632951278632
 20
489.4608876351776
 30
0.0
 10
192.8632951278632
 20
489.4608876351776
 30
0.0
 10
192.8632951278632
 20
489.4560876352989
 30
0.0
 10
192.8632951278632
 20
489.4560876352989
 30
0.0
 10
192.8632951278632
 20
489.4560876352989
 30
0.0
 10
192.8627951278759
 20
489.4520876353999
 30
0.0
 10
192.8627951278759
 20
489.4520876353999
 30
0.0
 10
192.8627951278759
 20
489.4520876353999
 30
0.0
 10
192.8627951278759
 20
489.4477876355086
 30
0.0
 10
192.8627951278759
 20
489.4477876355086
 30
0.0
 10
192.8627951278759
 20
489.4477876355086
 30
0.0
 10
192.8627951278759
 20
489.4428876356324
 30
0.0
 10
192.8627951278759
 20
489.4428876356324
 30
0.0
 10
192.8627951278759
 20
489.4428876356324
 30
0.0
 10
192.8617951279011
 20
489.4390000000003
 30
0.0
 10
192.8617951279011
 20
489.4390000000003
 30
0.0
 10
192.8617951279011
 20
489.4390000000003
 30
0.0
 10
192.8607951279264
 20
489.4179999999997
 30
0.0
 10
192.8607951279264
 20
489.4179999999997
 30
0.0
 10
192.8607951279264
 20
489.4179999999997
 30
0.0
 10
192.8598951279491
 20
489.4135876363725
 30
0.0
 10
192.8598951279491
 20
489.4135876363725
 30
0.0
 10
192.8598951279491
 20
489.4135876363725
 30
0.0
 10
192.8598951279491
 20
489.4086876364963
 30
0.0
 10
192.8598951279491
 20
489.4086876364963
 30
0.0
 10
192.8598951279491
 20
489.4086876364963
 30
0.0
 10
192.8598951279491
 20
489.4052876365822
 30
0.0
 10
192.8598951279491
 20
489.4052876365822
 30
0.0
 10
192.8598951279491
 20
489.4052876365822
 30
0.0
 10
192.8588951279744
 20
489.4008876366934
 30
0.0
 10
192.8588951279744
 20
489.4008876366934
 30
0.0
 10
192.8588951279744
 20
489.4008876366934
 30
0.0
 10
192.8588951279744
 20
489.4008876366934
 30
0.0
 10
192.8588951279744
 20
489.4008876366934
 30
0.0
  0
SPLINE
  5
54
330
14
100
AcDbEntity
  8
Layer 1
370
     0
100
AcDbSpline
210
0.0
220
0.0
230
1.0
 70
    11
 71
     3
 72
    26
 73
    22
 74
     0
 42
0.000000001
 43
0.0000000001
 40
0.0
 40
0.0
 40
0.0
 40
0.0
 40
1.0
 40
1.0
 40
1.0
 40
2.0
 40
2.0
 40
2.0
 40
3.0
 40
3.0
 40
3.0
 40
4.0
 40
4.0
 40
4.0
 40
5.0
 40
5.0
 40
5.0
 40
6.0
 40
6.0
 40
6.0
 40
7.0
 40
7.0
 40
7.0
 40
7.0
 10
213.0346946182908
 20
487.7938876772896
 30
0.0
 10
213.0346946182908
 20
487.7938876772896
 30
0.0
 10
207.2587947642023
 20
487.7938876772896
 30
0.0
 10
207.2587947642023
 20
487.7938876772896
 30
0.0
 10
207.2562947642655
 20
487.7968876772138
 30
0.0
 10
207.2553947642882
 20
487.7992876771532
 30
0.0
 10
207.252394764364
 20
487.8012876771027
 30
0.0
 10
206.7133947779803
 20
486.3187877145538
 30
0.0
 10
205.4101948109019
 20
485.6405877316865
 30
0.0
 10
204.0951948441216
 20
484.9755877484859
 30
0.0
 10
204.0951948441216
 20
484.9755877484859
 30
0.0
 10
204.5043948337843
 20
484.477087761079
 30
0.0
 10
204.5043948337843
 20
484.477087761079
 30
0.0
 10
207.4589999999998
 20
484.477087761079
 30
0.0
 10
209.8241946993949
 20
484.477087761079
 30
0.0
 10
212.7787946247554
 20
484.477087761079
 30
0.0
 10
213.2543946127407
 20
485.583487733129
 30
0.0
 10
213.3476946103838
 20
486.6890000000003
 30
0.0
 10
213.0346946182908
 20
487.7938876772896
 30
0.0
 10
213.0346946182908
 20
487.7938876772896
 30
0.0
 10
213.0346946182908
 20
487.7938876772896
 30
0.0
 10
213.0346946182908
 20
487.7938876772896
 30
0.0
  0
HATCH
  5
55
330
14
100
AcDbEntity
  8
Layer 1
 62
     7
100
AcDbHatch
 10
0.0
 20
0.0
 30
0.0
210
0.0
220
0.0
230
1.0
  2
SOLID
 70
     1
 71
     0
 91
        9
 92
        1
 93
        1
 72
     4
 94
        3
 73
     0
 74
     1
 95
      272
 96
      268
 40
0.0
 40
0.0
 40
0.0
 40
0.0
 40
1.0
 40
1.0
 40
1.0
 40
2.0
 40
2.0
 40
2.0
 40
3.0
 40
3.0
 40
3.0
 40
4.0
 40
4.0
 40
4.0
 40
5.0
 40
5.0
 40
5.0
 40
6.0
 40
6.0
 40
6.0
 40
7.0
 40
7.0
 40
7.0
 40
8.0
 40
8.0
 40
8.0
 40
9.0
 40
9.0
 40
9.0
 40
10.0
 40
10.0
 40
10.0
 40
11.0
 40
11.0
 40
11.0
 40
12.0
 40
12.0
 40
12.0
 40
13.0
 40
13.0
 40
13.0
 40
14.0
 40
14.0
 40
14.0
 40
15.0
 40
15.0
 40
15.0
 40
16.0
 40
16.0
 40
16.0
 40
17.0
 40
17.0
 40
17.0
 40
18.0
 40
18.0
 40
18.0
 40
19.0
 40
19.0
 40
19.0
 40
20.0
 40
20.0
 40
20.0
 40
21.0
 40
21.0
 40
21.0
 40
22.0
 40
22.0
 40
22.0
 40
23.0
 40
23.0
 40
23.0
 40
24.0
 40
24.0
 40
24.0
 40
25.0
 40
25.0
 40
25.0
 40
26.0
 40
26.0
 40
26.0
 40
27.0
 40
27.0
 40
27.0
 40
28.0
 40
28.0
 40
28.0
 40
29.0
 40
29.0
 40
29.0
 40
30.0
 40
30.0
 40
30.0
 40
31.0
 40
31.0
 40
31.0
 40
32.0
 40
32.0
 40
32.0
 40
33.0
 40
33.0
 40
33.0
 40
34.0
 40
34.0
 40
34.0
 40
35.0
 40
35.0
 40
35.0
 40
36.0
 40
36.0
 40
36.0
 40
37.0
 40
37.0
 40
37.0
 40
38.0
 40
38.0
 40
38.0
 40
39.0
 40
39.0
 40
39.0
 40
40.0
 40
40.0
 40
40.0
 40
41.0
 40
41.0
 40
41.0
 40
42.0
 40
42.0
 40
42.0
 40
43.0
 40
43.0
 40
43.0
 40
44.0
 40
44.0
 40
44.0
 40
45.0
 40
45.0
 40
45.0
 40
46.0
 40
46.0
 40
46.0
 40
47.0
 40
47.0
 40
47.0
 40
48.0
 40
48.0
 40
48.0
 40
49.0
 40
49.0
 40
49.0
 40
50.0
 40
50.0
 40
50.0
 40
51.0
 40
51.0
 40
51.0
 40
52.0
 40
52.0
 40
52.0
 40
53.0
 40
53.0
 40
53.0
 40
54.0
 40
54.0
 40
54.0
 40
55.0
 40
55.0
 40
55.0
 40
56.0
 40
56.0
 40
56.0
 40
57.0
 40
57.0
 40
57.0
 40
58.0
 40
58.0
 40
58.0
 40
59.0
 40
59.0
 40
59.0
 40
60.0
 40
60.0
 40
60.0
 40
61.0
 40
61.0
 40
61.0
 40
62.0
 40
62.0
 40
62.0
 40
63.0
 40
63.0
 40
63.0
 40
64.0
 40
64.0
 40
64.0
 40
65.0
 40
65.0
 40
65.0
 40
66.0
 40
66.0
 40
66.0
 40
67.0
 40
67.0
 40
67.0
 40
68.0
 40
68.0
 40
68.0
 40
69.0
 40
69.0
 40
69.0
 40
70.0
 40
70.0
 40
70.0
 40
71.0
 40
71.0
 40
71.0
 40
72.0
 40
72.0
 40
72.0
 40
73.0
 40
73.0
 40
73.0
 40
74.0
 40
74.0
 40
74.0
 40
75.0
 40
75.0
 40
75.0
 40
76.0
 40
76.0
 40
76.0
 40
77.0
 40
77.0
 40
77.0
 40
78.0
 40
78.0
 40
78.0
 40
79.0
 40
79.0
 40
79.0
 40
80.0
 40
80.0
 40
80.0
 40
81.0
 40
81.0
 40
81.0
 40
82.0
 40
82.0
 40
82.0
 40
83.0
 40
83.0
 40
83.0
 40
84.0
 40
84.0
 40
84.0
 40
85.0
 40
85.0
 40
85.0
 40
86.0
 40
86.0
 40
86.0
 40
87.0
 40
87.0
 40
87.0
 40
88.0
 40
88.0
 40
88.0
 40
89.0
 40
89.0
 40
89.0
 40
89.0
 10
210.3476946861701
 20
495.1298874919667
 10
210.3476946861701
 20
495.1298874919667
 10
212.368194635128
 20
496.2475874637312
 10
212.368194635128
 20
496.2475874637312
 10
212.368194635128
 20
496.2475874637312
 10
211.5512946557647
 20
496.9735874453909
 10
211.5512946557647
 20
496.9735874453909
 10
211.5512946557647
 20
496.9735874453909
 10
210.4574946833964
 20
496.8197874492762
 10
210.4574946833964
 20
496.8197874492762
 10
210.4574946833964
 20
496.8197874492762
 10
210.5346946814461
 20
496.3900874601313
 10
210.5346946814461
 20
496.3900874601313
 10
210.5346946814461
 20
496.3900874601313
 10
209.9677946957672
 20
496.29
 10
209.9677946957672
 20
496.29
 10
209.9677946957672
 20
496.29
 10
209.9213946969394
 20
496.5502874560843
 10
209.9213946969394
 20
496.5502874560843
 10
209.9213946969394
 20
496.5502874560843
 10
207.9608947464658
 20
496.2030874648553
 10
207.9608947464658
 20
496.2030874648553
 10
207.9608947464658
 20
496.2030874648553
 10
207.8173947500909
 20
497.0145874443551
 10
207.8173947500909
 20
497.0145874443551
 10
207.8173947500909
 20
497.0145874443551
 10
209.777794700567
 20
497.3617874355841
 10
209.777794700567
 20
497.3617874355841
 10
209.777794700567
 20
497.3617874355841
 10
209.7230947019489
 20
497.6684874278362
 10
209.7230947019489
 20
497.6684874278362
 10
209.7230947019489
 20
497.6684874278362
 10
210.2904946876151
 20
497.7685874253075
 10
210.2904946876151
 20
497.7685874253075
 10
210.2904946876151
 20
497.7685874253075
 10
210.3559999999998
 20
497.3983874346595
 10
210.3559999999998
 20
497.3983874346595
 10
210.3559999999998
 20
497.3983874346595
 10
211.6049999999996
 20
497.5741874302184
 10
211.6049999999996
 20
497.5741874302184
 10
211.6049999999996
 20
497.5741874302184
 10
211.7392946510154
 20
497.5927874297486
 10
211.7392946510154
 20
497.5927874297486
 10
211.7392946510154
 20
497.5927874297486
 10
211.8402946484639
 20
497.5023874320323
 10
211.8402946484639
 20
497.5023874320323
 10
211.8402946484639
 20
497.5023874320323
 10
212.9130946213627
 20
496.5492874561096
 10
212.9130946213627
 20
496.5492874561096
 10
212.9130946213627
 20
496.5492874561096
 10
213.2421946130489
 20
496.7309999999998
 10
213.2421946130489
 20
496.7309999999998
 10
213.2421946130489
 20
496.7309999999998
 10
212.0912946421231
 20
501.2265873379511
 10
212.0912946421231
 20
501.2265873379511
 10
212.0912946421231
 20
501.2265873379511
 10
212.0512946431336
 20
501.3827873340051
 10
212.0512946431336
 20
501.3827873340051
 10
212.0512946431336
 20
501.3827873340051
 10
212.1645946402714
 20
501.5004873310318
 10
212.1645946402714
 20
501.5004873310318
 10
212.1645946402714
 20
501.5004873310318
 10
212.7704946249651
 20
502.1381873149221
 10
212.7704946249651
 20
502.1381873149221
 10
212.7704946249651
 20
502.1381873149221
 10
213.0102946189072
 20
502.3910873085333
 10
213.0102946189072
 20
502.3910873085333
 10
213.0102946189072
 20
502.3910873085333
 10
213.2187946136401
 20
502.1122873155764
 10
213.2187946136401
 20
502.1122873155764
 10
213.2187946136401
 20
502.1122873155764
 10
216.9267945199681
 20
497.1508874409119
 10
216.9267945199681
 20
497.1508874409119
 10
216.9267945199681
 20
497.1508874409119
 10
216.9140945202889
 20
497.1400874411847
 10
216.9140945202889
 20
497.1400874411847
 10
217.8090944976793
 20
496.5976874548869
 10
218.4926944804101
 20
495.8617874734773
 10
219.050294466324
 20
495.01218749494
 10
219.050294466324
 20
495.01218749494
 10
217.6864945007765
 20
492.6254875552331
 10
217.6864945007765
 20
492.6254875552331
 10
217.6864945007765
 20
492.6254875552331
 10
217.7221944998746
 20
492.5443875572819
 10
217.7221944998746
 20
492.5443875572819
 10
219.3920944576894
 20
493.0121875454643
 10
221.3285944087693
 20
492.6415875548264
 10
222.5507943778939
 20
491.6361875802249
 10
222.5507943778939
 20
491.6361875802249
 10
222.2392943857631
 20
491.1068875935962
 10
222.2392943857631
 20
491.1068875935962
 10
222.6098943764009
 20
490.8886875991084
 10
222.9506943677916
 20
490.6244876057826
 10
223.2538943601321
 20
490.3217876134295
 10
224.1693943370046
 20
489.406287636557
 10
224.7353943227063
 20
488.1420876684933
 10
224.7353943227063
 20
486.7460877037593
 10
224.7353943227063
 20
485.3495877390378
 10
224.1693943370046
 20
484.085
 10
223.2538943601321
 20
483.1698877941017
 10
222.3383943832596
 20
482.2553878172039
 10
221.0736944152086
 20
481.6890000000003
 10
219.6771944504871
 20
481.6890000000003
 10
218.2812944857505
 20
481.6890000000003
 10
217.0175945176743
 20
482.2553878172039
 10
216.1020945408018
 20
483.1698877941017
 10
215.328594560342
 20
483.942887774574
 10
214.8051945735642
 20
484.9662877487208
 10
214.6605945772171
 20
486.1068877199068
 10
214.4696945820397
 20
486.1981877176004
 10
214.2685945871199
 20
486.289087715304
 10
214.1030000000001
 20
486.3817877129623
 10
214.0453945927584
 20
485.6415877316613
 10
213.9877945942135
 20
484.9008877503729
 10
213.9315945956332
 20
484.1620877690366
 10
213.9237945958303
 20
484.0712877713304
 10
213.9174945959894
 20
483.9804877736242
 10
213.9101945961738
 20
483.8895877759205
 10
213.8192945984702
 20
483.8895877759205
 10
213.7294946007387
 20
483.8895877759205
 10
213.6386946030325
 20
483.8895877759205
 10
213.6386946030325
 20
483.8895877759205
 10
204.3671948372503
 20
483.8895877759205
 10
204.3671948372503
 20
483.8895877759205
 10
204.3671948372503
 20
483.8895877759205
 10
204.2290000000003
 20
483.8895877759205
 10
204.2290000000003
 20
483.8895877759205
 10
204.2290000000003
 20
483.8895877759205
 10
204.141094842962
 20
483.9970877732048
 10
204.141094842962
 20
483.9970877732048
 10
204.141094842962
 20
483.9970877732048
 10
203.5043948590464
 20
484.7714877536418
 10
203.5043948590464
 20
484.7714877536418
 10
203.5043948590464
 20
484.7714877536418
 10
201.825694901454
 20
484.7714877536418
 10
201.825694901454
 20
484.7714877536418
 10
201.5697949079185
 20
484.1693877688522
 10
201.2011949172302
 20
483.626487782567
 10
200.7445949287649
 20
483.1698877941017
 10
199.8290949518923
 20
482.2553878172039
 10
198.5653949838161
 20
481.6890000000003
 10
197.1688950190946
 20
481.6890000000003
 10
195.7728950543606
 20
481.6890000000003
 10
194.508295086307
 20
482.2553878172039
 10
193.5922951094472
 20
483.1698877941017
 10
193.0228951238314
 20
483.7401877796947
 10
192.5873951348331
 20
484.4467877618445
 10
192.3407951410627
 20
485.2357877419126
 10
192.3407951410627
 20
485.2357877419126
 10
191.4848951626846
 20
485.2357877419126
 10
191.4848951626846
 20
485.2357877419126
 10
191.4848951626846
 20
485.2357877419126
 10
191.1903951701242
 20
485.2357877419126
 10
191.1903951701242
 20
485.2357877419126
 10
191.1903951701242
 20
485.2357877419126
 10
191.1903951701242
 20
485.5297877344856
 10
191.1903951701242
 20
485.5297877344856
 10
191.1903951701242
 20
485.5297877344856
 10
191.1903951701242
 20
486.7055877047824
 10
191.1903951701242
 20
486.7055877047824
 10
191.1903951701242
 20
486.7055877047824
 10
191.1903951701242
 20
486.9989999999998
 10
191.1903951701242
 20
486.9989999999998
 10
191.1903951701242
 20
486.9989999999998
 10
191.4848951626846
 20
486.9989999999998
 10
191.4848951626846
 20
486.9989999999998
 10
191.4848951626846
 20
486.9989999999998
 10
192.1176951466987
 20
486.9989999999998
 10
192.1176951466987
 20
486.9989999999998
 10
192.1371951462061
 20
487.3788876877734
 10
192.1972951446878
 20
487.7475876784592
 10
192.295895142197
 20
488.1005876695417
 10
192.2807951425784
 20
488.2338876661743
 10
192.2694951428639
 20
488.3710876627083
 10
192.263195143023
 20
488.5121876591438
 10
192.2280000000001
 20
489.2548876403816
 10
192.3065951419267
 20
490.1034876189442
 10
192.492195137238
 20
491.0487875950639
 10
192.492195137238
 20
491.0487875950639
 10
192.5336951361896
 20
491.2611875896982
 10
192.5336951361896
 20
491.2611875896982
 10
192.5336951361896
 20
491.2611875896982
 10
192.7494951307381
 20
491.2841875891172
 10
192.7494951307381
 20
491.2841875891172
 10
192.7494951307381
 20
491.2841875891172
 10
192.8100951292072
 20
491.2904875889581
 10
192.8100951292072
 20
491.2904875889581
 10
192.8100951292072
 20
491.2904875889581
 10
192.7910000000002
 20
492.8500875495592
 10
192.7910000000002
 20
492.8500875495592
 10
192.7910000000002
 20
492.8500875495592
 10
192.84719512827
 20
492.8490875495845
 10
192.84719512827
 20
492.8490875495845
 10
192.84719512827
 20
492.8490875495845
 10
191.9936951498312
 20
493.6361875297007
 10
191.9936951498312
 20
493.6361875297007
 10
191.9936951498312
 20
493.6361875297007
 10
192.5141951366822
 20
498.1293874161929
 10
192.5141951366822
 20
498.1293874161929
 10
192.5141951366822
 20
498.1293874161929
 10
193.6513951079542
 20
498.5272874061411
 10
193.6513951079542
 20
498.5272874061411
 10
193.6513951079542
 20
498.5272874061411
 10
193.878895102207
 20
501.2299999999996
 10
193.878895102207
 20
501.2299999999996
 10
193.878895102207
 20
501.2299999999996
 10
195.4110950635004
 20
501.6776873265553
 10
195.4110950635004
 20
501.6776873265553
 10
195.4110950635004
 20
501.6776873265553
 10
195.9330950503136
 20
499.6918873767208
 10
195.9330950503136
 20
499.6918873767208
 10
195.9330950503136
 20
499.6918873767208
 10
196.3231950404588
 20
499.7895873742527
 10
196.9418950248291
 20
499.6596873775343
 10
197.5609999999997
 20
499.5287873808411
 10
198.4716949861831
 20
496.7938874499305
 10
198.5375949845184
 20
496.4687874581432
 10
198.6024949828789
 20
496.1430874663711
 10
197.6581950067339
 20
495.7851874754124
 10
197.6581950067339
 20
495.7851874754124
 10
197.6581950067339
 20
495.7851874754124
 10
198.1142949952118
 20
494.7426875017482
 10
198.1142949952118
 20
494.7426875017482
 10
198.1142949952118
 20
494.7426875017482
 10
198.7328949795847
 20
494.9706874959884
 10
199.0580949713694
 20
495.1337874918681
 10
199.3847949631163
 20
495.2963874877605
 10
201.5004949096692
 20
494.0263875198434
 10
201.8578949006405
 20
493.7011875280587
 10
202.0141948966921
 20
493.5595875316358
 10
201.9662948979021
 20
493.1361875423318
 10
201.8637949004915
 20
492.7016875533081
 10
201.8637949004915
 20
492.7016875533081
 10
204.803194826236
 20
493.3676875364836
 10
204.803194826236
 20
493.3676875364836
 10
205.3554948122837
 20
493.8417875245068
 10
205.9955947961134
 20
494.3378875119743
 10
206.6093947806075
 20
494.6239999999998
 10
206.8686947740571
 20
494.7455875016749
 10
207.1586947667311
 20
494.8393874993053
 10
207.4603947591095
 20
494.911087497494
 10
207.4603947591095
 20
494.911087497494
 10
207.4603947591095
 20
495.2440874890817
 10
207.4603947591095
 20
495.2440874890817
 10
207.4603947591095
 20
495.2440874890817
 10
207.1967947657686
 20
495.2440874890817
 10
207.1967947657686
 20
495.2440874890817
 10
207.1967947657686
 20
495.2440874890817
 10
207.1967947657686
 20
495.6952874776835
 10
207.1967947657686
 20
495.6952874776835
 10
207.1967947657686
 20
495.6952874776835
 10
209.0316947194151
 20
495.6952874776835
 10
209.0316947194151
 20
495.6952874776835
 10
209.0316947194151
 20
495.6952874776835
 10
209.0316947194151
 20
495.2440874890817
 10
209.0316947194151
 20
495.2440874890817
 10
209.0316947194151
 20
495.2440874890817
 10
208.7670947260995
 20
495.2440874890817
 10
208.7670947260995
 20
495.2440874890817
 10
208.7670947260995
 20
495.2440874890817
 10
208.7670947260995
 20
495.1068874925477
 10
208.7670947260995
 20
495.1068874925477
 10
209.4462947089414
 20
495.1596874912138
 10
210.0473946937564
 20
495.1440000000002
 10
210.3476946861701
 20
495.1298874919667
 10
210.3476946861701
 20
495.1298874919667
 10
210.3476946861701
 20
495.1298874919667
 10
210.3476946861701
 20
495.1298874919667
 97
        0
 92
        1
 93
        1
 72
     4
 94
        3
 73
     0
 74
     1
 95
       23
 96
       19
 40
0.0
 40
0.0
 40
0.0
 40
0.0
 40
1.0
 40
1.0
 40
1.0
 40
2.0
 40
2.0
 40
2.0
 40
3.0
 40
3.0
 40
3.0
 40
4.0
 40
4.0
 40
4.0
 40
5.0
 40
5.0
 40
5.0
 40
6.0
 40
6.0
 40
6.0
 40
6.0
 10
217.8061944977526
 20
493.8978875230896
 10
218.0185944923869
 20
494.2245875148365
 10
218.2313944870111
 20
494.5517875065707
 10
218.4433944816556
 20
494.8788874983074
 10
218.0595944913512
 20
495.4394874841455
 10
217.6030000000001
 20
495.915
 10
217.0741945162445
 20
496.3065874622407
 10
216.5351945298607
 20
496.2665874632512
 10
215.9955945434922
 20
496.2270874642491
 10
215.456494557111
 20
496.1869999999999
 10
215.4462945573687
 20
495.9491874712694
 10
215.4359999999997
 20
495.71
 10
215.4257945578865
 20
495.4711874833447
 10
216.2187945378537
 20
494.9467874965922
 10
217.0121945178107
 20
494.4223875098396
 10
217.8061944977526
 20
493.8978875230896
 10
217.8061944977526
 20
493.8978875230896
 10
217.8061944977526
 20
493.8978875230896
 10
217.8061944977526
 20
493.8978875230896
 97
        0
 92
        1
 93
        1
 72
     4
 94
        3
 73
     0
 74
     1
 95
       26
 96
       22
 40
0.0
 40
0.0
 40
0.0
 40
0.0
 40
1.0
 40
1.0
 40
1.0
 40
2.0
 40
2.0
 40
2.0
 40
3.0
 40
3.0
 40
3.0
 40
4.0
 40
4.0
 40
4.0
 40
5.0
 40
5.0
 40
5.0
 40
6.0
 40
6.0
 40
6.0
 40
7.0
 40
7.0
 40
7.0
 40
7.0
 10
213.0346946182908
 20
487.7938876772896
 10
213.0346946182908
 20
487.7938876772896
 10
207.2587947642023
 20
487.7938876772896
 10
207.2587947642023
 20
487.7938876772896
 10
207.2562947642655
 20
487.7968876772138
 10
207.2553947642882
 20
487.7992876771532
 10
207.252394764364
 20
487.8012876771027
 10
206.7133947779803
 20
486.3187877145538
 10
205.4101948109019
 20
485.6405877316865
 10
204.0951948441216
 20
484.9755877484859
 10
204.0951948441216
 20
484.9755877484859
 10
204.5043948337843
 20
484.477087761079
 10
204.5043948337843
 20
484.477087761079
 10
207.4589999999998
 20
484.477087761079
 10
209.8241946993949
 20
484.477087761079
 10
212.7787946247554
 20
484.477087761079
 10
213.2543946127407
 20
485.583487733129
 10
213.3476946103838
 20
486.6890000000003
 10
213.0346946182908
 20
487.7938876772896
 10
213.0346946182908
 20
487.7938876772896
 10
213.0346946182908
 20
487.7938876772896
 10
213.0346946182908
 20
487.7938876772896
 97
        0
 92
        1
 93
        1
 72
     4
 94
        3
 73
     0
 74
     1
 95
      230
 96
      226
 40
0.0
 40
0.0
 40
0.0
 40
0.0
 40
1.0
 40
1.0
 40
1.0
 40
2.0
 40
2.0
 40
2.0
 40
3.0
 40
3.0
 40
3.0
 40
4.0
 40
4.0
 40
4.0
 40
5.0
 40
5.0
 40
5.0
 40
6.0
 40
6.0
 40
6.0
 40
7.0
 40
7.0
 40
7.0
 40
8.0
 40
8.0
 40
8.0
 40
9.0
 40
9.0
 40
9.0
 40
10.0
 40
10.0
 40
10.0
 40
11.0
 40
11.0
 40
11.0
 40
12.0
 40
12.0
 40
12.0
 40
13.0
 40
13.0
 40
13.0
 40
14.0
 40
14.0
 40
14.0
 40
15.0
 40
15.0
 40
15.0
 40
16.0
 40
16.0
 40
16.0
 40
17.0
 40
17.0
 40
17.0
 40
18.0
 40
18.0
 40
18.0
 40
19.0
 40
19.0
 40
19.0
 40
20.0
 40
20.0
 40
20.0
 40
21.0
 40
21.0
 40
21.0
 40
22.0
 40
22.0
 40
22.0
 40
23.0
 40
23.0
 40
23.0
 40
24.0
 40
24.0
 40
24.0
 40
25.0
 40
25.0
 40
25.0
 40
26.0
 40
26.0
 40
26.0
 40
27.0
 40
27.0
 40
27.0
 40
28.0
 40
28.0
 40
28.0
 40
29.0
 40
29.0
 40
29.0
 40
30.0
 40
30.0
 40
30.0
 40
31.0
 40
31.0
 40
31.0
 40
32.0
 40
32.0
 40
32.0
 40
33.0
 40
33.0
 40
33.0
 40
34.0
 40
34.0
 40
34.0
 40
35.0
 40
35.0
 40
35.0
 40
36.0
 40
36.0
 40
36.0
 40
37.0
 40
37.0
 40
37.0
 40
38.0
 40
38.0
 40
38.0
 40
39.0
 40
39.0
 40
39.0
 40
40.0
 40
40.0
 40
40.0
 40
41.0
 40
41.0
 40
41.0
 40
42.0
 40
42.0
 40
42.0
 40
43.0
 40
43.0
 40
43.0
 40
44.0
 40
44.0
 40
44.0
 40
45.0
 40
45.0
 40
45.0
 40
46.0
 40
46.0
 40
46.0
 40
47.0
 40
47.0
 40
47.0
 40
48.0
 40
48.0
 40
48.0
 40
49.0
 40
49.0
 40
49.0
 40
50.0
 40
50.0
 40
50.0
 40
51.0
 40
51.0
 40
51.0
 40
52.0
 40
52.0
 40
52.0
 40
53.0
 40
53.0
 40
53.0
 40
54.0
 40
54.0
 40
54.0
 40
55.0
 40
55.0
 40
55.0
 40
56.0
 40
56.0
 40
56.0
 40
57.0
 40
57.0
 40
57.0
 40
58.0
 40
58.0
 40
58.0
 40
59.0
 40
59.0
 40
59.0
 40
60.0
 40
60.0
 40
60.0
 40
61.0
 40
61.0
 40
61.0
 40
62.0
 40
62.0
 40
62.0
 40
63.0
 40
63.0
 40
63.0
 40
64.0
 40
64.0
 40
64.0
 40
65.0
 40
65.0
 40
65.0
 40
66.0
 40
66.0
 40
66.0
 40
67.0
 40
67.0
 40
67.0
 40
68.0
 40
68.0
 40
68.0
 40
69.0
 40
69.0
 40
69.0
 40
70.0
 40
70.0
 40
70.0
 40
71.0
 40
71.0
 40
71.0
 40
72.0
 40
72.0
 40
72.0
 40
73.0
 40
73.0
 40
73.0
 40
74.0
 40
74.0
 40
74.0
 40
75.0
 40
75.0
 40
75.0
 40
75.0
 10
192.8588951279744
 20
489.4008876366934
 10
192.839395128467
 20
489.0976876443528
 10
192.8358951285554
 20
488.8100876516182
 10
192.8485951282346
 20
488.5395876584516
 10
192.8764951275298
 20
487.9403876735887
 10
192.9867951247434
 20
487.4223876866745
 10
193.1820951198097
 20
486.9916876975549
 10
193.1820951198097
 20
486.9916876975549
 10
199.5585949587257
 20
487.0336876964939
 10
199.5585949587257
 20
487.0336876964939
 10
199.7172949547166
 20
487.1205876942986
 10
199.8505949513492
 20
487.2338876914364
 10
199.9613949485502
 20
487.3695876880083
 10
200.0824949454909
 20
487.5150876843327
 10
200.1791949430481
 20
487.6864876800028
 10
200.2582949410498
 20
487.8778876751676
 10
200.2670949408275
 20
488.3783876625239
 10
200.1830949429495
 20
488.8686876501379
 10
199.9945949477114
 20
489.3451876381005
 10
199.8085949524102
 20
489.8140000000003
 10
199.5224949596377
 20
490.2714876147002
 10
199.1270000000004
 20
490.7162876034636
 10
198.1395949945727
 20
490.8432876002553
 10
197.1283950201178
 20
490.8988875988507
 10
196.0961950461933
 20
490.8944875989619
 10
195.0966950714428
 20
490.8910875990478
 10
194.0727950973087
 20
490.8300876005887
 10
193.0287951236824
 20
490.7235876032792
 10
192.9608951253977
 20
490.3549999999996
 10
192.9115951266431
 20
490.0028876214856
 10
192.8808951274186
 20
489.6693876299105
 10
192.8808951274186
 20
489.6693876299105
 10
192.8803951274313
 20
489.6674876299585
 10
192.8803951274313
 20
489.6674876299585
 10
192.8803951274313
 20
489.6674876299585
 10
192.8803951274313
 20
489.6645876300317
 10
192.8803951274313
 20
489.6645876300317
 10
192.8803951274313
 20
489.6645876300317
 10
192.8803951274313
 20
489.6596876301555
 10
192.8803951274313
 20
489.6596876301555
 10
192.8803951274313
 20
489.6596876301555
 10
192.8793951274565
 20
489.6562876302414
 10
192.8793951274565
 20
489.6562876302414
 10
192.8793951274565
 20
489.6562876302414
 10
192.8793951274565
 20
489.6513876303652
 10
192.8793951274565
 20
489.6513876303652
 10
192.8793951274565
 20
489.6513876303652
 10
192.8783951274818
 20
489.6469999999999
 10
192.8783951274818
 20
489.6469999999999
 10
192.8783951274818
 20
489.6469999999999
 10
192.8783951274818
 20
489.6425876305875
 10
192.8783951274818
 20
489.6425876305875
 10
192.8783951274818
 20
489.6425876305875
 10
192.877395127507
 20
489.6381876306987
 10
192.877395127507
 20
489.6381876306987
 10
192.877395127507
 20
489.6381876306987
 10
192.877395127507
 20
489.6337876308098
 10
192.877395127507
 20
489.6337876308098
 10
192.877395127507
 20
489.6337876308098
 10
192.877395127507
 20
489.6332876308225
 10
192.877395127507
 20
489.6332876308225
 10
192.877395127507
 20
489.6332876308225
 10
192.877395127507
 20
489.629387630921
 10
192.877395127507
 20
489.629387630921
 10
192.877395127507
 20
489.629387630921
 10
192.8764951275298
 20
489.6254876310195
 10
192.8764951275298
 20
489.6254876310195
 10
192.8764951275298
 20
489.6254876310195
 10
192.8764951275298
 20
489.6210876311306
 10
192.8764951275298
 20
489.6210876311306
 10
192.8764951275298
 20
489.6210876311306
 10
192.875495127555
 20
489.6161876312544
 10
192.875495127555
 20
489.6161876312544
 10
192.875495127555
 20
489.6161876312544
 10
192.875495127555
 20
489.6117876313656
 10
192.875495127555
 20
489.6117876313656
 10
192.875495127555
 20
489.6117876313656
 10
192.875495127555
 20
489.6078876314641
 10
192.875495127555
 20
489.6078876314641
 10
192.875495127555
 20
489.6078876314641
 10
192.8744951275803
 20
489.6034876315753
 10
192.8744951275803
 20
489.6034876315753
 10
192.8744951275803
 20
489.6034876315753
 10
192.8744951275803
 20
489.598587631699
 10
192.8744951275803
 20
489.598587631699
 10
192.8744951275803
 20
489.598587631699
 10
192.8744951275803
 20
489.598587631699
 10
192.8744951275803
 20
489.598587631699
 10
192.8744951275803
 20
489.598587631699
 10
192.8739999999998
 20
489.5951876317849
 10
192.8739999999998
 20
489.5951876317849
 10
192.8739999999998
 20
489.5951876317849
 10
192.8739999999998
 20
489.5902876319087
 10
192.8739999999998
 20
489.5902876319087
 10
192.8739999999998
 20
489.5902876319087
 10
192.8739999999998
 20
489.5858876320199
 10
192.8739999999998
 20
489.5858876320199
 10
192.8739999999998
 20
489.5858876320199
 10
192.8725951276283
 20
489.5810876321411
 10
192.8725951276283
 20
489.5810876321411
 10
192.8725951276283
 20
489.5810876321411
 10
192.8725951276283
 20
489.5775876322296
 10
192.8725951276283
 20
489.5775876322296
 10
192.8725951276283
 20
489.5775876322296
 10
192.8720951276409
 20
489.5727876323508
 10
192.8720951276409
 20
489.5727876323508
 10
192.8720951276409
 20
489.5727876323508
 10
192.8720951276409
 20
489.5678876324746
 10
192.8720951276409
 20
489.5678876324746
 10
192.8720951276409
 20
489.5678876324746
 10
192.8720951276409
 20
489.5644876325605
 10
192.8720951276409
 20
489.5644876325605
 10
192.8720951276409
 20
489.5644876325605
 10
192.8720951276409
 20
489.5644876325605
 10
192.8720951276409
 20
489.5644876325605
 10
192.8720951276409
 20
489.5644876325605
 10
192.8705951276788
 20
489.5600876326716
 10
192.8705951276788
 20
489.5600876326716
 10
192.8705951276788
 20
489.5600876326716
 10
192.8705951276788
 20
489.5551876327954
 10
192.8705951276788
 20
489.5551876327954
 10
192.8705951276788
 20
489.5551876327954
 10
192.8700951276915
 20
489.5512876328939
 10
192.8700951276915
 20
489.5512876328939
 10
192.8700951276915
 20
489.5512876328939
 10
192.8700951276915
 20
489.5468876330051
 10
192.8700951276915
 20
489.5468876330051
 10
192.8700951276915
 20
489.5468876330051
 10
192.8700951276915
 20
489.5424876331163
 10
192.8700951276915
 20
489.5424876331163
 10
192.8700951276915
 20
489.5424876331163
 10
192.8690951277167
 20
489.5385876332148
 10
192.8690951277167
 20
489.5385876332148
 10
192.8690951277167
 20
489.5385876332148
 10
192.8690951277167
 20
489.5336876333386
 10
192.8690951277167
 20
489.5336876333386
 10
192.8690951277167
 20
489.5336876333386
 10
192.8690951277167
 20
489.5302876334245
 10
192.8690951277167
 20
489.5302876334245
 10
192.8690951277167
 20
489.5302876334245
 10
192.8690951277167
 20
489.5292876334497
 10
192.8690951277167
 20
489.5292876334497
 10
192.8690951277167
 20
489.5292876334497
 10
192.8681951277395
 20
489.5258876335356
 10
192.8681951277395
 20
489.5258876335356
 10
192.8681951277395
 20
489.5258876335356
 10
192.8681951277395
 20
489.5209999999997
 10
192.8681951277395
 20
489.5209999999997
 10
192.8681951277395
 20
489.5209999999997
 10
192.8671951277647
 20
489.5160876337832
 10
192.8671951277647
 20
489.5160876337832
 10
192.8671951277647
 20
489.5160876337832
 10
192.8671951277647
 20
489.5126876338691
 10
192.8671951277647
 20
489.5126876338691
 10
192.8671951277647
 20
489.5126876338691
 10
192.8671951277647
 20
489.5082876339802
 10
192.8671951277647
 20
489.5082876339802
 10
192.8671951277647
 20
489.5082876339802
 10
192.86619512779
 20
489.503387634104
 10
192.86619512779
 20
489.503387634104
 10
192.86619512779
 20
489.503387634104
 10
192.86619512779
 20
489.4994876342025
 10
192.86619512779
 20
489.4994876342025
 10
192.86619512779
 20
489.4994876342025
 10
192.86619512779
 20
489.4965876342758
 10
192.86619512779
 20
489.4965876342758
 10
192.86619512779
 20
489.4965876342758
 10
192.8651951278152
 20
489.4901876344375
 10
192.8651951278152
 20
489.4901876344375
 10
192.8651951278152
 20
489.4901876344375
 10
192.8651951278152
 20
489.4867876345234
 10
192.8651951278152
 20
489.4867876345234
 10
192.8651951278152
 20
489.4867876345234
 10
192.8651951278152
 20
489.4818876346471
 10
192.8651951278152
 20
489.4818876346471
 10
192.8651951278152
 20
489.4818876346471
 10
192.864295127838
 20
489.4774876347583
 10
192.864295127838
 20
489.4774876347583
 10
192.864295127838
 20
489.4774876347583
 10
192.864295127838
 20
489.4735876348568
 10
192.864295127838
 20
489.4735876348568
 10
192.864295127838
 20
489.4735876348568
 10
192.864295127838
 20
489.4687876349781
 10
192.864295127838
 20
489.4687876349781
 10
192.864295127838
 20
489.4687876349781
 10
192.8632951278632
 20
489.4643876350892
 10
192.8632951278632
 20
489.4643876350892
 10
192.8632951278632
 20
489.4643876350892
 10
192.8632951278632
 20
489.4628876351271
 10
192.8632951278632
 20
489.4628876351271
 10
192.8632951278632
 20
489.4628876351271
 10
192.8632951278632
 20
489.4608876351776
 10
192.8632951278632
 20
489.4608876351776
 10
192.8632951278632
 20
489.4608876351776
 10
192.8632951278632
 20
489.4560876352989
 10
192.8632951278632
 20
489.4560876352989
 10
192.8632951278632
 20
489.4560876352989
 10
192.8627951278759
 20
489.4520876353999
 10
192.8627951278759
 20
489.4520876353999
 10
192.8627951278759
 20
489.4520876353999
 10
192.8627951278759
 20
489.4477876355086
 10
192.8627951278759
 20
489.4477876355086
 10
192.8627951278759
 20
489.4477876355086
 10
192.8627951278759
 20
489.4428876356324
 10
192.8627951278759
 20
489.4428876356324
 10
192.8627951278759
 20
489.4428876356324
 10
192.8617951279011
 20
489.4390000000003
 10
192.8617951279011
 20
489.4390000000003
 10
192.8617951279011
 20
489.4390000000003
 10
192.8607951279264
 20
489.4179999999997
 10
192.8607951279264
 20
489.4179999999997
 10
192.8607951279264
 20
489.4179999999997
 10
192.8598951279491
 20
489.4135876363725
 10
192.8598951279491
 20
489.4135876363725
 10
192.8598951279491
 20
489.4135876363725
 10
192.8598951279491
 20
489.4086876364963
 10
192.8598951279491
 20
489.4086876364963
 10
192.8598951279491
 20
489.4086876364963
 10
192.8598951279491
 20
489.4052876365822
 10
192.8598951279491
 20
489.4052876365822
 10
192.8598951279491
 20
489.4052876365822
 10
192.8588951279744
 20
489.4008876366934
 10
192.8588951279744
 20
489.4008876366934
 10
192.8588951279744
 20
489.4008876366934
 10
192.8588951279744
 20
489.4008876366934
 10
192.8588951279744
 20
489.4008876366934
 97
        0
 92
        1
 93
        1
 72
     4
 94
        3
 73
     0
 74
     1
 95
       23
 96
       19
 40
0.0
 40
0.0
 40
0.0
 40
0.0
 40
1.0
 40
1.0
 40
1.0
 40
2.0
 40
2.0
 40
2.0
 40
3.0
 40
3.0
 40
3.0
 40
4.0
 40
4.0
 40
4.0
 40
5.0
 40
5.0
 40
5.0
 40
6.0
 40
6.0
 40
6.0
 40
6.0
 10
194.5321950857033
 20
484.7714877536418
 10
194.6264950833211
 20
484.6464877567996
 10
194.7299999999996
 20
484.5282877597856
 10
194.8397950779326
 20
484.4164877626099
 10
195.435495062884
 20
483.8207877776586
 10
196.2592950420731
 20
483.4520877869727
 10
197.1688950190946
 20
483.4520877869727
 10
198.0775949961389
 20
483.4520877869727
 10
198.901394975328
 20
483.8207877776586
 10
199.4975949602667
 20
484.4164877626099
 10
199.6083949574677
 20
484.5282877597856
 10
199.7113949548657
 20
484.6464877567996
 10
199.8046949525087
 20
484.7714877536418
 10
199.8046949525087
 20
484.7714877536418
 10
194.5321950857033
 20
484.7714877536418
 10
194.5321950857033
 20
484.7714877536418
 10
194.5321950857033
 20
484.7714877536418
 10
194.5321950857033
 20
484.7714877536418
 10
194.5321950857033
 20
484.7714877536418
 97
        0
 92
        1
 93
        1
 72
     4
 94
        3
 73
     0
 74
     1
 95
       44
 96
       40
 40
0.0
 40
0.0
 40
0.0
 40
0.0
 40
1.0
 40
1.0
 40
1.0
 40
2.0
 40
2.0
 40
2.0
 40
3.0
 40
3.0
 40
3.0
 40
4.0
 40
4.0
 40
4.0
 40
5.0
 40
5.0
 40
5.0
 40
6.0
 40
6.0
 40
6.0
 40
7.0
 40
7.0
 40
7.0
 40
8.0
 40
8.0
 40
8.0
 40
9.0
 40
9.0
 40
9.0
 40
10.0
 40
10.0
 40
10.0
 40
11.0
 40
11.0
 40
11.0
 40
12.0
 40
12.0
 40
12.0
 40
13.0
 40
13.0
 40
13.0
 40
13.0
 10
220.461894430664
 20
489.9452876229407
 10
220.461894430664
 20
489.9452876229407
 10
219.0741944657202
 20
489.5258876335356
 10
219.0741944657202
 20
489.5258876335356
 10
219.0741944657202
 20
489.5258876335356
 10
220.2133944369416
 20
486.9848876977267
 10
220.2133944369416
 20
486.9848876977267
 10
220.2133944369416
 20
486.9848876977267
 10
219.1430944639797
 20
486.5067877098045
 10
219.1430944639797
 20
486.5067877098045
 10
219.1430944639797
 20
486.5067877098045
 10
217.9437944942765
 20
489.1835876421828
 10
217.9437944942765
 20
489.1835876421828
 10
217.9437944942765
 20
489.1835876421828
 10
217.2538945117049
 20
488.97508764745
 10
217.2538945117049
 20
488.97508764745
 10
216.7147945253237
 20
488.3886876622637
 10
216.3852945336475
 20
487.6059999999998
 10
216.3852945336475
 20
486.7460877037593
 10
216.3852945336475
 20
485.8363877267402
 10
216.7533945243486
 20
485.0126877475486
 10
217.3490945092999
 20
484.4164877626099
 10
217.9447944942513
 20
483.8207877776586
 10
218.7685944734403
 20
483.4520877869727
 10
219.6771944504871
 20
483.4520877869727
 10
220.5873944274936
 20
483.4520877869727
 10
221.4110944066852
 20
483.8207877776586
 10
222.0067943916365
 20
484.4164877626099
 10
222.6024943765879
 20
485.0126877475486
 10
222.9711943672737
 20
485.8363877267402
 10
222.9711943672737
 20
486.7460877037593
 10
222.9711943672737
 20
487.6547876808036
 10
222.6024943765879
 20
488.4784876599952
 10
222.0067943916365
 20
489.0741876449465
 10
221.5878944022188
 20
489.4931876343617
 10
221.0570944156279
 20
489.7997876266163
 10
220.461894430664
 20
489.9452876229407
 10
220.461894430664
 20
489.9452876229407
 10
220.461894430664
 20
489.9452876229407
 10
220.461894430664
 20
489.9452876229407
 97
        0
 92
        1
 93
        1
 72
     4
 94
        3
 73
     0
 74
     1
 95
       32
 96
       28
 40
0.0
 40
0.0
 40
0.0
 40
0.0
 40
1.0
 40
1.0
 40
1.0
 40
2.0
 40
2.0
 40
2.0
 40
3.0
 40
3.0
 40
3.0
 40
4.0
 40
4.0
 40
4.0
 40
5.0
 40
5.0
 40
5.0
 40
6.0
 40
6.0
 40
6.0
 40
7.0
 40
7.0
 40
7.0
 40
8.0
 40
8.0
 40
8.0
 40
9.0
 40
9.0
 40
9.0
 40
9.0
 10
214.3002945863191
 20
497.3158874367437
 10
214.3002945863191
 20
497.3158874367437
 10
214.2055945887114
 20
497.5268874314133
 10
214.2055945887114
 20
497.5268874314133
 10
214.2055945887114
 20
497.5268874314133
 10
215.2768945616481
 20
498.004887419338
 10
215.2768945616481
 20
498.004887419338
 10
215.2768945616481
 20
498.004887419338
 10
215.3617945595033
 20
497.8130000000001
 10
215.3617945595033
 20
497.8130000000001
 10
215.5145945556433
 20
497.7694874252848
 10
215.6620945519171
 20
497.7211874265049
 10
215.8056945482895
 20
497.6693874278135
 10
215.8056945482895
 20
497.6693874278135
 10
212.955594620289
 20
501.4818873315016
 10
212.955594620289
 20
501.4818873315016
 10
212.955594620289
 20
501.4818873315016
 10
212.7006946267284
 20
501.2143873382593
 10
212.7006946267284
 20
501.2143873382593
 10
212.7006946267284
 20
501.2143873382593
 10
213.7738945996171
 20
497.0248874440949
 10
213.7738945996171
 20
497.0248874440949
 10
213.7738945996171
 20
497.0248874440949
 10
214.3002945863191
 20
497.3158874367437
 10
214.3002945863191
 20
497.3158874367437
 10
214.3002945863191
 20
497.3158874367437
 10
214.3002945863191
 20
497.3158874367437
 10
214.3002945863191
 20
497.3158874367437
 97
        0
 92
        1
 93
        1
 72
     4
 94
        3
 73
     0
 74
     1
 95
       77
 96
       73
 40
0.0
 40
0.0
 40
0.0
 40
0.0
 40
1.0
 40
1.0
 40
1.0
 40
2.0
 40
2.0
 40
2.0
 40
3.0
 40
3.0
 40
3.0
 40
4.0
 40
4.0
 40
4.0
 40
5.0
 40
5.0
 40
5.0
 40
6.0
 40
6.0
 40
6.0
 40
7.0
 40
7.0
 40
7.0
 40
8.0
 40
8.0
 40
8.0
 40
9.0
 40
9.0
 40
9.0
 40
10.0
 40
10.0
 40
10.0
 40
11.0
 40
11.0
 40
11.0
 40
12.0
 40
12.0
 40
12.0
 40
13.0
 40
13.0
 40
13.0
 40
14.0
 40
14.0
 40
14.0
 40
15.0
 40
15.0
 40
15.0
 40
16.0
 40
16.0
 40
16.0
 40
17.0
 40
17.0
 40
17.0
 40
18.0
 40
18.0
 40
18.0
 40
19.0
 40
19.0
 40
19.0
 40
20.0
 40
20.0
 40
20.0
 40
21.0
 40
21.0
 40
21.0
 40
22.0
 40
22.0
 40
22.0
 40
23.0
 40
23.0
 40
23.0
 40
24.0
 40
24.0
 40
24.0
 40
24.0
 10
192.1220951465875
 20
486.4115877122094
 10
192.1220951465875
 20
486.4115877122094
 10
191.77879515526
 20
486.4115877122094
 10
191.77879515526
 20
486.4115877122094
 10
191.77879515526
 20
486.4115877122094
 10
191.77879515526
 20
485.8231877270737
 10
191.77879515526
 20
485.8231877270737
 10
191.77879515526
 20
485.8231877270737
 10
192.1957951447257
 20
485.8231877270737
 10
192.1957951447257
 20
485.8231877270737
 10
192.1957951447257
 20
485.8231877270737
 10
201.5380949087194
 20
485.8231877270737
 10
201.5380949087194
 20
485.8231877270737
 10
201.5380949087194
 20
485.8231877270737
 10
201.5595949081762
 20
485.8241877270484
 10
201.5595949081762
 20
485.8241877270484
 10
201.8476949008982
 20
485.8353877267655
 10
202.1210948939915
 20
485.8554877262577
 10
202.3778948875042
 20
485.8861877254822
 10
202.6288948811634
 20
485.915487724742
 10
202.8540000000003
 20
485.955587723729
 10
203.0531948704447
 20
486.0038877225088
 10
203.2748948648441
 20
486.0575877211522
 10
203.4721948598599
 20
486.125
 10
203.6440000000002
 20
486.2060877174008
 10
203.807594851387
 20
486.2826877154657
 10
203.9452948479084
 20
486.3710877132326
 10
204.0585948450462
 20
486.4706877107164
 10
204.0585948450462
 20
486.4706877107164
 10
204.0575948450714
 20
486.4716877106912
 10
204.0575948450714
 20
486.4716877106912
 10
204.0575948450714
 20
486.4716877106912
 10
204.0863948443439
 20
486.4975877100369
 10
204.0863948443439
 20
486.4975877100369
 10
204.0863948443439
 20
486.4975877100369
 10
205.6049999999996
 20
488.097687669615
 10
205.6049999999996
 20
488.097687669615
 10
205.6049999999996
 20
488.097687669615
 10
205.1796948167248
 20
488.5023876593914
 10
205.1796948167248
 20
488.5023876593914
 10
205.1796948167248
 20
488.5023876593914
 10
203.6684948549009
 20
486.9096876996264
 10
203.6684948549009
 20
486.9096876996264
 10
203.6684948549009
 20
486.9096876996264
 10
203.6576948551738
 20
486.8969999999999
 10
203.6576948551738
 20
486.8969999999999
 10
203.6576948551738
 20
486.8969999999999
 10
203.6415948555805
 20
486.884287700268
 10
203.6415948555805
 20
486.884287700268
 10
203.5565948577278
 20
486.8153877020086
 10
203.450694860403
 20
486.754887703537
 10
203.3236948636113
 20
486.7020877048708
 10
203.2094948664962
 20
486.6542877060783
 10
203.0727948699496
 20
486.611787707152
 10
202.915
 20
486.5736877081144
 10
202.7280000000001
 20
486.5272877092866
 10
202.5204948839018
 20
486.4916877101859
 10
202.2963948895631
 20
486.4652877108529
 10
202.0785948950652
 20
486.4394877115046
 10
201.8324949012822
 20
486.4208877119745
 10
201.5595949081762
 20
486.4105877122347
 10
201.5595949081762
 20
486.4105877122347
 10
201.2558949158483
 20
486.3993877125176
 10
201.2558949158483
 20
486.3993877125176
 10
201.2558949158483
 20
486.3993877125176
 10
201.2558949158483
 20
486.4115877122094
 10
201.2558949158483
 20
486.4115877122094
 10
201.2558949158483
 20
486.4115877122094
 10
192.1220951465875
 20
486.4115877122094
 10
192.1220951465875
 20
486.4115877122094
 10
192.1220951465875
 20
486.4115877122094
 10
192.1220951465875
 20
486.4115877122094
 10
192.1220951465875
 20
486.4115877122094
 97
        0
 92
        1
 93
        1
 72
     4
 94
        3
 73
     0
 74
     1
 95
      521
 96
      517
 40
0.0
 40
0.0
 40
0.0
 40
0.0
 40
1.0
 40
1.0
 40
1.0
 40
2.0
 40
2.0
 40
2.0
 40
3.0
 40
3.0
 40
3.0
 40
4.0
 40
4.0
 40
4.0
 40
5.0
 40
5.0
 40
5.0
 40
6.0
 40
6.0
 40
6.0
 40
7.0
 40
7.0
 40
7.0
 40
8.0
 40
8.0
 40
8.0
 40
9.0
 40
9.0
 40
9.0
 40
10.0
 40
10.0
 40
10.0
 40
11.0
 40
11.0
 40
11.0
 40
12.0
 40
12.0
 40
12.0
 40
13.0
 40
13.0
 40
13.0
 40
14.0
 40
14.0
 40
14.0
 40
15.0
 40
15.0
 40
15.0
 40
16.0
 40
16.0
 40
16.0
 40
17.0
 40
17.0
 40
17.0
 40
18.0
 40
18.0
 40
18.0
 40
19.0
 40
19.0
 40
19.0
 40
20.0
 40
20.0
 40
20.0
 40
21.0
 40
21.0
 40
21.0
 40
22.0
 40
22.0
 40
22.0
 40
23.0
 40
23.0
 40
23.0
 40
24.0
 40
24.0
 40
24.0
 40
25.0
 40
25.0
 40
25.0
 40
26.0
 40
26.0
 40
26.0
 40
27.0
 40
27.0
 40
27.0
 40
28.0
 40
28.0
 40
28.0
 40
29.0
 40
29.0
 40
29.0
 40
30.0
 40
30.0
 40
30.0
 40
31.0
 40
31.0
 40
31.0
 40
32.0
 40
32.0
 40
32.0
 40
33.0
 40
33.0
 40
33.0
 40
34.0
 40
34.0
 40
34.0
 40
35.0
 40
35.0
 40
35.0
 40
36.0
 40
36.0
 40
36.0
 40
37.0
 40
37.0
 40
37.0
 40
38.0
 40
38.0
 40
38.0
 40
39.0
 40
39.0
 40
39.0
 40
40.0
 40
40.0
 40
40.0
 40
41.0
 40
41.0
 40
41.0
 40
42.0
 40
42.0
 40
42.0
 40
43.0
 40
43.0
 40
43.0
 40
44.0
 40
44.0
 40
44.0
 40
45.0
 40
45.0
 40
45.0
 40
46.0
 40
46.0
 40
46.0
 40
47.0
 40
47.0
 40
47.0
 40
48.0
 40
48.0
 40
48.0
 40
49.0
 40
49.0
 40
49.0
 40
50.0
 40
50.0
 40
50.0
 40
51.0
 40
51.0
 40
51.0
 40
52.0
 40
52.0
 40
52.0
 40
53.0
 40
53.0
 40
53.0
 40
54.0
 40
54.0
 40
54.0
 40
55.0
 40
55.0
 40
55.0
 40
56.0
 40
56.0
 40
56.0
 40
57.0
 40
57.0
 40
57.0
 40
58.0
 40
58.0
 40
58.0
 40
59.0
 40
59.0
 40
59.0
 40
60.0
 40
60.0
 40
60.0
 40
61.0
 40
61.0
 40
61.0
 40
62.0
 40
62.0
 40
62.0
 40
63.0
 40
63.0
 40
63.0
 40
64.0
 40
64.0
 40
64.0
 40
65.0
 40
65.0
 40
65.0
 40
66.0
 40
66.0
 40
66.0
 40
67.0
 40
67.0
 40
67.0
 40
68.0
 40
68.0
 40
68.0
 40
69.0
 40
69.0
 40
69.0
 40
70.0
 40
70.0
 40
70.0
 40
71.0
 40
71.0
 40
71.0
 40
72.0
 40
72.0
 40
72.0
 40
73.0
 40
73.0
 40
73.0
 40
74.0
 40
74.0
 40
74.0
 40
75.0
 40
75.0
 40
75.0
 40
76.0
 40
76.0
 40
76.0
 40
77.0
 40
77.0
 40
77.0
 40
78.0
 40
78.0
 40
78.0
 40
79.0
 40
79.0
 40
79.0
 40
80.0
 40
80.0
 40
80.0
 40
81.0
 40
81.0
 40
81.0
 40
82.0
 40
82.0
 40
82.0
 40
83.0
 40
83.0
 40
83.0
 40
84.0
 40
84.0
 40
84.0
 40
85.0
 40
85.0
 40
85.0
 40
86.0
 40
86.0
 40
86.0
 40
87.0
 40
87.0
 40
87.0
 40
88.0
 40
88.0
 40
88.0
 40
89.0
 40
89.0
 40
89.0
 40
90.0
 40
90.0
 40
90.0
 40
91.0
 40
91.0
 40
91.0
 40
92.0
 40
92.0
 40
92.0
 40
93.0
 40
93.0
 40
93.0
 40
94.0
 40
94.0
 40
94.0
 40
95.0
 40
95.0
 40
95.0
 40
96.0
 40
96.0
 40
96.0
 40
97.0
 40
97.0
 40
97.0
 40
98.0
 40
98.0
 40
98.0
 40
99.0
 40
99.0
 40
99.0
 40
100.0
 40
100.0
 40
100.0
 40
101.0
 40
101.0
 40
101.0
 40
102.0
 40
102.0
 40
102.0
 40
103.0
 40
103.0
 40
103.0
 40
104.0
 40
104.0
 40
104.0
 40
105.0
 40
105.0
 40
105.0
 40
106.0
 40
106.0
 40
106.0
 40
107.0
 40
107.0
 40
107.0
 40
108.0
 40
108.0
 40
108.0
 40
109.0
 40
109.0
 40
109.0
 40
110.0
 40
110.0
 40
110.0
 40
111.0
 40
111.0
 40
111.0
 40
112.0
 40
112.0
 40
112.0
 40
113.0
 40
113.0
 40
113.0
 40
114.0
 40
114.0
 40
114.0
 40
115.0
 40
115.0
 40
115.0
 40
116.0
 40
116.0
 40
116.0
 40
117.0
 40
117.0
 40
117.0
 40
118.0
 40
118.0
 40
118.0
 40
119.0
 40
119.0
 40
119.0
 40
120.0
 40
120.0
 40
120.0
 40
121.0
 40
121.0
 40
121.0
 40
122.0
 40
122.0
 40
122.0
 40
123.0
 40
123.0
 40
123.0
 40
124.0
 40
124.0
 40
124.0
 40
125.0
 40
125.0
 40
125.0
 40
126.0
 40
126.0
 40
126.0
 40
127.0
 40
127.0
 40
127.0
 40
128.0
 40
128.0
 40
128.0
 40
129.0
 40
129.0
 40
129.0
 40
130.0
 40
130.0
 40
130.0
 40
131.0
 40
131.0
 40
131.0
 40
132.0
 40
132.0
 40
132.0
 40
133.0
 40
133.0
 40
133.0
 40
134.0
 40
134.0
 40
134.0
 40
135.0
 40
135.0
 40
135.0
 40
136.0
 40
136.0
 40
136.0
 40
137.0
 40
137.0
 40
137.0
 40
138.0
 40
138.0
 40
138.0
 40
139.0
 40
139.0
 40
139.0
 40
140.0
 40
140.0
 40
140.0
 40
141.0
 40
141.0
 40
141.0
 40
142.0
 40
142.0
 40
142.0
 40
143.0
 40
143.0
 40
143.0
 40
144.0
 40
144.0
 40
144.0
 40
145.0
 40
145.0
 40
145.0
 40
146.0
 40
146.0
 40
146.0
 40
147.0
 40
147.0
 40
147.0
 40
148.0
 40
148.0
 40
148.0
 40
149.0
 40
149.0
 40
149.0
 40
150.0
 40
150.0
 40
150.0
 40
151.0
 40
151.0
 40
151.0
 40
152.0
 40
152.0
 40
152.0
 40
153.0
 40
153.0
 40
153.0
 40
154.0
 40
154.0
 40
154.0
 40
155.0
 40
155.0
 40
155.0
 40
156.0
 40
156.0
 40
156.0
 40
157.0
 40
157.0
 40
157.0
 40
158.0
 40
158.0
 40
158.0
 40
159.0
 40
159.0
 40
159.0
 40
160.0
 40
160.0
 40
160.0
 40
161.0
 40
161.0
 40
161.0
 40
162.0
 40
162.0
 40
162.0
 40
163.0
 40
163.0
 40
163.0
 40
164.0
 40
164.0
 40
164.0
 40
165.0
 40
165.0
 40
165.0
 40
166.0
 40
166.0
 40
166.0
 40
167.0
 40
167.0
 40
167.0
 40
168.0
 40
168.0
 40
168.0
 40
169.0
 40
169.0
 40
169.0
 40
170.0
 40
170.0
 40
170.0
 40
171.0
 40
171.0
 40
171.0
 40
172.0
 40
172.0
 40
172.0
 40
172.0
 10
205.4286948104345
 20
490.8095876011066
 10
205.4286948104345
 20
490.8095876011066
 10
205.5121948083251
 20
490.8168876009222
 10
205.5121948083251
 20
490.8168876009222
 10
205.5121948083251
 20
490.8168876009222
 10
205.5971948061779
 20
490.8246876007252
 10
205.5971948061779
 20
490.8246876007252
 10
205.5971948061779
 20
490.8246876007252
 10
205.6742948042302
 20
490.8310876005635
 10
205.6742948042302
 20
490.8310876005635
 10
205.6742948042302
 20
490.8310876005635
 10
205.6835948039952
 20
490.8320000000003
 10
205.6835948039952
 20
490.8320000000003
 10
205.6835948039952
 20
490.8320000000003
 10
205.7704948017999
 20
490.8393876003538
 10
205.7704948017999
 20
490.8393876003538
 10
205.7704948017999
 20
490.8393876003538
 10
205.7724948017494
 20
490.8393876003538
 10
205.7724948017494
 20
490.8393876003538
 10
205.7724948017494
 20
490.8393876003538
 10
205.9486947972982
 20
490.8563875999243
 10
205.9486947972982
 20
490.8563875999243
 10
205.9486947972982
 20
490.8563875999243
 10
206.0380947950398
 20
490.8642875997248
 10
206.0380947950398
 20
490.8642875997248
 10
206.0380947950398
 20
490.8642875997248
 10
206.1190947929936
 20
490.8715875995404
 10
206.1190947929936
 20
490.8715875995404
 10
206.1190947929936
 20
490.8715875995404
 10
206.1303947927081
 20
490.8725875995151
 10
206.1303947927081
 20
490.8725875995151
 10
206.1303947927081
 20
490.8725875995151
 10
206.1962947910433
 20
490.8793875993433
 10
206.1962947910433
 20
490.8793875993433
 10
206.1962947910433
 20
490.8793875993433
 10
206.222194790389
 20
490.8817875992827
 10
206.222194790389
 20
490.8817875992827
 10
206.222194790389
 20
490.8817875992827
 10
206.3153947880346
 20
490.8910875990478
 10
206.3153947880346
 20
490.8910875990478
 10
206.3153947880346
 20
490.8910875990478
 10
206.3314947876279
 20
490.8930875989972
 10
206.3314947876279
 20
490.8930875989972
 10
206.3314947876279
 20
490.8930875989972
 10
206.409194785665
 20
490.9003875988128
 10
206.409194785665
 20
490.9003875988128
 10
206.409194785665
 20
490.9003875988128
 10
206.468294784172
 20
490.9062875986638
 10
206.468294784172
 20
490.9062875986638
 10
206.468294784172
 20
490.9062875986638
 10
206.5038947832727
 20
490.9096875985779
 10
206.5038947832727
 20
490.9096875985779
 10
206.5038947832727
 20
490.9096875985779
 10
206.5990947808677
 20
490.9198875983202
 10
206.5990947808677
 20
490.9198875983202
 10
206.5990947808677
 20
490.9198875983202
 10
206.6063947806833
 20
490.9198875983202
 10
206.6063947806833
 20
490.9198875983202
 10
206.6063947806833
 20
490.9198875983202
 10
206.6942947784628
 20
490.9291875980853
 10
206.6942947784628
 20
490.9291875980853
 10
206.6942947784628
 20
490.9291875980853
 10
206.7450947771795
 20
490.9345875979488
 10
206.7450947771795
 20
490.9345875979488
 10
206.7450947771795
 20
490.9345875979488
 10
206.7895947760553
 20
490.9394875978251
 10
206.7895947760553
 20
490.9394875978251
 10
206.7895947760553
 20
490.9394875978251
 10
206.8852947736377
 20
490.9496875975674
 10
206.8852947736377
 20
490.9496875975674
 10
206.8852947736377
 20
490.9496875975674
 10
206.886194773615
 20
490.9496875975674
 10
206.886194773615
 20
490.9496875975674
 10
206.886194773615
 20
490.9496875975674
 10
206.9833947711595
 20
490.96
 10
206.9833947711595
 20
490.96
 10
206.9833947711595
 20
490.96
 10
207.0263947700732
 20
490.964387597196
 10
207.0263947700732
 20
490.964387597196
 10
207.0263947700732
 20
490.964387597196
 10
207.0795947687293
 20
490.9696875970621
 10
207.0795947687293
 20
490.9696875970621
 10
207.0795947687293
 20
490.9696875970621
 10
207.1679999999997
 20
490.9790000000003
 10
207.1679999999997
 20
490.9790000000003
 10
207.1679999999997
 20
490.9790000000003
 10
207.1771947662637
 20
490.9799999999996
 10
207.1771947662637
 20
490.9799999999996
 10
207.1771947662637
 20
490.9799999999996
 10
207.2743947638082
 20
490.9901875965443
 10
207.2743947638082
 20
490.9901875965443
 10
207.2743947638082
 20
490.9901875965443
 10
207.3085947629443
 20
490.9940875964458
 10
207.3085947629443
 20
490.9940875964458
 10
207.3085947629443
 20
490.9940875964458
 10
207.3715947613528
 20
491.0014875962588
 10
207.3715947613528
 20
491.0014875962588
 10
207.3715947613528
 20
491.0014875962588
 10
207.4506947593545
 20
491.0097875960491
 10
207.4506947593545
 20
491.0097875960491
 10
207.4506947593545
 20
491.0097875960491
 10
207.4687947588973
 20
491.0116875960011
 10
207.4687947588973
 20
491.0116875960011
 10
207.4687947588973
 20
491.0116875960011
 10
207.5658947564443
 20
491.0228875957182
 10
207.5658947564443
 20
491.0228875957182
 10
207.5658947564443
 20
491.0228875957182
 10
207.5922947557774
 20
491.0258875956424
 10
207.5922947557774
 20
491.0258875956424
 10
207.5922947557774
 20
491.0258875956424
 10
207.6635947539762
 20
491.0336875954454
 10
207.6635947539762
 20
491.0336875954454
 10
207.6635947539762
 20
491.0336875954454
 10
207.7328947522255
 20
491.0414875952483
 10
207.7328947522255
 20
491.0414875952483
 10
207.7328947522255
 20
491.0414875952483
 10
207.7606947515233
 20
491.0438875951877
 10
207.7606947515233
 20
491.0438875951877
 10
207.7606947515233
 20
491.0438875951877
 10
207.8573947490804
 20
491.0551875949022
 10
207.8573947490804
 20
491.0551875949022
 10
207.8573947490804
 20
491.0551875949022
 10
207.8739999999998
 20
491.0570875948542
 10
207.8739999999998
 20
491.0570875948542
 10
207.8739999999998
 20
491.0570875948542
 10
207.9535947466502
 20
491.0663875946193
 10
207.9535947466502
 20
491.0663875946193
 10
207.9535947466502
 20
491.0663875946193
 10
208.0141947451193
 20
491.0727875944576
 10
208.0141947451193
 20
491.0727875944576
 10
208.0141947451193
 20
491.0727875944576
 10
208.0487947442452
 20
491.0766875943591
 10
208.0487947442452
 20
491.0766875943591
 10
208.0487947442452
 20
491.0766875943591
 10
208.1440000000002
 20
491.0873875940888
 10
208.1440000000002
 20
491.0873875940888
 10
208.1440000000002
 20
491.0873875940888
 10
208.152794741618
 20
491.0883875940635
 10
208.152794741618
 20
491.0883875940635
 10
208.152794741618
 20
491.0883875940635
 10
208.2387947394454
 20
491.0985875938059
 10
208.2387947394454
 20
491.0985875938059
 10
208.2387947394454
 20
491.0985875938059
 10
208.29
 20
491.1040000000003
 10
208.29
 20
491.1040000000003
 10
208.29
 20
491.1040000000003
 10
208.3334947370531
 20
491.1088875935457
 10
208.3334947370531
 20
491.1088875935457
 10
208.3334947370531
 20
491.1088875935457
 10
208.4262947347088
 20
491.1200875932627
 10
208.4262947347088
 20
491.1200875932627
 10
208.4262947347088
 20
491.1200875932627
 10
208.4271947346861
 20
491.1200875932627
 10
208.4271947346861
 20
491.1200875932627
 10
208.4271947346861
 20
491.1200875932627
 10
208.5200000000004
 20
491.1312875929798
 10
208.5200000000004
 20
491.1312875929798
 10
208.5200000000004
 20
491.1312875929798
 10
208.5604947313186
 20
491.1356875928686
 10
208.5604947313186
 20
491.1356875928686
 10
208.5604947313186
 20
491.1356875928686
 10
208.6112947300353
 20
491.1410875927322
 10
208.6112947300353
 20
491.1410875927322
 10
208.6112947300353
 20
491.1410875927322
 10
208.6937947279512
 20
491.151387592472
 10
208.6937947279512
 20
491.151387592472
 10
208.6937947279512
 20
491.151387592472
 10
208.7020947277415
 20
491.1522875924493
 10
208.7020947277415
 20
491.1522875924493
 10
208.7020947277415
 20
491.1522875924493
 10
208.7920000000004
 20
491.1625875921891
 10
208.7920000000004
 20
491.1625875921891
 10
208.7920000000004
 20
491.1625875921891
 10
208.824194724657
 20
491.1664875920906
 10
208.824194724657
 20
491.1664875920906
 10
208.824194724657
 20
491.1664875920906
 10
208.8812947232145
 20
491.1737875919061
 10
208.8812947232145
 20
491.1737875919061
 10
208.8812947232145
 20
491.1737875919061
 10
208.952094721426
 20
491.1820875916965
 10
208.952094721426
 20
491.1820875916965
 10
208.952094721426
 20
491.1820875916965
 10
208.969194720994
 20
491.1840875916459
 10
208.969194720994
 20
491.1840875916459
 10
208.969194720994
 20
491.1840875916459
 10
209.0561947187962
 20
491.1942875913883
 10
209.0561947187962
 20
491.1942875913883
 10
209.0561947187962
 20
491.1942875913883
 10
209.0790947182177
 20
491.1972875913125
 10
209.0790947182177
 20
491.1972875913125
 10
209.0790947182177
 20
491.1972875913125
 10
209.1410947166514
 20
491.2045875911281
 10
209.1410947166514
 20
491.2045875911281
 10
209.1410947166514
 20
491.2045875911281
 10
209.2025947150978
 20
491.2118875909437
 10
209.2025947150978
 20
491.2118875909437
 10
209.2025947150978
 20
491.2118875909437
 10
209.2255947145168
 20
491.2143875908805
 10
209.2255947145168
 20
491.2143875908805
 10
209.2255947145168
 20
491.2143875908805
 10
209.3080947124326
 20
491.2245875906228
 10
209.3080947124326
 20
491.2245875906228
 10
209.3080947124326
 20
491.2245875906228
 10
209.3231947120512
 20
491.2265875905723
 10
209.3231947120512
 20
491.2265875905723
 10
209.3231947120512
 20
491.2265875905723
 10
209.3895947103738
 20
491.2338875903879
 10
209.3895947103738
 20
491.2338875903879
 10
209.3895947103738
 20
491.2338875903879
 10
209.4408947090778
 20
491.2406875902161
 10
209.4408947090778
 20
491.2406875902161
 10
209.4408947090778
 20
491.2406875902161
 10
209.4691947083629
 20
491.2440875901302
 10
209.4691947083629
 20
491.2440875901302
 10
209.4691947083629
 20
491.2440875901302
 10
209.5482947063647
 20
491.2533875898953
 10
209.5482947063647
 20
491.2533875898953
 10
209.5482947063647
 20
491.2533875898953
 10
209.554694706203
 20
491.25438758987
 10
209.554694706203
 20
491.25438758987
 10
209.554694706203
 20
491.25438758987
 10
209.625
 20
491.2626875896603
 10
209.625
 20
491.2626875896603
 10
209.625
 20
491.2626875896603
 10
209.665494703404
 20
491.2670875895492
 10
209.665494703404
 20
491.2670875895492
 10
209.665494703404
 20
491.2670875895492
 10
209.7001947025274
 20
491.2719999999999
 10
209.7001947025274
 20
491.2719999999999
 10
209.7001947025274
 20
491.2719999999999
 10
209.7724947007009
 20
491.2802875892157
 10
209.7724947007009
 20
491.2802875892157
 10
209.7724947007009
 20
491.2802875892157
 10
209.7728947006908
 20
491.2812875891905
 10
209.7728947006908
 20
491.2812875891905
 10
209.7728947006908
 20
491.2812875891905
 10
209.844694698877
 20
491.2895875889808
 10
209.844694698877
 20
491.2895875889808
 10
209.844694698877
 20
491.2895875889808
 10
209.8760000000002
 20
491.2934875888823
 10
209.8760000000002
 20
491.2934875888823
 10
209.8760000000002
 20
491.2934875888823
 10
209.9140946971238
 20
491.2978875887711
 10
209.9140946971238
 20
491.2978875887711
 10
209.9140946971238
 20
491.2978875887711
 10
209.9755946955702
 20
491.3056875885741
 10
209.9755946955702
 20
491.3056875885741
 10
209.9755946955702
 20
491.3056875885741
 10
209.9804946954464
 20
491.3061875885614
 10
209.9804946954464
 20
491.3061875885614
 10
209.9804946954464
 20
491.3061875885614
 10
210.0463946937816
 20
491.3144875883518
 10
210.0463946937816
 20
491.3144875883518
 10
210.0463946937816
 20
491.3144875883518
 10
210.0697946931905
 20
491.3173875882785
 10
210.0697946931905
 20
491.3173875882785
 10
210.0697946931905
 20
491.3173875882785
 10
210.1098946921775
 20
491.3222875881547
 10
210.1098946921775
 20
491.3222875881547
 10
210.1098946921775
 20
491.3222875881547
 10
210.1596946909194
 20
491.3285875879956
 10
210.1596946909194
 20
491.3285875879956
 10
210.1596946909194
 20
491.3285875879956
 10
210.1708946906365
 20
491.330587587945
 10
210.1708946906365
 20
491.330587587945
 10
210.1708946906365
 20
491.330587587945
 10
210.2299999999996
 20
491.3378875877606
 10
210.2299999999996
 20
491.3378875877606
 10
210.2299999999996
 20
491.3378875877606
 10
210.2455946887494
 20
491.3393875877227
 10
210.2455946887494
 20
491.3393875877227
 10
210.2455946887494
 20
491.3393875877227
 10
210.2865946877137
 20
491.3441875876015
 10
210.2865946877137
 20
491.3441875876015
 10
210.2865946877137
 20
491.3441875876015
 10
210.3261946867133
 20
491.3485875874903
 10
210.3261946867133
 20
491.3485875874903
 10
210.3261946867133
 20
491.3485875874903
 10
210.3407946863445
 20
491.3505875874398
 10
210.3407946863445
 20
491.3505875874398
 10
210.3407946863445
 20
491.3505875874398
 10
210.3930946850232
 20
491.3568875872807
 10
210.3930946850232
 20
491.3568875872807
 10
210.3930946850232
 20
491.3568875872807
 10
210.4013946848136
 20
491.3588875872301
 10
210.4013946848136
 20
491.3588875872301
 10
210.4013946848136
 20
491.3588875872301
 10
210.4423946837778
 20
491.3637875871063
 10
210.4423946837778
 20
491.3637875871063
 10
210.4423946837778
 20
491.3637875871063
 10
210.4716946830376
 20
491.3676875870078
 10
210.4716946830376
 20
491.3676875870078
 10
210.4716946830376
 20
491.3676875870078
 10
210.4887946826057
 20
491.3690875869725
 10
210.4887946826057
 20
491.3690875869725
 10
210.4887946826057
 20
491.3690875869725
 10
210.5326946814967
 20
491.375
 10
210.5326946814967
 20
491.375
 10
210.5326946814967
 20
491.375
 10
210.5365946813981
 20
491.3760000000002
 10
210.5365946813981
 20
491.3760000000002
 10
210.5365946813981
 20
491.3760000000002
 10
210.5736946804609
 20
491.380387586687
 10
210.5736946804609
 20
491.380387586687
 10
210.5736946804609
 20
491.380387586687
 10
210.5951946799178
 20
491.3832875866137
 10
210.5951946799178
 20
491.3832875866137
 10
210.5951946799178
 20
491.3832875866137
 10
210.6127946794732
 20
491.3852875865632
 10
210.6127946794732
 20
491.3852875865632
 10
210.6127946794732
 20
491.3852875865632
 10
210.6478946785865
 20
491.3895875864546
 10
210.6478946785865
 20
491.3895875864546
 10
210.8051946746127
 20
491.9130875732299
 10
210.8793946727383
 20
492.435087560043
 10
210.8422946736755
 20
492.9545875469194
 10
210.8051946746127
 20
493.4828875335734
 10
210.6537946784374
 20
494.0116875202148
 10
210.3559999999998
 20
494.5414875068309
 10
209.8192946995187
 20
494.569787506116
 10
207.9843947458721
 20
494.6195875048579
 10
206.8563947743678
 20
494.0932875181534
 10
206.8563947743678
 20
494.0932875181534
 10
206.835
 20
494.0829999999996
 10
206.835
 20
494.0829999999996
 10
206.835
 20
494.0829999999996
 10
206.8241947751812
 20
494.0770875185626
 10
206.8241947751812
 20
494.0770875185626
 10
206.8241947751812
 20
494.0770875185626
 10
206.8187947753177
 20
494.075687518598
 10
206.8187947753177
 20
494.075687518598
 10
206.8187947753177
 20
494.075687518598
 10
206.7807947762776
 20
494.0570875190679
 10
206.7807947762776
 20
494.0570875190679
 10
206.7807947762776
 20
494.0570875190679
 10
206.7797947763029
 20
494.0561875190906
 10
206.7797947763029
 20
494.0561875190906
 10
206.7543947769445
 20
494.0443875193887
 10
206.7294947775736
 20
494.0312875197196
 10
206.7035947782279
 20
494.0170875200783
 10
206.7035947782279
 20
494.0170875200783
 10
206.7016947782759
 20
494.0160875201036
 10
206.7016947782759
 20
494.0160875201036
 10
206.7016947782759
 20
494.0160875201036
 10
206.6903947785613
 20
494.01068752024
 10
206.6903947785613
 20
494.01068752024
 10
206.6903947785613
 20
494.01068752024
 10
206.6684947791146
 20
493.9984875205482
 10
206.6684947791146
 20
493.9984875205482
 10
206.6684947791146
 20
493.9984875205482
 10
206.6654947791903
 20
493.9970875205836
 10
206.6654947791903
 20
493.9970875205836
 10
206.6654947791903
 20
493.9970875205836
 10
206.6566947794126
 20
493.9921875207074
 10
206.6566947794126
 20
493.9921875207074
 10
206.6566947794126
 20
493.9921875207074
 10
206.6454947796956
 20
493.9867875208438
 10
206.6454947796956
 20
493.9867875208438
 10
206.6454947796956
 20
493.9867875208438
 10
206.6342947799785
 20
493.9799999999996
 10
206.6342947799785
 20
493.9799999999996
 10
206.6342947799785
 20
493.9799999999996
 10
206.6270000000004
 20
493.9765875211015
 10
206.6270000000004
 20
493.9765875211015
 10
206.6270000000004
 20
493.9765875211015
 10
206.6229999999996
 20
493.9735875211773
 10
206.6229999999996
 20
493.9735875211773
 10
206.6229999999996
 20
493.9735875211773
 10
206.5917947810522
 20
493.9560875216193
 10
206.5917947810522
 20
493.9560875216193
 10
206.5917947810522
 20
493.9560875216193
 10
206.5897947811027
 20
493.955587521632
 10
206.5897947811027
 20
493.955587521632
 10
206.5897947811027
 20
493.955587521632
 10
206.5878947811507
 20
493.9540875216699
 10
206.5878947811507
 20
493.9540875216699
 10
206.5878947811507
 20
493.9540875216699
 10
206.5785947813856
 20
493.9486875218063
 10
206.5785947813856
 20
493.9486875218063
 10
206.5785947813856
 20
493.9486875218063
 10
206.5551947819768
 20
493.9354875221397
 10
206.5551947819768
 20
493.9354875221397
 10
206.5551947819768
 20
493.9354875221397
 10
206.5487947821384
 20
493.9320875222256
 10
206.5487947821384
 20
493.9320875222256
 10
206.5487947821384
 20
493.9320875222256
 10
206.5106947831009
 20
493.9096875227915
 10
206.5106947831009
 20
493.9096875227915
 10
206.5106947831009
 20
493.9096875227915
 10
206.4989999999998
 20
493.9032875229532
 10
206.4989999999998
 20
493.9032875229532
 10
206.4989999999998
 20
493.9032875229532
 10
206.4877947836794
 20
493.896487523125
 10
206.4877947836794
 20
493.896487523125
 10
206.4877947836794
 20
493.896487523125
 10
206.4765947839624
 20
493.8895875232993
 10
206.4765947839624
 20
493.8895875232993
 10
206.4765947839624
 20
493.8895875232993
 10
206.4716947840861
 20
493.8861875233852
 10
206.4716947840861
 20
493.8861875233852
 10
206.4716947840861
 20
493.8861875233852
 10
206.4652947842478
 20
493.8832875234584
 10
206.4652947842478
 20
493.8832875234584
 10
206.4652947842478
 20
493.8832875234584
 10
206.4545947845181
 20
493.8754875236555
 10
206.4545947845181
 20
493.8754875236555
 10
206.4545947845181
 20
493.8754875236555
 10
206.4423947848263
 20
493.8690875238171
 10
206.4423947848263
 20
493.8690875238171
 10
206.4423947848263
 20
493.8690875238171
 10
206.4320947850865
 20
493.8627875239763
 10
206.4320947850865
 20
493.8627875239763
 10
206.4320947850865
 20
493.8627875239763
 10
206.4315947850992
 20
493.8627875239763
 10
206.4315947850992
 20
493.8627875239763
 10
206.4315947850992
 20
493.8627875239763
 10
206.4203947853821
 20
493.8549999999996
 10
206.4203947853821
 20
493.8549999999996
 10
206.4203947853821
 20
493.8549999999996
 10
206.409194785665
 20
493.848587524335
 10
206.409194785665
 20
493.848587524335
 10
206.409194785665
 20
493.848587524335
 10
206.3969999999999
 20
493.8412875245194
 10
206.3969999999999
 20
493.8412875245194
 10
206.3969999999999
 20
493.8412875245194
 10
206.3930947860717
 20
493.8383875245927
 10
206.3930947860717
 20
493.8383875245927
 10
206.3930947860717
 20
493.8383875245927
 10
206.3856947862587
 20
493.8334875247165
 10
206.3856947862587
 20
493.8334875247165
 10
206.3856947862587
 20
493.8334875247165
 10
206.3744947865416
 20
493.8270875248782
 10
206.3744947865416
 20
493.8270875248782
 10
206.3744947865416
 20
493.8270875248782
 10
206.3637947868119
 20
493.8202875250499
 10
206.3637947868119
 20
493.8202875250499
 10
206.3637947868119
 20
493.8202875250499
 10
206.3544947870469
 20
493.8144875251965
 10
206.3544947870469
 20
493.8144875251965
 10
206.3544947870469
 20
493.8144875251965
 10
206.3515947871201
 20
493.812487525247
 10
206.3515947871201
 20
493.812487525247
 10
206.3515947871201
 20
493.812487525247
 10
206.3402947874056
 20
493.8051875254314
 10
206.3402947874056
 20
493.8051875254314
 10
206.3402947874056
 20
493.8051875254314
 10
206.3295947876759
 20
493.7978875256158
 10
206.3295947876759
 20
493.7978875256158
 10
206.3295947876759
 20
493.7978875256158
 10
206.3178947879715
 20
493.7914875257775
 10
206.3178947879715
 20
493.7914875257775
 10
206.3178947879715
 20
493.7914875257775
 10
206.3153947880346
 20
493.7890875258381
 10
206.3153947880346
 20
493.7890875258381
 10
206.3153947880346
 20
493.7890875258381
 10
206.306194788267
 20
493.7836875259745
 10
206.306194788267
 20
493.7836875259745
 10
206.306194788267
 20
493.7836875259745
 10
206.2948947885525
 20
493.7763875261589
 10
206.2948947885525
 20
493.7763875261589
 10
206.2948947885525
 20
493.7763875261589
 10
206.2836947888354
 20
493.7690000000002
 10
206.2836947888354
 20
493.7690000000002
 10
206.2836947888354
 20
493.7690000000002
 10
206.2768947890072
 20
493.7631875264924
 10
206.2768947890072
 20
493.7631875264924
 10
206.2768947890072
 20
493.7631875264924
 10
206.2728947891082
 20
493.7611875265429
 10
206.2728947891082
 20
493.7611875265429
 10
206.2728947891082
 20
493.7611875265429
 10
206.2606947894164
 20
493.7543875267147
 10
206.2606947894164
 20
493.7543875267147
 10
206.2606947894164
 20
493.7543875267147
 10
206.2494947896994
 20
493.745587526937
 10
206.2494947896994
 20
493.745587526937
 10
206.2494947896994
 20
493.745587526937
 10
206.2274947902552
 20
493.7309999999998
 10
206.2274947902552
 20
493.7309999999998
 10
206.2274947902552
 20
493.7309999999998
 10
206.2152947905633
 20
493.7235875274928
 10
206.2152947905633
 20
493.7235875274928
 10
206.2152947905633
 20
493.7235875274928
 10
206.2045947908337
 20
493.7162875276772
 10
206.2045947908337
 20
493.7162875276772
 10
206.2045947908337
 20
493.7162875276772
 10
206.1928947911292
 20
493.7079999999996
 10
206.1928947911292
 20
493.7079999999996
 10
206.1928947911292
 20
493.7079999999996
 10
206.1811947914248
 20
493.7001875280839
 10
206.1811947914248
 20
493.7001875280839
 10
206.1811947914248
 20
493.7001875280839
 10
206.1698947917102
 20
493.6928875282683
 10
206.1698947917102
 20
493.6928875282683
 10
206.1698947917102
 20
493.6928875282683
 10
206.1586947919932
 20
493.684587528478
 10
206.1586947919932
 20
493.684587528478
 10
206.1586947919932
 20
493.684587528478
 10
206.1586947919932
 20
493.684587528478
 10
206.1586947919932
 20
493.684587528478
 10
206.1586947919932
 20
493.684587528478
 10
206.1474947922761
 20
493.6771875286649
 10
206.1474947922761
 20
493.6771875286649
 10
206.1474947922761
 20
493.6771875286649
 10
206.1356947925742
 20
493.6688875288746
 10
206.1356947925742
 20
493.6688875288746
 10
205.5434948075344
 20
493.2606875391866
 10
204.9570000000003
 20
492.7284875526311
 10
204.5116948335999
 20
492.3261875627941
 10
204.22509484084
 20
492.0668875693445
 10
203.9862948468726
 20
491.8500875748214
 10
203.7880948518796
 20
491.7343875777442
 10
203.7377948531503
 20
491.466287584517
 10
203.6576948551738
 20
490.871087599553
 10
203.8920948492523
 20
490.7709999999997
 10
204.0204948460087
 20
490.7162876034636
 10
204.6254948307251
 20
490.743187602784
 10
205.4286948104345
 20
490.8095876011066
 97
        0
 75
     0
 76
     1
 98
        0
  0
SPLINE
  5
56
330
14
100
AcDbEntity
  8
Layer 1
370
     0
100
AcDbSpline
210
0.0
220
0.0
230
1.0
 70
    11
 71
     3
 72
   521
 73
   517
 74
     0
 42
0.000000001
 43
0.0000000001
 40
0.0
 40
0.0
 40
0.0
 40
0.0
 40
1.0
 40
1.0
 40
1.0
 40
2.0
 40
2.0
 40
2.0
 40
3.0
 40
3.0
 40
3.0
 40
4.0
 40
4.0
 40
4.0
 40
5.0
 40
5.0
 40
5.0
 40
6.0
 40
6.0
 40
6.0
 40
7.0
 40
7.0
 40
7.0
 40
8.0
 40
8.0
 40
8.0
 40
9.0
 40
9.0
 40
9.0
 40
10.0
 40
10.0
 40
10.0
 40
11.0
 40
11.0
 40
11.0
 40
12.0
 40
12.0
 40
12.0
 40
13.0
 40
13.0
 40
13.0
 40
14.0
 40
14.0
 40
14.0
 40
15.0
 40
15.0
 40
15.0
 40
16.0
 40
16.0
 40
16.0
 40
17.0
 40
17.0
 40
17.0
 40
18.0
 40
18.0
 40
18.0
 40
19.0
 40
19.0
 40
19.0
 40
20.0
 40
20.0
 40
20.0
 40
21.0
 40
21.0
 40
21.0
 40
22.0
 40
22.0
 40
22.0
 40
23.0
 40
23.0
 40
23.0
 40
24.0
 40
24.0
 40
24.0
 40
25.0
 40
25.0
 40
25.0
 40
26.0
 40
26.0
 40
26.0
 40
27.0
 40
27.0
 40
27.0
 40
28.0
 40
28.0
 40
28.0
 40
29.0
 40
29.0
 40
29.0
 40
30.0
 40
30.0
 40
30.0
 40
31.0
 40
31.0
 40
31.0
 40
32.0
 40
32.0
 40
32.0
 40
33.0
 40
33.0
 40
33.0
 40
34.0
 40
34.0
 40
34.0
 40
35.0
 40
35.0
 40
35.0
 40
36.0
 40
36.0
 40
36.0
 40
37.0
 40
37.0
 40
37.0
 40
38.0
 40
38.0
 40
38.0
 40
39.0
 40
39.0
 40
39.0
 40
40.0
 40
40.0
 40
40.0
 40
41.0
 40
41.0
 40
41.0
 40
42.0
 40
42.0
 40
42.0
 40
43.0
 40
43.0
 40
43.0
 40
44.0
 40
44.0
 40
44.0
 40
45.0
 40
45.0
 40
45.0
 40
46.0
 40
46.0
 40
46.0
 40
47.0
 40
47.0
 40
47.0
 40
48.0
 40
48.0
 40
48.0
 40
49.0
 40
49.0
 40
49.0
 40
50.0
 40
50.0
 40
50.0
 40
51.0
 40
51.0
 40
51.0
 40
52.0
 40
52.0
 40
52.0
 40
53.0
 40
53.0
 40
53.0
 40
54.0
 40
54.0
 40
54.0
 40
55.0
 40
55.0
 40
55.0
 40
56.0
 40
56.0
 40
56.0
 40
57.0
 40
57.0
 40
57.0
 40
58.0
 40
58.0
 40
58.0
 40
59.0
 40
59.0
 40
59.0
 40
60.0
 40
60.0
 40
60.0
 40
61.0
 40
61.0
 40
61.0
 40
62.0
 40
62.0
 40
62.0
 40
63.0
 40
63.0
 40
63.0
 40
64.0
 40
64.0
 40
64.0
 40
65.0
 40
65.0
 40
65.0
 40
66.0
 40
66.0
 40
66.0
 40
67.0
 40
67.0
 40
67.0
 40
68.0
 40
68.0
 40
68.0
 40
69.0
 40
69.0
 40
69.0
 40
70.0
 40
70.0
 40
70.0
 40
71.0
 40
71.0
 40
71.0
 40
72.0
 40
72.0
 40
72.0
 40
73.0
 40
73.0
 40
73.0
 40
74.0
 40
74.0
 40
74.0
 40
75.0
 40
75.0
 40
75.0
 40
76.0
 40
76.0
 40
76.0
 40
77.0
 40
77.0
 40
77.0
 40
78.0
 40
78.0
 40
78.0
 40
79.0
 40
79.0
 40
79.0
 40
80.0
 40
80.0
 40
80.0
 40
81.0
 40
81.0
 40
81.0
 40
82.0
 40
82.0
 40
82.0
 40
83.0
 40
83.0
 40
83.0
 40
84.0
 40
84.0
 40
84.0
 40
85.0
 40
85.0
 40
85.0
 40
86.0
 40
86.0
 40
86.0
 40
87.0
 40
87.0
 40
87.0
 40
88.0
 40
88.0
 40
88.0
 40
89.0
 40
89.0
 40
89.0
 40
90.0
 40
90.0
 40
90.0
 40
91.0
 40
91.0
 40
91.0
 40
92.0
 40
92.0
 40
92.0
 40
93.0
 40
93.0
 40
93.0
 40
94.0
 40
94.0
 40
94.0
 40
95.0
 40
95.0
 40
95.0
 40
96.0
 40
96.0
 40
96.0
 40
97.0
 40
97.0
 40
97.0
 40
98.0
 40
98.0
 40
98.0
 40
99.0
 40
99.0
 40
99.0
 40
100.0
 40
100.0
 40
100.0
 40
101.0
 40
101.0
 40
101.0
 40
102.0
 40
102.0
 40
102.0
 40
103.0
 40
103.0
 40
103.0
 40
104.0
 40
104.0
 40
104.0
 40
105.0
 40
105.0
 40
105.0
 40
106.0
 40
106.0
 40
106.0
 40
107.0
 40
107.0
 40
107.0
 40
108.0
 40
108.0
 40
108.0
 40
109.0
 40
109.0
 40
109.0
 40
110.0
 40
110.0
 40
110.0
 40
111.0
 40
111.0
 40
111.0
 40
112.0
 40
112.0
 40
112.0
 40
113.0
 40
113.0
 40
113.0
 40
114.0
 40
114.0
 40
114.0
 40
115.0
 40
115.0
 40
115.0
 40
116.0
 40
116.0
 40
116.0
 40
117.0
 40
117.0
 40
117.0
 40
118.0
 40
118.0
 40
118.0
 40
119.0
 40
119.0
 40
119.0
 40
120.0
 40
120.0
 40
120.0
 40
121.0
 40
121.0
 40
121.0
 40
122.0
 40
122.0
 40
122.0
 40
123.0
 40
123.0
 40
123.0
 40
124.0
 40
124.0
 40
124.0
 40
125.0
 40
125.0
 40
125.0
 40
126.0
 40
126.0
 40
126.0
 40
127.0
 40
127.0
 40
127.0
 40
128.0
 40
128.0
 40
128.0
 40
129.0
 40
129.0
 40
129.0
 40
130.0
 40
130.0
 40
130.0
 40
131.0
 40
131.0
 40
131.0
 40
132.0
 40
132.0
 40
132.0
 40
133.0
 40
133.0
 40
133.0
 40
134.0
 40
134.0
 40
134.0
 40
135.0
 40
135.0
 40
135.0
 40
136.0
 40
136.0
 40
136.0
 40
137.0
 40
137.0
 40
137.0
 40
138.0
 40
138.0
 40
138.0
 40
139.0
 40
139.0
 40
139.0
 40
140.0
 40
140.0
 40
140.0
 40
141.0
 40
141.0
 40
141.0
 40
142.0
 40
142.0
 40
142.0
 40
143.0
 40
143.0
 40
143.0
 40
144.0
 40
144.0
 40
144.0
 40
145.0
 40
145.0
 40
145.0
 40
146.0
 40
146.0
 40
146.0
 40
147.0
 40
147.0
 40
147.0
 40
148.0
 40
148.0
 40
148.0
 40
149.0
 40
149.0
 40
149.0
 40
150.0
 40
150.0
 40
150.0
 40
151.0
 40
151.0
 40
151.0
 40
152.0
 40
152.0
 40
152.0
 40
153.0
 40
153.0
 40
153.0
 40
154.0
 40
154.0
 40
154.0
 40
155.0
 40
155.0
 40
155.0
 40
156.0
 40
156.0
 40
156.0
 40
157.0
 40
157.0
 40
157.0
 40
158.0
 40
158.0
 40
158.0
 40
159.0
 40
159.0
 40
159.0
 40
160.0
 40
160.0
 40
160.0
 40
161.0
 40
161.0
 40
161.0
 40
162.0
 40
162.0
 40
162.0
 40
163.0
 40
163.0
 40
163.0
 40
164.0
 40
164.0
 40
164.0
 40
165.0
 40
165.0
 40
165.0
 40
166.0
 40
166.0
 40
166.0
 40
167.0
 40
167.0
 40
167.0
 40
168.0
 40
168.0
 40
168.0
 40
169.0
 40
169.0
 40
169.0
 40
170.0
 40
170.0
 40
170.0
 40
171.0
 40
171.0
 40
171.0
 40
172.0
 40
172.0
 40
172.0
 40
172.0
 10
205.4286948104345
 20
490.8095876011066
 30
0.0
 10
205.4286948104345
 20
490.8095876011066
 30
0.0
 10
205.5121948083251
 20
490.8168876009222
 30
0.0
 10
205.5121948083251
 20
490.8168876009222
 30
0.0
 10
205.5121948083251
 20
490.8168876009222
 30
0.0
 10
205.5971948061779
 20
490.8246876007252
 30
0.0
 10
205.5971948061779
 20
490.8246876007252
 30
0.0
 10
205.5971948061779
 20
490.8246876007252
 30
0.0
 10
205.6742948042302
 20
490.8310876005635
 30
0.0
 10
205.6742948042302
 20
490.8310876005635
 30
0.0
 10
205.6742948042302
 20
490.8310876005635
 30
0.0
 10
205.6835948039952
 20
490.8320000000003
 30
0.0
 10
205.6835948039952
 20
490.8320000000003
 30
0.0
 10
205.6835948039952
 20
490.8320000000003
 30
0.0
 10
205.7704948017999
 20
490.8393876003538
 30
0.0
 10
205.7704948017999
 20
490.8393876003538
 30
0.0
 10
205.7704948017999
 20
490.8393876003538
 30
0.0
 10
205.7724948017494
 20
490.8393876003538
 30
0.0
 10
205.7724948017494
 20
490.8393876003538
 30
0.0
 10
205.7724948017494
 20
490.8393876003538
 30
0.0
 10
205.9486947972982
 20
490.8563875999243
 30
0.0
 10
205.9486947972982
 20
490.8563875999243
 30
0.0
 10
205.9486947972982
 20
490.8563875999243
 30
0.0
 10
206.0380947950398
 20
490.8642875997248
 30
0.0
 10
206.0380947950398
 20
490.8642875997248
 30
0.0
 10
206.0380947950398
 20
490.8642875997248
 30
0.0
 10
206.1190947929936
 20
490.8715875995404
 30
0.0
 10
206.1190947929936
 20
490.8715875995404
 30
0.0
 10
206.1190947929936
 20
490.8715875995404
 30
0.0
 10
206.1303947927081
 20
490.8725875995151
 30
0.0
 10
206.1303947927081
 20
490.8725875995151
 30
0.0
 10
206.1303947927081
 20
490.8725875995151
 30
0.0
 10
206.1962947910433
 20
490.8793875993433
 30
0.0
 10
206.1962947910433
 20
490.8793875993433
 30
0.0
 10
206.1962947910433
 20
490.8793875993433
 30
0.0
 10
206.222194790389
 20
490.8817875992827
 30
0.0
 10
206.222194790389
 20
490.8817875992827
 30
0.0
 10
206.222194790389
 20
490.8817875992827
 30
0.0
 10
206.3153947880346
 20
490.8910875990478
 30
0.0
 10
206.3153947880346
 20
490.8910875990478
 30
0.0
 10
206.3153947880346
 20
490.8910875990478
 30
0.0
 10
206.3314947876279
 20
490.8930875989972
 30
0.0
 10
206.3314947876279
 20
490.8930875989972
 30
0.0
 10
206.3314947876279
 20
490.8930875989972
 30
0.0
 10
206.409194785665
 20
490.9003875988128
 30
0.0
 10
206.409194785665
 20
490.9003875988128
 30
0.0
 10
206.409194785665
 20
490.9003875988128
 30
0.0
 10
206.468294784172
 20
490.9062875986638
 30
0.0
 10
206.468294784172
 20
490.9062875986638
 30
0.0
 10
206.468294784172
 20
490.9062875986638
 30
0.0
 10
206.5038947832727
 20
490.9096875985779
 30
0.0
 10
206.5038947832727
 20
490.9096875985779
 30
0.0
 10
206.5038947832727
 20
490.9096875985779
 30
0.0
 10
206.5990947808677
 20
490.9198875983202
 30
0.0
 10
206.5990947808677
 20
490.9198875983202
 30
0.0
 10
206.5990947808677
 20
490.9198875983202
 30
0.0
 10
206.6063947806833
 20
490.9198875983202
 30
0.0
 10
206.6063947806833
 20
490.9198875983202
 30
0.0
 10
206.6063947806833
 20
490.9198875983202
 30
0.0
 10
206.6942947784628
 20
490.9291875980853
 30
0.0
 10
206.6942947784628
 20
490.9291875980853
 30
0.0
 10
206.6942947784628
 20
490.9291875980853
 30
0.0
 10
206.7450947771795
 20
490.9345875979488
 30
0.0
 10
206.7450947771795
 20
490.9345875979488
 30
0.0
 10
206.7450947771795
 20
490.9345875979488
 30
0.0
 10
206.7895947760553
 20
490.9394875978251
 30
0.0
 10
206.7895947760553
 20
490.9394875978251
 30
0.0
 10
206.7895947760553
 20
490.9394875978251
 30
0.0
 10
206.8852947736377
 20
490.9496875975674
 30
0.0
 10
206.8852947736377
 20
490.9496875975674
 30
0.0
 10
206.8852947736377
 20
490.9496875975674
 30
0.0
 10
206.886194773615
 20
490.9496875975674
 30
0.0
 10
206.886194773615
 20
490.9496875975674
 30
0.0
 10
206.886194773615
 20
490.9496875975674
 30
0.0
 10
206.9833947711595
 20
490.96
 30
0.0
 10
206.9833947711595
 20
490.96
 30
0.0
 10
206.9833947711595
 20
490.96
 30
0.0
 10
207.0263947700732
 20
490.964387597196
 30
0.0
 10
207.0263947700732
 20
490.964387597196
 30
0.0
 10
207.0263947700732
 20
490.964387597196
 30
0.0
 10
207.0795947687293
 20
490.9696875970621
 30
0.0
 10
207.0795947687293
 20
490.9696875970621
 30
0.0
 10
207.0795947687293
 20
490.9696875970621
 30
0.0
 10
207.1679999999997
 20
490.9790000000003
 30
0.0
 10
207.1679999999997
 20
490.9790000000003
 30
0.0
 10
207.1679999999997
 20
490.9790000000003
 30
0.0
 10
207.1771947662637
 20
490.9799999999996
 30
0.0
 10
207.1771947662637
 20
490.9799999999996
 30
0.0
 10
207.1771947662637
 20
490.9799999999996
 30
0.0
 10
207.2743947638082
 20
490.9901875965443
 30
0.0
 10
207.2743947638082
 20
490.9901875965443
 30
0.0
 10
207.2743947638082
 20
490.9901875965443
 30
0.0
 10
207.3085947629443
 20
490.9940875964458
 30
0.0
 10
207.3085947629443
 20
490.9940875964458
 30
0.0
 10
207.3085947629443
 20
490.9940875964458
 30
0.0
 10
207.3715947613528
 20
491.0014875962588
 30
0.0
 10
207.3715947613528
 20
491.0014875962588
 30
0.0
 10
207.3715947613528
 20
491.0014875962588
 30
0.0
 10
207.4506947593545
 20
491.0097875960491
 30
0.0
 10
207.4506947593545
 20
491.0097875960491
 30
0.0
 10
207.4506947593545
 20
491.0097875960491
 30
0.0
 10
207.4687947588973
 20
491.0116875960011
 30
0.0
 10
207.4687947588973
 20
491.0116875960011
 30
0.0
 10
207.4687947588973
 20
491.0116875960011
 30
0.0
 10
207.5658947564443
 20
491.0228875957182
 30
0.0
 10
207.5658947564443
 20
491.0228875957182
 30
0.0
 10
207.5658947564443
 20
491.0228875957182
 30
0.0
 10
207.5922947557774
 20
491.0258875956424
 30
0.0
 10
207.5922947557774
 20
491.0258875956424
 30
0.0
 10
207.5922947557774
 20
491.0258875956424
 30
0.0
 10
207.6635947539762
 20
491.0336875954454
 30
0.0
 10
207.6635947539762
 20
491.0336875954454
 30
0.0
 10
207.6635947539762
 20
491.0336875954454
 30
0.0
 10
207.7328947522255
 20
491.0414875952483
 30
0.0
 10
207.7328947522255
 20
491.0414875952483
 30
0.0
 10
207.7328947522255
 20
491.0414875952483
 30
0.0
 10
207.7606947515233
 20
491.0438875951877
 30
0.0
 10
207.7606947515233
 20
491.0438875951877
 30
0.0
 10
207.7606947515233
 20
491.0438875951877
 30
0.0
 10
207.8573947490804
 20
491.0551875949022
 30
0.0
 10
207.8573947490804
 20
491.0551875949022
 30
0.0
 10
207.8573947490804
 20
491.0551875949022
 30
0.0
 10
207.8739999999998
 20
491.0570875948542
 30
0.0
 10
207.8739999999998
 20
491.0570875948542
 30
0.0
 10
207.8739999999998
 20
491.0570875948542
 30
0.0
 10
207.9535947466502
 20
491.0663875946193
 30
0.0
 10
207.9535947466502
 20
491.0663875946193
 30
0.0
 10
207.9535947466502
 20
491.0663875946193
 30
0.0
 10
208.0141947451193
 20
491.0727875944576
 30
0.0
 10
208.0141947451193
 20
491.0727875944576
 30
0.0
 10
208.0141947451193
 20
491.0727875944576
 30
0.0
 10
208.0487947442452
 20
491.0766875943591
 30
0.0
 10
208.0487947442452
 20
491.0766875943591
 30
0.0
 10
208.0487947442452
 20
491.0766875943591
 30
0.0
 10
208.1440000000002
 20
491.0873875940888
 30
0.0
 10
208.1440000000002
 20
491.0873875940888
 30
0.0
 10
208.1440000000002
 20
491.0873875940888
 30
0.0
 10
208.152794741618
 20
491.0883875940635
 30
0.0
 10
208.152794741618
 20
491.0883875940635
 30
0.0
 10
208.152794741618
 20
491.0883875940635
 30
0.0
 10
208.2387947394454
 20
491.0985875938059
 30
0.0
 10
208.2387947394454
 20
491.0985875938059
 30
0.0
 10
208.2387947394454
 20
491.0985875938059
 30
0.0
 10
208.29
 20
491.1040000000003
 30
0.0
 10
208.29
 20
491.1040000000003
 30
0.0
 10
208.29
 20
491.1040000000003
 30
0.0
 10
208.3334947370531
 20
491.1088875935457
 30
0.0
 10
208.3334947370531
 20
491.1088875935457
 30
0.0
 10
208.3334947370531
 20
491.1088875935457
 30
0.0
 10
208.4262947347088
 20
491.1200875932627
 30
0.0
 10
208.4262947347088
 20
491.1200875932627
 30
0.0
 10
208.4262947347088
 20
491.1200875932627
 30
0.0
 10
208.4271947346861
 20
491.1200875932627
 30
0.0
 10
208.4271947346861
 20
491.1200875932627
 30
0.0
 10
208.4271947346861
 20
491.1200875932627
 30
0.0
 10
208.5200000000004
 20
491.1312875929798
 30
0.0
 10
208.5200000000004
 20
491.1312875929798
 30
0.0
 10
208.5200000000004
 20
491.1312875929798
 30
0.0
 10
208.5604947313186
 20
491.1356875928686
 30
0.0
 10
208.5604947313186
 20
491.1356875928686
 30
0.0
 10
208.5604947313186
 20
491.1356875928686
 30
0.0
 10
208.6112947300353
 20
491.1410875927322
 30
0.0
 10
208.6112947300353
 20
491.1410875927322
 30
0.0
 10
208.6112947300353
 20
491.1410875927322
 30
0.0
 10
208.6937947279512
 20
491.151387592472
 30
0.0
 10
208.6937947279512
 20
491.151387592472
 30
0.0
 10
208.6937947279512
 20
491.151387592472
 30
0.0
 10
208.7020947277415
 20
491.1522875924493
 30
0.0
 10
208.7020947277415
 20
491.1522875924493
 30
0.0
 10
208.7020947277415
 20
491.1522875924493
 30
0.0
 10
208.7920000000004
 20
491.1625875921891
 30
0.0
 10
208.7920000000004
 20
491.1625875921891
 30
0.0
 10
208.7920000000004
 20
491.1625875921891
 30
0.0
 10
208.824194724657
 20
491.1664875920906
 30
0.0
 10
208.824194724657
 20
491.1664875920906
 30
0.0
 10
208.824194724657
 20
491.1664875920906
 30
0.0
 10
208.8812947232145
 20
491.1737875919061
 30
0.0
 10
208.8812947232145
 20
491.1737875919061
 30
0.0
 10
208.8812947232145
 20
491.1737875919061
 30
0.0
 10
208.952094721426
 20
491.1820875916965
 30
0.0
 10
208.952094721426
 20
491.1820875916965
 30
0.0
 10
208.952094721426
 20
491.1820875916965
 30
0.0
 10
208.969194720994
 20
491.1840875916459
 30
0.0
 10
208.969194720994
 20
491.1840875916459
 30
0.0
 10
208.969194720994
 20
491.1840875916459
 30
0.0
 10
209.0561947187962
 20
491.1942875913883
 30
0.0
 10
209.0561947187962
 20
491.1942875913883
 30
0.0
 10
209.0561947187962
 20
491.1942875913883
 30
0.0
 10
209.0790947182177
 20
491.1972875913125
 30
0.0
 10
209.0790947182177
 20
491.1972875913125
 30
0.0
 10
209.0790947182177
 20
491.1972875913125
 30
0.0
 10
209.1410947166514
 20
491.2045875911281
 30
0.0
 10
209.1410947166514
 20
491.2045875911281
 30
0.0
 10
209.1410947166514
 20
491.2045875911281
 30
0.0
 10
209.2025947150978
 20
491.2118875909437
 30
0.0
 10
209.2025947150978
 20
491.2118875909437
 30
0.0
 10
209.2025947150978
 20
491.2118875909437
 30
0.0
 10
209.2255947145168
 20
491.2143875908805
 30
0.0
 10
209.2255947145168
 20
491.2143875908805
 30
0.0
 10
209.2255947145168
 20
491.2143875908805
 30
0.0
 10
209.3080947124326
 20
491.2245875906228
 30
0.0
 10
209.3080947124326
 20
491.2245875906228
 30
0.0
 10
209.3080947124326
 20
491.2245875906228
 30
0.0
 10
209.3231947120512
 20
491.2265875905723
 30
0.0
 10
209.3231947120512
 20
491.2265875905723
 30
0.0
 10
209.3231947120512
 20
491.2265875905723
 30
0.0
 10
209.3895947103738
 20
491.2338875903879
 30
0.0
 10
209.3895947103738
 20
491.2338875903879
 30
0.0
 10
209.3895947103738
 20
491.2338875903879
 30
0.0
 10
209.4408947090778
 20
491.2406875902161
 30
0.0
 10
209.4408947090778
 20
491.2406875902161
 30
0.0
 10
209.4408947090778
 20
491.2406875902161
 30
0.0
 10
209.4691947083629
 20
491.2440875901302
 30
0.0
 10
209.4691947083629
 20
491.2440875901302
 30
0.0
 10
209.4691947083629
 20
491.2440875901302
 30
0.0
 10
209.5482947063647
 20
491.2533875898953
 30
0.0
 10
209.5482947063647
 20
491.2533875898953
 30
0.0
 10
209.5482947063647
 20
491.2533875898953
 30
0.0
 10
209.554694706203
 20
491.25438758987
 30
0.0
 10
209.554694706203
 20
491.25438758987
 30
0.0
 10
209.554694706203
 20
491.25438758987
 30
0.0
 10
209.625
 20
491.2626875896603
 30
0.0
 10
209.625
 20
491.2626875896603
 30
0.0
 10
209.625
 20
491.2626875896603
 30
0.0
 10
209.665494703404
 20
491.2670875895492
 30
0.0
 10
209.665494703404
 20
491.2670875895492
 30
0.0
 10
209.665494703404
 20
491.2670875895492
 30
0.0
 10
209.7001947025274
 20
491.2719999999999
 30
0.0
 10
209.7001947025274
 20
491.2719999999999
 30
0.0
 10
209.7001947025274
 20
491.2719999999999
 30
0.0
 10
209.7724947007009
 20
491.2802875892157
 30
0.0
 10
209.7724947007009
 20
491.2802875892157
 30
0.0
 10
209.7724947007009
 20
491.2802875892157
 30
0.0
 10
209.7728947006908
 20
491.2812875891905
 30
0.0
 10
209.7728947006908
 20
491.2812875891905
 30
0.0
 10
209.7728947006908
 20
491.2812875891905
 30
0.0
 10
209.844694698877
 20
491.2895875889808
 30
0.0
 10
209.844694698877
 20
491.2895875889808
 30
0.0
 10
209.844694698877
 20
491.2895875889808
 30
0.0
 10
209.8760000000002
 20
491.2934875888823
 30
0.0
 10
209.8760000000002
 20
491.2934875888823
 30
0.0
 10
209.8760000000002
 20
491.2934875888823
 30
0.0
 10
209.9140946971238
 20
491.2978875887711
 30
0.0
 10
209.9140946971238
 20
491.2978875887711
 30
0.0
 10
209.9140946971238
 20
491.2978875887711
 30
0.0
 10
209.9755946955702
 20
491.3056875885741
 30
0.0
 10
209.9755946955702
 20
491.3056875885741
 30
0.0
 10
209.9755946955702
 20
491.3056875885741
 30
0.0
 10
209.9804946954464
 20
491.3061875885614
 30
0.0
 10
209.9804946954464
 20
491.3061875885614
 30
0.0
 10
209.9804946954464
 20
491.3061875885614
 30
0.0
 10
210.0463946937816
 20
491.3144875883518
 30
0.0
 10
210.0463946937816
 20
491.3144875883518
 30
0.0
 10
210.0463946937816
 20
491.3144875883518
 30
0.0
 10
210.0697946931905
 20
491.3173875882785
 30
0.0
 10
210.0697946931905
 20
491.3173875882785
 30
0.0
 10
210.0697946931905
 20
491.3173875882785
 30
0.0
 10
210.1098946921775
 20
491.3222875881547
 30
0.0
 10
210.1098946921775
 20
491.3222875881547
 30
0.0
 10
210.1098946921775
 20
491.3222875881547
 30
0.0
 10
210.1596946909194
 20
491.3285875879956
 30
0.0
 10
210.1596946909194
 20
491.3285875879956
 30
0.0
 10
210.1596946909194
 20
491.3285875879956
 30
0.0
 10
210.1708946906365
 20
491.330587587945
 30
0.0
 10
210.1708946906365
 20
491.330587587945
 30
0.0
 10
210.1708946906365
 20
491.330587587945
 30
0.0
 10
210.2299999999996
 20
491.3378875877606
 30
0.0
 10
210.2299999999996
 20
491.3378875877606
 30
0.0
 10
210.2299999999996
 20
491.3378875877606
 30
0.0
 10
210.2455946887494
 20
491.3393875877227
 30
0.0
 10
210.2455946887494
 20
491.3393875877227
 30
0.0
 10
210.2455946887494
 20
491.3393875877227
 30
0.0
 10
210.2865946877137
 20
491.3441875876015
 30
0.0
 10
210.2865946877137
 20
491.3441875876015
 30
0.0
 10
210.2865946877137
 20
491.3441875876015
 30
0.0
 10
210.3261946867133
 20
491.3485875874903
 30
0.0
 10
210.3261946867133
 20
491.3485875874903
 30
0.0
 10
210.3261946867133
 20
491.3485875874903
 30
0.0
 10
210.3407946863445
 20
491.3505875874398
 30
0.0
 10
210.3407946863445
 20
491.3505875874398
 30
0.0
 10
210.3407946863445
 20
491.3505875874398
 30
0.0
 10
210.3930946850232
 20
491.3568875872807
 30
0.0
 10
210.3930946850232
 20
491.3568875872807
 30
0.0
 10
210.3930946850232
 20
491.3568875872807
 30
0.0
 10
210.4013946848136
 20
491.3588875872301
 30
0.0
 10
210.4013946848136
 20
491.3588875872301
 30
0.0
 10
210.4013946848136
 20
491.3588875872301
 30
0.0
 10
210.4423946837778
 20
491.3637875871063
 30
0.0
 10
210.4423946837778
 20
491.3637875871063
 30
0.0
 10
210.4423946837778
 20
491.3637875871063
 30
0.0
 10
210.4716946830376
 20
491.3676875870078
 30
0.0
 10
210.4716946830376
 20
491.3676875870078
 30
0.0
 10
210.4716946830376
 20
491.3676875870078
 30
0.0
 10
210.4887946826057
 20
491.3690875869725
 30
0.0
 10
210.4887946826057
 20
491.3690875869725
 30
0.0
 10
210.4887946826057
 20
491.3690875869725
 30
0.0
 10
210.5326946814967
 20
491.375
 30
0.0
 10
210.5326946814967
 20
491.375
 30
0.0
 10
210.5326946814967
 20
491.375
 30
0.0
 10
210.5365946813981
 20
491.3760000000002
 30
0.0
 10
210.5365946813981
 20
491.3760000000002
 30
0.0
 10
210.5365946813981
 20
491.3760000000002
 30
0.0
 10
210.5736946804609
 20
491.380387586687
 30
0.0
 10
210.5736946804609
 20
491.380387586687
 30
0.0
 10
210.5736946804609
 20
491.380387586687
 30
0.0
 10
210.5951946799178
 20
491.3832875866137
 30
0.0
 10
210.5951946799178
 20
491.3832875866137
 30
0.0
 10
210.5951946799178
 20
491.3832875866137
 30
0.0
 10
210.6127946794732
 20
491.3852875865632
 30
0.0
 10
210.6127946794732
 20
491.3852875865632
 30
0.0
 10
210.6127946794732
 20
491.3852875865632
 30
0.0
 10
210.6478946785865
 20
491.3895875864546
 30
0.0
 10
210.6478946785865
 20
491.3895875864546
 30
0.0
 10
210.8051946746127
 20
491.9130875732299
 30
0.0
 10
210.8793946727383
 20
492.435087560043
 30
0.0
 10
210.8422946736755
 20
492.9545875469194
 30
0.0
 10
210.8051946746127
 20
493.4828875335734
 30
0.0
 10
210.6537946784374
 20
494.0116875202148
 30
0.0
 10
210.3559999999998
 20
494.5414875068309
 30
0.0
 10
209.8192946995187
 20
494.569787506116
 30
0.0
 10
207.9843947458721
 20
494.6195875048579
 30
0.0
 10
206.8563947743678
 20
494.0932875181534
 30
0.0
 10
206.8563947743678
 20
494.0932875181534
 30
0.0
 10
206.835
 20
494.0829999999996
 30
0.0
 10
206.835
 20
494.0829999999996
 30
0.0
 10
206.835
 20
494.0829999999996
 30
0.0
 10
206.8241947751812
 20
494.0770875185626
 30
0.0
 10
206.8241947751812
 20
494.0770875185626
 30
0.0
 10
206.8241947751812
 20
494.0770875185626
 30
0.0
 10
206.8187947753177
 20
494.075687518598
 30
0.0
 10
206.8187947753177
 20
494.075687518598
 30
0.0
 10
206.8187947753177
 20
494.075687518598
 30
0.0
 10
206.7807947762776
 20
494.0570875190679
 30
0.0
 10
206.7807947762776
 20
494.0570875190679
 30
0.0
 10
206.7807947762776
 20
494.0570875190679
 30
0.0
 10
206.7797947763029
 20
494.0561875190906
 30
0.0
 10
206.7797947763029
 20
494.0561875190906
 30
0.0
 10
206.7543947769445
 20
494.0443875193887
 30
0.0
 10
206.7294947775736
 20
494.0312875197196
 30
0.0
 10
206.7035947782279
 20
494.0170875200783
 30
0.0
 10
206.7035947782279
 20
494.0170875200783
 30
0.0
 10
206.7016947782759
 20
494.0160875201036
 30
0.0
 10
206.7016947782759
 20
494.0160875201036
 30
0.0
 10
206.7016947782759
 20
494.0160875201036
 30
0.0
 10
206.6903947785613
 20
494.01068752024
 30
0.0
 10
206.6903947785613
 20
494.01068752024
 30
0.0
 10
206.6903947785613
 20
494.01068752024
 30
0.0
 10
206.6684947791146
 20
493.9984875205482
 30
0.0
 10
206.6684947791146
 20
493.9984875205482
 30
0.0
 10
206.6684947791146
 20
493.9984875205482
 30
0.0
 10
206.6654947791903
 20
493.9970875205836
 30
0.0
 10
206.6654947791903
 20
493.9970875205836
 30
0.0
 10
206.6654947791903
 20
493.9970875205836
 30
0.0
 10
206.6566947794126
 20
493.9921875207074
 30
0.0
 10
206.6566947794126
 20
493.9921875207074
 30
0.0
 10
206.6566947794126
 20
493.9921875207074
 30
0.0
 10
206.6454947796956
 20
493.9867875208438
 30
0.0
 10
206.6454947796956
 20
493.9867875208438
 30
0.0
 10
206.6454947796956
 20
493.9867875208438
 30
0.0
 10
206.6342947799785
 20
493.9799999999996
 30
0.0
 10
206.6342947799785
 20
493.9799999999996
 30
0.0
 10
206.6342947799785
 20
493.9799999999996
 30
0.0
 10
206.6270000000004
 20
493.9765875211015
 30
0.0
 10
206.6270000000004
 20
493.9765875211015
 30
0.0
 10
206.6270000000004
 20
493.9765875211015
 30
0.0
 10
206.6229999999996
 20
493.9735875211773
 30
0.0
 10
206.6229999999996
 20
493.9735875211773
 30
0.0
 10
206.6229999999996
 20
493.9735875211773
 30
0.0
 10
206.5917947810522
 20
493.9560875216193
 30
0.0
 10
206.5917947810522
 20
493.9560875216193
 30
0.0
 10
206.5917947810522
 20
493.9560875216193
 30
0.0
 10
206.5897947811027
 20
493.955587521632
 30
0.0
 10
206.5897947811027
 20
493.955587521632
 30
0.0
 10
206.5897947811027
 20
493.955587521632
 30
0.0
 10
206.5878947811507
 20
493.9540875216699
 30
0.0
 10
206.5878947811507
 20
493.9540875216699
 30
0.0
 10
206.5878947811507
 20
493.9540875216699
 30
0.0
 10
206.5785947813856
 20
493.9486875218063
 30
0.0
 10
206.5785947813856
 20
493.9486875218063
 30
0.0
 10
206.5785947813856
 20
493.9486875218063
 30
0.0
 10
206.5551947819768
 20
493.9354875221397
 30
0.0
 10
206.5551947819768
 20
493.9354875221397
 30
0.0
 10
206.5551947819768
 20
493.9354875221397
 30
0.0
 10
206.5487947821384
 20
493.9320875222256
 30
0.0
 10
206.5487947821384
 20
493.9320875222256
 30
0.0
 10
206.5487947821384
 20
493.9320875222256
 30
0.0
 10
206.5106947831009
 20
493.9096875227915
 30
0.0
 10
206.5106947831009
 20
493.9096875227915
 30
0.0
 10
206.5106947831009
 20
493.9096875227915
 30
0.0
 10
206.4989999999998
 20
493.9032875229532
 30
0.0
 10
206.4989999999998
 20
493.9032875229532
 30
0.0
 10
206.4989999999998
 20
493.9032875229532
 30
0.0
 10
206.4877947836794
 20
493.896487523125
 30
0.0
 10
206.4877947836794
 20
493.896487523125
 30
0.0
 10
206.4877947836794
 20
493.896487523125
 30
0.0
 10
206.4765947839624
 20
493.8895875232993
 30
0.0
 10
206.4765947839624
 20
493.8895875232993
 30
0.0
 10
206.4765947839624
 20
493.8895875232993
 30
0.0
 10
206.4716947840861
 20
493.8861875233852
 30
0.0
 10
206.4716947840861
 20
493.8861875233852
 30
0.0
 10
206.4716947840861
 20
493.8861875233852
 30
0.0
 10
206.4652947842478
 20
493.8832875234584
 30
0.0
 10
206.4652947842478
 20
493.8832875234584
 30
0.0
 10
206.4652947842478
 20
493.8832875234584
 30
0.0
 10
206.4545947845181
 20
493.8754875236555
 30
0.0
 10
206.4545947845181
 20
493.8754875236555
 30
0.0
 10
206.4545947845181
 20
493.8754875236555
 30
0.0
 10
206.4423947848263
 20
493.8690875238171
 30
0.0
 10
206.4423947848263
 20
493.8690875238171
 30
0.0
 10
206.4423947848263
 20
493.8690875238171
 30
0.0
 10
206.4320947850865
 20
493.8627875239763
 30
0.0
 10
206.4320947850865
 20
493.8627875239763
 30
0.0
 10
206.4320947850865
 20
493.8627875239763
 30
0.0
 10
206.4315947850992
 20
493.8627875239763
 30
0.0
 10
206.4315947850992
 20
493.8627875239763
 30
0.0
 10
206.4315947850992
 20
493.8627875239763
 30
0.0
 10
206.4203947853821
 20
493.8549999999996
 30
0.0
 10
206.4203947853821
 20
493.8549999999996
 30
0.0
 10
206.4203947853821
 20
493.8549999999996
 30
0.0
 10
206.409194785665
 20
493.848587524335
 30
0.0
 10
206.409194785665
 20
493.848587524335
 30
0.0
 10
206.409194785665
 20
493.848587524335
 30
0.0
 10
206.3969999999999
 20
493.8412875245194
 30
0.0
 10
206.3969999999999
 20
493.8412875245194
 30
0.0
 10
206.3969999999999
 20
493.8412875245194
 30
0.0
 10
206.3930947860717
 20
493.8383875245927
 30
0.0
 10
206.3930947860717
 20
493.8383875245927
 30
0.0
 10
206.3930947860717
 20
493.8383875245927
 30
0.0
 10
206.3856947862587
 20
493.8334875247165
 30
0.0
 10
206.3856947862587
 20
493.8334875247165
 30
0.0
 10
206.3856947862587
 20
493.8334875247165
 30
0.0
 10
206.3744947865416
 20
493.8270875248782
 30
0.0
 10
206.3744947865416
 20
493.8270875248782
 30
0.0
 10
206.3744947865416
 20
493.8270875248782
 30
0.0
 10
206.3637947868119
 20
493.8202875250499
 30
0.0
 10
206.3637947868119
 20
493.8202875250499
 30
0.0
 10
206.3637947868119
 20
493.8202875250499
 30
0.0
 10
206.3544947870469
 20
493.8144875251965
 30
0.0
 10
206.3544947870469
 20
493.8144875251965
 30
0.0
 10
206.3544947870469
 20
493.8144875251965
 30
0.0
 10
206.3515947871201
 20
493.812487525247
 30
0.0
 10
206.3515947871201
 20
493.812487525247
 30
0.0
 10
206.3515947871201
 20
493.812487525247
 30
0.0
 10
206.3402947874056
 20
493.8051875254314
 30
0.0
 10
206.3402947874056
 20
493.8051875254314
 30
0.0
 10
206.3402947874056
 20
493.8051875254314
 30
0.0
 10
206.3295947876759
 20
493.7978875256158
 30
0.0
 10
206.3295947876759
 20
493.7978875256158
 30
0.0
 10
206.3295947876759
 20
493.7978875256158
 30
0.0
 10
206.3178947879715
 20
493.7914875257775
 30
0.0
 10
206.3178947879715
 20
493.7914875257775
 30
0.0
 10
206.3178947879715
 20
493.7914875257775
 30
0.0
 10
206.3153947880346
 20
493.7890875258381
 30
0.0
 10
206.3153947880346
 20
493.7890875258381
 30
0.0
 10
206.3153947880346
 20
493.7890875258381
 30
0.0
 10
206.306194788267
 20
493.7836875259745
 30
0.0
 10
206.306194788267
 20
493.7836875259745
 30
0.0
 10
206.306194788267
 20
493.7836875259745
 30
0.0
 10
206.2948947885525
 20
493.7763875261589
 30
0.0
 10
206.2948947885525
 20
493.7763875261589
 30
0.0
 10
206.2948947885525
 20
493.7763875261589
 30
0.0
 10
206.2836947888354
 20
493.7690000000002
 30
0.0
 10
206.2836947888354
 20
493.7690000000002
 30
0.0
 10
206.2836947888354
 20
493.7690000000002
 30
0.0
 10
206.2768947890072
 20
493.7631875264924
 30
0.0
 10
206.2768947890072
 20
493.7631875264924
 30
0.0
 10
206.2768947890072
 20
493.7631875264924
 30
0.0
 10
206.2728947891082
 20
493.7611875265429
 30
0.0
 10
206.2728947891082
 20
493.7611875265429
 30
0.0
 10
206.2728947891082
 20
493.7611875265429
 30
0.0
 10
206.2606947894164
 20
493.7543875267147
 30
0.0
 10
206.2606947894164
 20
493.7543875267147
 30
0.0
 10
206.2606947894164
 20
493.7543875267147
 30
0.0
 10
206.2494947896994
 20
493.745587526937
 30
0.0
 10
206.2494947896994
 20
493.745587526937
 30
0.0
 10
206.2494947896994
 20
493.745587526937
 30
0.0
 10
206.2274947902552
 20
493.7309999999998
 30
0.0
 10
206.2274947902552
 20
493.7309999999998
 30
0.0
 10
206.2274947902552
 20
493.7309999999998
 30
0.0
 10
206.2152947905633
 20
493.7235875274928
 30
0.0
 10
206.2152947905633
 20
493.7235875274928
 30
0.0
 10
206.2152947905633
 20
493.7235875274928
 30
0.0
 10
206.2045947908337
 20
493.7162875276772
 30
0.0
 10
206.2045947908337
 20
493.7162875276772
 30
0.0
 10
206.2045947908337
 20
493.7162875276772
 30
0.0
 10
206.1928947911292
 20
493.7079999999996
 30
0.0
 10
206.1928947911292
 20
493.7079999999996
 30
0.0
 10
206.1928947911292
 20
493.7079999999996
 30
0.0
 10
206.1811947914248
 20
493.7001875280839
 30
0.0
 10
206.1811947914248
 20
493.7001875280839
 30
0.0
 10
206.1811947914248
 20
493.7001875280839
 30
0.0
 10
206.1698947917102
 20
493.6928875282683
 30
0.0
 10
206.1698947917102
 20
493.6928875282683
 30
0.0
 10
206.1698947917102
 20
493.6928875282683
 30
0.0
 10
206.1586947919932
 20
493.684587528478
 30
0.0
 10
206.1586947919932
 20
493.684587528478
 30
0.0
 10
206.1586947919932
 20
493.684587528478
 30
0.0
 10
206.1586947919932
 20
493.684587528478
 30
0.0
 10
206.1586947919932
 20
493.684587528478
 30
0.0
 10
206.1586947919932
 20
493.684587528478
 30
0.0
 10
206.1474947922761
 20
493.6771875286649
 30
0.0
 10
206.1474947922761
 20
493.6771875286649
 30
0.0
 10
206.1474947922761
 20
493.6771875286649
 30
0.0
 10
206.1356947925742
 20
493.6688875288746
 30
0.0
 10
206.1356947925742
 20
493.6688875288746
 30
0.0
 10
205.5434948075344
 20
493.2606875391866
 30
0.0
 10
204.9570000000003
 20
492.7284875526311
 30
0.0
 10
204.5116948335999
 20
492.3261875627941
 30
0.0
 10
204.22509484084
 20
492.0668875693445
 30
0.0
 10
203.9862948468726
 20
491.8500875748214
 30
0.0
 10
203.7880948518796
 20
491.7343875777442
 30
0.0
 10
203.7377948531503
 20
491.466287584517
 30
0.0
 10
203.6576948551738
 20
490.871087599553
 30
0.0
 10
203.8920948492523
 20
490.7709999999997
 30
0.0
 10
204.0204948460087
 20
490.7162876034636
 30
0.0
 10
204.6254948307251
 20
490.743187602784
 30
0.0
 10
205.4286948104345
 20
490.8095876011066
 30
0.0
  0
SPLINE
  5
57
330
14
100
AcDbEntity
  8
Layer 1
370
     0
100
AcDbSpline
210
0.0
220
0.0
230
1.0
 70
    11
 71
     3
 72
   272
 73
   268
 74
     0
 42
0.000000001
 43
0.0000000001
 40
0.0
 40
0.0
 40
0.0
 40
0.0
 40
1.0
 40
1.0
 40
1.0
 40
2.0
 40
2.0
 40
2.0
 40
3.0
 40
3.0
 40
3.0
 40
4.0
 40
4.0
 40
4.0
 40
5.0
 40
5.0
 40
5.0
 40
6.0
 40
6.0
 40
6.0
 40
7.0
 40
7.0
 40
7.0
 40
8.0
 40
8.0
 40
8.0
 40
9.0
 40
9.0
 40
9.0
 40
10.0
 40
10.0
 40
10.0
 40
11.0
 40
11.0
 40
11.0
 40
12.0
 40
12.0
 40
12.0
 40
13.0
 40
13.0
 40
13.0
 40
14.0
 40
14.0
 40
14.0
 40
15.0
 40
15.0
 40
15.0
 40
16.0
 40
16.0
 40
16.0
 40
17.0
 40
17.0
 40
17.0
 40
18.0
 40
18.0
 40
18.0
 40
19.0
 40
19.0
 40
19.0
 40
20.0
 40
20.0
 40
20.0
 40
21.0
 40
21.0
 40
21.0
 40
22.0
 40
22.0
 40
22.0
 40
23.0
 40
23.0
 40
23.0
 40
24.0
 40
24.0
 40
24.0
 40
25.0
 40
25.0
 40
25.0
 40
26.0
 40
26.0
 40
26.0
 40
27.0
 40
27.0
 40
27.0
 40
28.0
 40
28.0
 40
28.0
 40
29.0
 40
29.0
 40
29.0
 40
30.0
 40
30.0
 40
30.0
 40
31.0
 40
31.0
 40
31.0
 40
32.0
 40
32.0
 40
32.0
 40
33.0
 40
33.0
 40
33.0
 40
34.0
 40
34.0
 40
34.0
 40
35.0
 40
35.0
 40
35.0
 40
36.0
 40
36.0
 40
36.0
 40
37.0
 40
37.0
 40
37.0
 40
38.0
 40
38.0
 40
38.0
 40
39.0
 40
39.0
 40
39.0
 40
40.0
 40
40.0
 40
40.0
 40
41.0
 40
41.0
 40
41.0
 40
42.0
 40
42.0
 40
42.0
 40
43.0
 40
43.0
 40
43.0
 40
44.0
 40
44.0
 40
44.0
 40
45.0
 40
45.0
 40
45.0
 40
46.0
 40
46.0
 40
46.0
 40
47.0
 40
47.0
 40
47.0
 40
48.0
 40
48.0
 40
48.0
 40
49.0
 40
49.0
 40
49.0
 40
50.0
 40
50.0
 40
50.0
 40
51.0
 40
51.0
 40
51.0
 40
52.0
 40
52.0
 40
52.0
 40
53.0
 40
53.0
 40
53.0
 40
54.0
 40
54.0
 40
54.0
 40
55.0
 40
55.0
 40
55.0
 40
56.0
 40
56.0
 40
56.0
 40
57.0
 40
57.0
 40
57.0
 40
58.0
 40
58.0
 40
58.0
 40
59.0
 40
59.0
 40
59.0
 40
60.0
 40
60.0
 40
60.0
 40
61.0
 40
61.0
 40
61.0
 40
62.0
 40
62.0
 40
62.0
 40
63.0
 40
63.0
 40
63.0
 40
64.0
 40
64.0
 40
64.0
 40
65.0
 40
65.0
 40
65.0
 40
66.0
 40
66.0
 40
66.0
 40
67.0
 40
67.0
 40
67.0
 40
68.0
 40
68.0
 40
68.0
 40
69.0
 40
69.0
 40
69.0
 40
70.0
 40
70.0
 40
70.0
 40
71.0
 40
71.0
 40
71.0
 40
72.0
 40
72.0
 40
72.0
 40
73.0
 40
73.0
 40
73.0
 40
74.0
 40
74.0
 40
74.0
 40
75.0
 40
75.0
 40
75.0
 40
76.0
 40
76.0
 40
76.0
 40
77.0
 40
77.0
 40
77.0
 40
78.0
 40
78.0
 40
78.0
 40
79.0
 40
79.0
 40
79.0
 40
80.0
 40
80.0
 40
80.0
 40
81.0
 40
81.0
 40
81.0
 40
82.0
 40
82.0
 40
82.0
 40
83.0
 40
83.0
 40
83.0
 40
84.0
 40
84.0
 40
84.0
 40
85.0
 40
85.0
 40
85.0
 40
86.0
 40
86.0
 40
86.0
 40
87.0
 40
87.0
 40
87.0
 40
88.0
 40
88.0
 40
88.0
 40
89.0
 40
89.0
 40
89.0
 40
89.0
 10
210.3476946861701
 20
495.1298874919667
 30
0.0
 10
210.3476946861701
 20
495.1298874919667
 30
0.0
 10
212.368194635128
 20
496.2475874637312
 30
0.0
 10
212.368194635128
 20
496.2475874637312
 30
0.0
 10
212.368194635128
 20
496.2475874637312
 30
0.0
 10
211.5512946557647
 20
496.9735874453909
 30
0.0
 10
211.5512946557647
 20
496.9735874453909
 30
0.0
 10
211.5512946557647
 20
496.9735874453909
 30
0.0
 10
210.4574946833964
 20
496.8197874492762
 30
0.0
 10
210.4574946833964
 20
496.8197874492762
 30
0.0
 10
210.4574946833964
 20
496.8197874492762
 30
0.0
 10
210.5346946814461
 20
496.3900874601313
 30
0.0
 10
210.5346946814461
 20
496.3900874601313
 30
0.0
 10
210.5346946814461
 20
496.3900874601313
 30
0.0
 10
209.9677946957672
 20
496.29
 30
0.0
 10
209.9677946957672
 20
496.29
 30
0.0
 10
209.9677946957672
 20
496.29
 30
0.0
 10
209.9213946969394
 20
496.5502874560843
 30
0.0
 10
209.9213946969394
 20
496.5502874560843
 30
0.0
 10
209.9213946969394
 20
496.5502874560843
 30
0.0
 10
207.9608947464658
 20
496.2030874648553
 30
0.0
 10
207.9608947464658
 20
496.2030874648553
 30
0.0
 10
207.9608947464658
 20
496.2030874648553
 30
0.0
 10
207.8173947500909
 20
497.0145874443551
 30
0.0
 10
207.8173947500909
 20
497.0145874443551
 30
0.0
 10
207.8173947500909
 20
497.0145874443551
 30
0.0
 10
209.777794700567
 20
497.3617874355841
 30
0.0
 10
209.777794700567
 20
497.3617874355841
 30
0.0
 10
209.777794700567
 20
497.3617874355841
 30
0.0
 10
209.7230947019489
 20
497.6684874278362
 30
0.0
 10
209.7230947019489
 20
497.6684874278362
 30
0.0
 10
209.7230947019489
 20
497.6684874278362
 30
0.0
 10
210.2904946876151
 20
497.7685874253075
 30
0.0
 10
210.2904946876151
 20
497.7685874253075
 30
0.0
 10
210.2904946876151
 20
497.7685874253075
 30
0.0
 10
210.3559999999998
 20
497.3983874346595
 30
0.0
 10
210.3559999999998
 20
497.3983874346595
 30
0.0
 10
210.3559999999998
 20
497.3983874346595
 30
0.0
 10
211.6049999999996
 20
497.5741874302184
 30
0.0
 10
211.6049999999996
 20
497.5741874302184
 30
0.0
 10
211.6049999999996
 20
497.5741874302184
 30
0.0
 10
211.7392946510154
 20
497.5927874297486
 30
0.0
 10
211.7392946510154
 20
497.5927874297486
 30
0.0
 10
211.7392946510154
 20
497.5927874297486
 30
0.0
 10
211.8402946484639
 20
497.5023874320323
 30
0.0
 10
211.8402946484639
 20
497.5023874320323
 30
0.0
 10
211.8402946484639
 20
497.5023874320323
 30
0.0
 10
212.9130946213627
 20
496.5492874561096
 30
0.0
 10
212.9130946213627
 20
496.5492874561096
 30
0.0
 10
212.9130946213627
 20
496.5492874561096
 30
0.0
 10
213.2421946130489
 20
496.7309999999998
 30
0.0
 10
213.2421946130489
 20
496.7309999999998
 30
0.0
 10
213.2421946130489
 20
496.7309999999998
 30
0.0
 10
212.0912946421231
 20
501.2265873379511
 30
0.0
 10
212.0912946421231
 20
501.2265873379511
 30
0.0
 10
212.0912946421231
 20
501.2265873379511
 30
0.0
 10
212.0512946431336
 20
501.3827873340051
 30
0.0
 10
212.0512946431336
 20
501.3827873340051
 30
0.0
 10
212.0512946431336
 20
501.3827873340051
 30
0.0
 10
212.1645946402714
 20
501.5004873310318
 30
0.0
 10
212.1645946402714
 20
501.5004873310318
 30
0.0
 10
212.1645946402714
 20
501.5004873310318
 30
0.0
 10
212.7704946249651
 20
502.1381873149221
 30
0.0
 10
212.7704946249651
 20
502.1381873149221
 30
0.0
 10
212.7704946249651
 20
502.1381873149221
 30
0.0
 10
213.0102946189072
 20
502.3910873085333
 30
0.0
 10
213.0102946189072
 20
502.3910873085333
 30
0.0
 10
213.0102946189072
 20
502.3910873085333
 30
0.0
 10
213.2187946136401
 20
502.1122873155764
 30
0.0
 10
213.2187946136401
 20
502.1122873155764
 30
0.0
 10
213.2187946136401
 20
502.1122873155764
 30
0.0
 10
216.9267945199681
 20
497.1508874409119
 30
0.0
 10
216.9267945199681
 20
497.1508874409119
 30
0.0
 10
216.9267945199681
 20
497.1508874409119
 30
0.0
 10
216.9140945202889
 20
497.1400874411847
 30
0.0
 10
216.9140945202889
 20
497.1400874411847
 30
0.0
 10
217.8090944976793
 20
496.5976874548869
 30
0.0
 10
218.4926944804101
 20
495.8617874734773
 30
0.0
 10
219.050294466324
 20
495.01218749494
 30
0.0
 10
219.050294466324
 20
495.01218749494
 30
0.0
 10
217.6864945007765
 20
492.6254875552331
 30
0.0
 10
217.6864945007765
 20
492.6254875552331
 30
0.0
 10
217.6864945007765
 20
492.6254875552331
 30
0.0
 10
217.7221944998746
 20
492.5443875572819
 30
0.0
 10
217.7221944998746
 20
492.5443875572819
 30
0.0
 10
219.3920944576894
 20
493.0121875454643
 30
0.0
 10
221.3285944087693
 20
492.6415875548264
 30
0.0
 10
222.5507943778939
 20
491.6361875802249
 30
0.0
 10
222.5507943778939
 20
491.6361875802249
 30
0.0
 10
222.2392943857631
 20
491.1068875935962
 30
0.0
 10
222.2392943857631
 20
491.1068875935962
 30
0.0
 10
222.6098943764009
 20
490.8886875991084
 30
0.0
 10
222.9506943677916
 20
490.6244876057826
 30
0.0
 10
223.2538943601321
 20
490.3217876134295
 30
0.0
 10
224.1693943370046
 20
489.406287636557
 30
0.0
 10
224.7353943227063
 20
488.1420876684933
 30
0.0
 10
224.7353943227063
 20
486.7460877037593
 30
0.0
 10
224.7353943227063
 20
485.3495877390378
 30
0.0
 10
224.1693943370046
 20
484.085
 30
0.0
 10
223.2538943601321
 20
483.1698877941017
 30
0.0
 10
222.3383943832596
 20
482.2553878172039
 30
0.0
 10
221.0736944152086
 20
481.6890000000003
 30
0.0
 10
219.6771944504871
 20
481.6890000000003
 30
0.0
 10
218.2812944857505
 20
481.6890000000003
 30
0.0
 10
217.0175945176743
 20
482.2553878172039
 30
0.0
 10
216.1020945408018
 20
483.1698877941017
 30
0.0
 10
215.328594560342
 20
483.942887774574
 30
0.0
 10
214.8051945735642
 20
484.9662877487208
 30
0.0
 10
214.6605945772171
 20
486.1068877199068
 30
0.0
 10
214.4696945820397
 20
486.1981877176004
 30
0.0
 10
214.2685945871199
 20
486.289087715304
 30
0.0
 10
214.1030000000001
 20
486.3817877129623
 30
0.0
 10
214.0453945927584
 20
485.6415877316613
 30
0.0
 10
213.9877945942135
 20
484.9008877503729
 30
0.0
 10
213.9315945956332
 20
484.1620877690366
 30
0.0
 10
213.9237945958303
 20
484.0712877713304
 30
0.0
 10
213.9174945959894
 20
483.9804877736242
 30
0.0
 10
213.9101945961738
 20
483.8895877759205
 30
0.0
 10
213.8192945984702
 20
483.8895877759205
 30
0.0
 10
213.7294946007387
 20
483.8895877759205
 30
0.0
 10
213.6386946030325
 20
483.8895877759205
 30
0.0
 10
213.6386946030325
 20
483.8895877759205
 30
0.0
 10
204.3671948372503
 20
483.8895877759205
 30
0.0
 10
204.3671948372503
 20
483.8895877759205
 30
0.0
 10
204.3671948372503
 20
483.8895877759205
 30
0.0
 10
204.2290000000003
 20
483.8895877759205
 30
0.0
 10
204.2290000000003
 20
483.8895877759205
 30
0.0
 10
204.2290000000003
 20
483.8895877759205
 30
0.0
 10
204.141094842962
 20
483.9970877732048
 30
0.0
 10
204.141094842962
 20
483.9970877732048
 30
0.0
 10
204.141094842962
 20
483.9970877732048
 30
0.0
 10
203.5043948590464
 20
484.7714877536418
 30
0.0
 10
203.5043948590464
 20
484.7714877536418
 30
0.0
 10
203.5043948590464
 20
484.7714877536418
 30
0.0
 10
201.825694901454
 20
484.7714877536418
 30
0.0
 10
201.825694901454
 20
484.7714877536418
 30
0.0
 10
201.5697949079185
 20
484.1693877688522
 30
0.0
 10
201.2011949172302
 20
483.626487782567
 30
0.0
 10
200.7445949287649
 20
483.1698877941017
 30
0.0
 10
199.8290949518923
 20
482.2553878172039
 30
0.0
 10
198.5653949838161
 20
481.6890000000003
 30
0.0
 10
197.1688950190946
 20
481.6890000000003
 30
0.0
 10
195.7728950543606
 20
481.6890000000003
 30
0.0
 10
194.508295086307
 20
482.2553878172039
 30
0.0
 10
193.5922951094472
 20
483.1698877941017
 30
0.0
 10
193.0228951238314
 20
483.7401877796947
 30
0.0
 10
192.5873951348331
 20
484.4467877618445
 30
0.0
 10
192.3407951410627
 20
485.2357877419126
 30
0.0
 10
192.3407951410627
 20
485.2357877419126
 30
0.0
 10
191.4848951626846
 20
485.2357877419126
 30
0.0
 10
191.4848951626846
 20
485.2357877419126
 30
0.0
 10
191.4848951626846
 20
485.2357877419126
 30
0.0
 10
191.1903951701242
 20
485.2357877419126
 30
0.0
 10
191.1903951701242
 20
485.2357877419126
 30
0.0
 10
191.1903951701242
 20
485.2357877419126
 30
0.0
 10
191.1903951701242
 20
485.5297877344856
 30
0.0
 10
191.1903951701242
 20
485.5297877344856
 30
0.0
 10
191.1903951701242
 20
485.5297877344856
 30
0.0
 10
191.1903951701242
 20
486.7055877047824
 30
0.0
 10
191.1903951701242
 20
486.7055877047824
 30
0.0
 10
191.1903951701242
 20
486.7055877047824
 30
0.0
 10
191.1903951701242
 20
486.9989999999998
 30
0.0
 10
191.1903951701242
 20
486.9989999999998
 30
0.0
 10
191.1903951701242
 20
486.9989999999998
 30
0.0
 10
191.4848951626846
 20
486.9989999999998
 30
0.0
 10
191.4848951626846
 20
486.9989999999998
 30
0.0
 10
191.4848951626846
 20
486.9989999999998
 30
0.0
 10
192.1176951466987
 20
486.9989999999998
 30
0.0
 10
192.1176951466987
 20
486.9989999999998
 30
0.0
 10
192.1371951462061
 20
487.3788876877734
 30
0.0
 10
192.1972951446878
 20
487.7475876784592
 30
0.0
 10
192.295895142197
 20
488.1005876695417
 30
0.0
 10
192.2807951425784
 20
488.2338876661743
 30
0.0
 10
192.2694951428639
 20
488.3710876627083
 30
0.0
 10
192.263195143023
 20
488.5121876591438
 30
0.0
 10
192.2280000000001
 20
489.2548876403816
 30
0.0
 10
192.3065951419267
 20
490.1034876189442
 30
0.0
 10
192.492195137238
 20
491.0487875950639
 30
0.0
 10
192.492195137238
 20
491.0487875950639
 30
0.0
 10
192.5336951361896
 20
491.2611875896982
 30
0.0
 10
192.5336951361896
 20
491.2611875896982
 30
0.0
 10
192.5336951361896
 20
491.2611875896982
 30
0.0
 10
192.7494951307381
 20
491.2841875891172
 30
0.0
 10
192.7494951307381
 20
491.2841875891172
 30
0.0
 10
192.7494951307381
 20
491.2841875891172
 30
0.0
 10
192.8100951292072
 20
491.2904875889581
 30
0.0
 10
192.8100951292072
 20
491.2904875889581
 30
0.0
 10
192.8100951292072
 20
491.2904875889581
 30
0.0
 10
192.7910000000002
 20
492.8500875495592
 30
0.0
 10
192.7910000000002
 20
492.8500875495592
 30
0.0
 10
192.7910000000002
 20
492.8500875495592
 30
0.0
 10
192.84719512827
 20
492.8490875495845
 30
0.0
 10
192.84719512827
 20
492.8490875495845
 30
0.0
 10
192.84719512827
 20
492.8490875495845
 30
0.0
 10
191.9936951498312
 20
493.6361875297007
 30
0.0
 10
191.9936951498312
 20
493.6361875297007
 30
0.0
 10
191.9936951498312
 20
493.6361875297007
 30
0.0
 10
192.5141951366822
 20
498.1293874161929
 30
0.0
 10
192.5141951366822
 20
498.1293874161929
 30
0.0
 10
192.5141951366822
 20
498.1293874161929
 30
0.0
 10
193.6513951079542
 20
498.5272874061411
 30
0.0
 10
193.6513951079542
 20
498.5272874061411
 30
0.0
 10
193.6513951079542
 20
498.5272874061411
 30
0.0
 10
193.878895102207
 20
501.2299999999996
 30
0.0
 10
193.878895102207
 20
501.2299999999996
 30
0.0
 10
193.878895102207
 20
501.2299999999996
 30
0.0
 10
195.4110950635004
 20
501.6776873265553
 30
0.0
 10
195.4110950635004
 20
501.6776873265553
 30
0.0
 10
195.4110950635004
 20
501.6776873265553
 30
0.0
 10
195.9330950503136
 20
499.6918873767208
 30
0.0
 10
195.9330950503136
 20
499.6918873767208
 30
0.0
 10
195.9330950503136
 20
499.6918873767208
 30
0.0
 10
196.3231950404588
 20
499.7895873742527
 30
0.0
 10
196.9418950248291
 20
499.6596873775343
 30
0.0
 10
197.5609999999997
 20
499.5287873808411
 30
0.0
 10
198.4716949861831
 20
496.7938874499305
 30
0.0
 10
198.5375949845184
 20
496.4687874581432
 30
0.0
 10
198.6024949828789
 20
496.1430874663711
 30
0.0
 10
197.6581950067339
 20
495.7851874754124
 30
0.0
 10
197.6581950067339
 20
495.7851874754124
 30
0.0
 10
197.6581950067339
 20
495.7851874754124
 30
0.0
 10
198.1142949952118
 20
494.7426875017482
 30
0.0
 10
198.1142949952118
 20
494.7426875017482
 30
0.0
 10
198.1142949952118
 20
494.7426875017482
 30
0.0
 10
198.7328949795847
 20
494.9706874959884
 30
0.0
 10
199.0580949713694
 20
495.1337874918681
 30
0.0
 10
199.3847949631163
 20
495.2963874877605
 30
0.0
 10
201.5004949096692
 20
494.0263875198434
 30
0.0
 10
201.8578949006405
 20
493.7011875280587
 30
0.0
 10
202.0141948966921
 20
493.5595875316358
 30
0.0
 10
201.9662948979021
 20
493.1361875423318
 30
0.0
 10
201.8637949004915
 20
492.7016875533081
 30
0.0
 10
201.8637949004915
 20
492.7016875533081
 30
0.0
 10
204.803194826236
 20
493.3676875364836
 30
0.0
 10
204.803194826236
 20
493.3676875364836
 30
0.0
 10
205.3554948122837
 20
493.8417875245068
 30
0.0
 10
205.9955947961134
 20
494.3378875119743
 30
0.0
 10
206.6093947806075
 20
494.6239999999998
 30
0.0
 10
206.8686947740571
 20
494.7455875016749
 30
0.0
 10
207.1586947667311
 20
494.8393874993053
 30
0.0
 10
207.4603947591095
 20
494.911087497494
 30
0.0
 10
207.4603947591095
 20
494.911087497494
 30
0.0
 10
207.4603947591095
 20
495.2440874890817
 30
0.0
 10
207.4603947591095
 20
495.2440874890817
 30
0.0
 10
207.4603947591095
 20
495.2440874890817
 30
0.0
 10
207.1967947657686
 20
495.2440874890817
 30
0.0
 10
207.1967947657686
 20
495.2440874890817
 30
0.0
 10
207.1967947657686
 20
495.2440874890817
 30
0.0
 10
207.1967947657686
 20
495.6952874776835
 30
0.0
 10
207.1967947657686
 20
495.6952874776835
 30
0.0
 10
207.1967947657686
 20
495.6952874776835
 30
0.0
 10
209.0316947194151
 20
495.6952874776835
 30
0.0
 10
209.0316947194151
 20
495.6952874776835
 30
0.0
 10
209.0316947194151
 20
495.6952874776835
 30
0.0
 10
209.0316947194151
 20
495.2440874890817
 30
0.0
 10
209.0316947194151
 20
495.2440874890817
 30
0.0
 10
209.0316947194151
 20
495.2440874890817
 30
0.0
 10
208.7670947260995
 20
495.2440874890817
 30
0.0
 10
208.7670947260995
 20
495.2440874890817
 30
0.0
 10
208.7670947260995
 20
495.2440874890817
 30
0.0
 10
208.7670947260995
 20
495.1068874925477
 30
0.0
 10
208.7670947260995
 20
495.1068874925477
 30
0.0
 10
209.4462947089414
 20
495.1596874912138
 30
0.0
 10
210.0473946937564
 20
495.1440000000002
 30
0.0
 10
210.3476946861701
 20
495.1298874919667
 30
0.0
 10
210.3476946861701
 20
495.1298874919667
 30
0.0
 10
210.3476946861701
 20
495.1298874919667
 30
0.0
 10
210.3476946861701
 20
495.1298874919667
 30
0.0
  0
ENDSEC
  0
SECTION
  2
OBJECTS
  0
DICTIONARY
  5
5
330
0
100
AcDbDictionary
281
     1
  3
ACAD_GROUP
350
21
  3
ACAD_LAYOUT
350
18
  3
ACAD_MATERIAL
350
7
  3
ACAD_MLEADERSTYLE
350
5B
  3
ACAD_MLINESTYLE
350
12
  3
ACAD_PLOTSETTINGS
350
22
  3
ACAD_PLOTSTYLENAME
350
4
  3
ACAD_SCALELIST
350
29
  3
ACAD_TABLESTYLE
350
5A
  3
ACAD_VISUALSTYLE
350
23
  3
AcDbVariableDictionary
350
58
  0
DICTIONARY
  5
7B
330
1F
100
AcDbDictionary
280
     1
281
     1
  3
ACAD_XREC_ROUNDTRIP
360
7C
  0
DICTIONARY
  5
21
102
{ACAD_REACTORS
330
5
102
}
330
5
100
AcDbDictionary
281
     1
  0
DICTIONARY
  5
18
102
{ACAD_REACTORS
330
5
102
}
330
5
100
AcDbDictionary
281
     1
  3
Layout1
350
1C
  3
Model
350
17
  0
DICTIONARY
  5
7
102
{ACAD_REACTORS
330
5
102
}
330
5
100
AcDbDictionary
281
     1
  3
ByBlock
350
4C
  3
ByLayer
350
E
  3
Global
350
6
  0
DICTIONARY
  5
5B
102
{ACAD_REACTORS
330
5
102
}
330
5
100
AcDbDictionary
281
     1
  3
Standard
350
5E
  0
DICTIONARY
  5
12
102
{ACAD_REACTORS
330
5
102
}
330
5
100
AcDbDictionary
281
     1
  3
Standard
350
11
  0
DICTIONARY
  5
22
102
{ACAD_REACTORS
330
5
102
}
330
5
100
AcDbDictionary
281
     1
  0
ACDBDICTIONARYWDFLT
  5
4
102
{ACAD_REACTORS
330
5
102
}
330
5
100
AcDbDictionary
281
     1
  3
Normal
350
3
100
AcDbDictionaryWithDefault
340
3
  0
DICTIONARY
  5
29
102
{ACAD_REACTORS
330
5
102
}
330
5
100
AcDbDictionary
281
     1
  3
*A1
350
4B
  0
DICTIONARY
  5
5A
102
{ACAD_REACTORS
330
5
102
}
330
5
100
AcDbDictionary
281
     1
  3
Standard
350
76
  0
DICTIONARY
  5
23
102
{ACAD_REACTORS
330
5
102
}
330
5
100
AcDbDictionary
281
     1
  3
2dWireframe
350
26
  3
Basic
350
65
  3
Brighten
350
69
  3
ColorChange
350
6D
  3
Conceptual
350
67
  3
Dim
350
68
  3
EdgeColorOff
350
70
  3
Facepattern
350
6C
  3
Flat
350
5F
  3
FlatWithEdges
350
60
  3
Gouraud
350
61
  3
GouraudWithEdges
350
62
  3
Hidden
350
64
  3
JitterOff
350
6E
  3
Linepattern
350
6B
  3
OverhangOff
350
6F
  3
Realistic
350
66
  3
Shaded
350
75
  3
Shaded with edges
350
74
  3
Shades of Gray
350
71
  3
Sketchy
350
72
  3
Thicken
350
6A
  3
Wireframe
350
63
  3
X-Ray
350
73
  0
DICTIONARY
  5
58
102
{ACAD_REACTORS
330
5
102
}
330
5
100
AcDbDictionary
281
     1
  3
CANNOSCALE
350
59
  3
CMLEADERSTYLE
350
78
  3
CTABLESTYLE
350
77
  3
DIMASSOC
350
79
  3
HIDETEXT
350
7A
  3
MSLTSCALE
350
7D
  0
XRECORD
  5
7C
102
{ACAD_REACTORS
330
7B
102
}
330
7B
100
AcDbXrecord
280
     1
102
VTR_0.000_0.000_1.000_1.000_VISUALSTYLE
340
26
102
VTR_0.000_0.000_1.000_1.000_GRIDDISPLAY
 70
     3
102
VTR_0.000_0.000_1.000_1.000_GRIDMAJOR
 70
     5
102
VTR_0.000_0.000_1.000_1.000_DEFAULTLIGHTING
280
     1
102
VTR_0.000_0.000_1.000_1.000_DEFAULTLIGHTINGTYPE
 70
     1
102
VTR_0.000_0.000_1.000_1.000_BRIGHTNESS
141
0.0
102
VTR_0.000_0.000_1.000_1.000_CONTRAST
142
0.0
  0
LAYOUT
  5
1C
102
{ACAD_REACTORS
330
18
102
}
330
18
100
AcDbPlotSettings
  1

  2
none_device
  4
Letter_(8.50_x_11.00_Inches)
  6

 40
6.35
 41
6.35
 42
6.35001
 43
6.35001
 44
215.9
 45
279.4
 46
0.0
 47
0.0
 48
0.0
 49
0.0
140
0.0
141
0.0
142
1.0
143
1.0
 70
   688
 72
     0
 73
     1
 74
     5
  7

 75
    16
147
1.0
148
0.0
149
0.0
100
AcDbLayout
  1
Layout1
 70
     1
 71
     1
 10
0.0
 20
0.0
 11
12.0
 21
9.0
 12
0.0
 22
0.0
 32
0.0
 14
1.000000000000000E+20
 24
1.000000000000000E+20
 34
1.000000000000000E+20
 15
-1.000000000000000E+20
 25
-1.000000000000000E+20
 35
-1.000000000000000E+20
146
0.0
 13
0.0
 23
0.0
 33
0.0
 16
1.0
 26
0.0
 36
0.0
 17
0.0
 27
1.0
 37
0.0
 76
     0
330
19
  0
LAYOUT
  5
17
102
{ACAD_REACTORS
330
18
102
}
330
18
100
AcDbPlotSettings
  1

  2
none_device
  4

  6

 40
0.0
 41
0.0
 42
0.0
 43
0.0
 44
0.0
 45
0.0
 46
0.0
 47
0.0
 48
0.0
 49
0.0
140
0.0
141
0.0
142
1.0
143
1.0
 70
  1712
 72
     0
 73
     0
 74
     0
  7

 75
     0
147
1.0
148
0.0
149
0.0
100
AcDbLayout
  1
Model
 70
     1
 71
     0
 10
0.0
 20
0.0
 11
12.0
 21
9.0
 12
0.0
 22
0.0
 32
0.0
 14
191.1903951701242
 24
481.6964290347399
 34
0.0
 15
224.7349805978174
 25
502.3843228446239
 35
0.0
146
0.0
 13
0.0
 23
0.0
 33
0.0
 16
1.0
 26
0.0
 36
0.0
 17
0.0
 27
1.0
 37
0.0
 76
     0
330
14
331
25
  0
MATERIAL
  5
4C
102
{ACAD_REACTORS
330
7
102
}
102
{ACAD_XDICTIONARY
360
82
102
}
330
7
100
AcDbMaterial
  1
ByBlock
  0
MATERIAL
  5
E
102
{ACAD_REACTORS
330
7
102
}
102
{ACAD_XDICTIONARY
360
7E
102
}
330
7
100
AcDbMaterial
  1
ByLayer
  0
MATERIAL
  5
6
102
{ACAD_REACTORS
330
7
102
}
102
{ACAD_XDICTIONARY
360
80
102
}
330
7
100
AcDbMaterial
  1
Global
  0
MLEADERSTYLE
  5
5E
102
{ACAD_REACTORS
330
5B
102
}
102
{ACAD_XDICTIONARY
360
B5
102
}
330
5B
100
AcDbMLeaderStyle
170
     2
171
     1
172
     0
 90
        2
 40
0.0
 41
0.0
173
     1
 91
-1056964608
340
A
 92
       -2
290
     1
 42
0.09
291
     1
 43
0.36
  3
Standard
341
0
 44
0.18
300

342
C
174
     1
178
     6
175
     1
176
     0
 93
-1056964608
 45
0.18
292
     0
297
     0
 46
0.18
343
0
 94
-1056964608
 47
1.0
 49
1.0
140
1.0
293
     1
141
0.0
294
     1
177
     0
142
1.0
295
     0
296
     0
143
0.125
1001
ACAD_MLEADERVER
1070
     2
  0
MLINESTYLE
  5
11
102
{ACAD_REACTORS
330
12
102
}
330
12
100
AcDbMlineStyle
  2
Standard
 70
     0
  3

 62
   256
 51
90.0
 52
90.0
 71
     2
 49
0.5
 62
   256
  6
BYLAYER
 49
-0.5
 62
   256
  6
BYLAYER
  0
ACDBPLACEHOLDER
  5
3
102
{ACAD_REACTORS
330
4
102
}
330
4
  0
SCALE
  5
4B
102
{ACAD_REACTORS
330
29
102
}
330
29
100
AcDbScale
 70
     0
300
1:1
140
1.0
141
1.0
290
     1
  0
TABLESTYLE
  5
76
102
{ACAD_REACTORS
330
5A
102
}
330
5A
100
AcDbTableStyle
  3
Standard
 70
     0
 71
     0
 40
0.06
 41
0.06
280
     0
281
     0
  7
Standard
140
0.18
170
     2
 62
     0
 63
   257
283
     0
274
    -2
284
     1
 64
     0
275
    -2
285
     1
 65
     0
276
    -2
286
     1
 66
     0
277
    -2
287
     1
 67
     0
278
    -2
288
     1
 68
     0
279
    -2
289
     1
 69
     0
  7
Standard
140
0.25
170
     5
 62
     0
 63
   257
283
     0
274
    -2
284
     1
 64
     0
275
    -2
285
     1
 65
     0
276
    -2
286
     1
 66
     0
277
    -2
287
     1
 67
     0
278
    -2
288
     1
 68
     0
279
    -2
289
     1
 69
     0
  7
Standard
140
0.18
170
     5
 62
     0
 63
   257
283
     0
274
    -2
284
     1
 64
     0
275
    -2
285
     1
 65
     0
276
    -2
286
     1
 66
     0
277
    -2
287
     1
 67
     0
278
    -2
288
     1
 68
     0
279
    -2
289
     1
 69
     0
  0
VISUALSTYLE
  5
26
102
{ACAD_REACTORS
330
23
102
}
102
{ACAD_XDICTIONARY
360
84
102
}
330
23
100
AcDbVisualStyle
  2
2dWireframe
 70
     4
 71
     0
 72
     2
 73
     0
 90
        0
 40
-0.6
 41
-30.0
 62
     5
 63
     7
 74
     1
 91
        4
 64
     7
 65
   257
 75
     1
175
     1
 42
1.0
 92
        0
 66
   257
 43
1.0
 76
     1
 77
     6
 78
     2
 67
     7
 79
     5
170
     0
171
     0
290
     0
174
     0
 93
        1
 44
0.0
173
     0
291
     0
 45
0.0
1001
ACAD
1000
AcDbSavedByObjectVersion
1070
     0
  0
VISUALSTYLE
  5
65
102
{ACAD_REACTORS
330
23
102
}
102
{ACAD_XDICTIONARY
360
92
102
}
330
23
100
AcDbVisualStyle
  2
Basic
 70
     7
 71
     1
 72
     0
 73
     1
 90
        0
 40
0.6
 41
30.0
 62
     5
 63
     7
 74
     0
 91
        4
 64
     7
 65
   257
 75
     1
175
     1
 42
1.0
 92
        8
 66
     7
 43
1.0
 76
     1
 77
     6
 78
     2
 67
     7
 79
     5
170
     0
171
     0
290
     0
174
     0
 93
        1
 44
0.0
173
     0
291
     1
 45
0.0
1001
ACAD
1000
AcDbSavedByObjectVersion
1070
     0
  0
VISUALSTYLE
  5
69
102
{ACAD_REACTORS
330
23
102
}
102
{ACAD_XDICTIONARY
360
9A
102
}
330
23
100
AcDbVisualStyle
  2
Brighten
 70
    12
 71
     2
 72
     2
 73
     0
 90
        0
 40
0.6
 41
30.0
 62
     5
 63
     7
 74
     1
 91
        4
 64
     7
 65
   257
 75
     1
175
     1
 42
1.0
 92
        8
 66
     7
 43
1.0
 76
     1
 77
     6
 78
     2
 67
     7
 79
     5
170
     0
171
     0
290
     0
174
     0
 93
        1
 44
50.0
173
     0
291
     1
 45
0.0
1001
ACAD
1000
AcDbSavedByObjectVersion
1070
     0
  0
VISUALSTYLE
  5
6D
102
{ACAD_REACTORS
330
23
102
}
102
{ACAD_XDICTIONARY
360
A2
102
}
330
23
100
AcDbVisualStyle
  2
ColorChange
 70
    16
 71
     2
 72
     2
 73
     3
 90
        0
 40
0.6
 41
30.0
 62
     5
 63
     8
 74
     1
 91
        4
 64
     7
 65
   257
 75
     1
175
     1
 42
1.0
 92
        8
 66
     8
 43
1.0
 76
     1
 77
     6
 78
     2
 67
     7
 79
     5
170
     0
171
     0
290
     0
174
     0
 93
        1
 44
0.0
173
     0
291
     1
 45
0.0
1001
ACAD
1000
AcDbSavedByObjectVersion
1070
     0
  0
VISUALSTYLE
  5
67
102
{ACAD_REACTORS
330
23
102
}
102
{ACAD_XDICTIONARY
360
96
102
}
330
23
100
AcDbVisualStyle
  2
Conceptual
 70
     9
 71
     3
 72
     2
 73
     0
 90
        0
 40
0.6
 41
30.0
 62
     5
 63
     7
 74
     2
 91
        2
 64
     7
 65
   257
 75
     1
175
     1
 42
179.0
 92
        8
 66
     7
 43
1.0
 76
     1
 77
     6
 78
     2
 67
     7
 79
     3
170
     0
171
     0
290
     0
174
     0
 93
        1
 44
0.0
173
     0
291
     0
 45
0.0
1001
ACAD
1000
AcDbSavedByObjectVersion
1070
     0
  0
VISUALSTYLE
  5
68
102
{ACAD_REACTORS
330
23
102
}
102
{ACAD_XDICTIONARY
360
98
102
}
330
23
100
AcDbVisualStyle
  2
Dim
 70
    11
 71
     2
 72
     2
 73
     0
 90
        0
 40
0.6
 41
30.0
 62
     5
 63
     7
 74
     1
 91
        4
 64
     7
 65
   257
 75
     1
175
     1
 42
1.0
 92
        8
 66
     7
 43
1.0
 76
     1
 77
     6
 78
     2
 67
     7
 79
     5
170
     0
171
     0
290
     0
174
     0
 93
        1
 44
-50.0
173
     0
291
     1
 45
0.0
1001
ACAD
1000
AcDbSavedByObjectVersion
1070
     0
  0
VISUALSTYLE
  5
70
102
{ACAD_REACTORS
330
23
102
}
102
{ACAD_XDICTIONARY
360
A8
102
}
330
23
100
AcDbVisualStyle
  2
EdgeColorOff
 70
    22
 71
     2
 72
     2
 73
     0
 90
        0
 40
0.6
 41
30.0
 62
     5
 63
     7
 74
     1
 91
        4
 64
     7
 65
   257
 75
     1
175
     1
 42
1.0
 92
        8
 66
     7
 43
1.0
 76
     1
 77
     6
 78
     2
 67
     7
 79
     5
170
     0
171
     0
290
     0
174
     0
 93
        1
 44
0.0
173
     0
291
     1
 45
0.0
1001
ACAD
1000
AcDbSavedByObjectVersion
1070
     0
  0
VISUALSTYLE
  5
6C
102
{ACAD_REACTORS
330
23
102
}
102
{ACAD_XDICTIONARY
360
A0
102
}
330
23
100
AcDbVisualStyle
  2
Facepattern
 70
    15
 71
     2
 72
     2
 73
     0
 90
        0
 40
0.6
 41
30.0
 62
     5
 63
     7
 74
     1
 91
        4
 64
     7
 65
   257
 75
     1
175
     1
 42
1.0
 92
        8
 66
     7
 43
1.0
 76
     1
 77
     6
 78
     2
 67
     7
 79
     5
170
     0
171
     0
290
     0
174
     0
 93
        1
 44
0.0
173
     0
291
     1
 45
0.0
1001
ACAD
1000
AcDbSavedByObjectVersion
1070
     0
  0
VISUALSTYLE
  5
5F
102
{ACAD_REACTORS
330
23
102
}
102
{ACAD_XDICTIONARY
360
86
102
}
330
23
100
AcDbVisualStyle
  2
Flat
 70
     0
 71
     2
 72
     1
 73
     1
 90
        2
 40
0.6
 41
30.0
 62
     5
 63
     7
 74
     0
 91
        0
 64
     7
 65
   257
 75
     1
175
     1
 42
1.0
 92
        8
 66
     7
 43
1.0
 76
     1
 77
     6
 78
     2
 67
     7
 79
     5
170
     0
171
     0
290
     0
174
     0
 93
       13
 44
0.0
173
     0
291
     1
 45
0.0
1001
ACAD
1000
AcDbSavedByObjectVersion
1070
     0
  0
VISUALSTYLE
  5
60
102
{ACAD_REACTORS
330
23
102
}
102
{ACAD_XDICTIONARY
360
88
102
}
330
23
100
AcDbVisualStyle
  2
FlatWithEdges
 70
     1
 71
     2
 72
     1
 73
     1
 90
        2
 40
0.6
 41
30.0
 62
     5
 63
     7
 74
     1
 91
        0
 64
     7
 65
   257
 75
     1
175
     1
 42
1.0
 92
        0
 66
   257
 43
1.0
 76
     1
 77
     6
 78
     2
 67
     7
 79
     5
170
     0
171
     0
290
     0
174
     0
 93
       13
 44
0.0
173
     0
291
     1
 45
0.0
1001
ACAD
1000
AcDbSavedByObjectVersion
1070
     0
  0
VISUALSTYLE
  5
61
102
{ACAD_REACTORS
330
23
102
}
102
{ACAD_XDICTIONARY
360
8A
102
}
330
23
100
AcDbVisualStyle
  2
Gouraud
 70
     2
 71
     2
 72
     2
 73
     1
 90
        2
 40
0.6
 41
30.0
 62
     5
 63
     7
 74
     0
 91
        0
 64
     7
 65
   257
 75
     1
175
     1
 42
1.0
 92
        0
 66
     7
 43
1.0
 76
     1
 77
     6
 78
     2
 67
     7
 79
     5
170
     0
171
     0
290
     0
174
     0
 93
       13
 44
0.0
173
     0
291
     1
 45
0.0
1001
ACAD
1000
AcDbSavedByObjectVersion
1070
     0
  0
VISUALSTYLE
  5
62
102
{ACAD_REACTORS
330
23
102
}
102
{ACAD_XDICTIONARY
360
8C
102
}
330
23
100
AcDbVisualStyle
  2
GouraudWithEdges
 70
     3
 71
     2
 72
     2
 73
     1
 90
        2
 40
0.6
 41
30.0
 62
     5
 63
     7
 74
     1
 91
        0
 64
     7
 65
   257
 75
     1
175
     1
 42
1.0
 92
        0
 66
   257
 43
1.0
 76
     1
 77
     6
 78
     2
 67
     7
 79
     5
170
     0
171
     0
290
     0
174
     0
 93
       13
 44
0.0
173
     0
291
     1
 45
0.0
1001
ACAD
1000
AcDbSavedByObjectVersion
1070
     0
  0
VISUALSTYLE
  5
64
102
{ACAD_REACTORS
330
23
102
}
102
{ACAD_XDICTIONARY
360
90
102
}
330
23
100
AcDbVisualStyle
  2
Hidden
 70
     6
 71
     1
 72
     2
 73
     2
 90
        0
 40
0.6
 41
30.0
 62
     5
 63
     7
 74
     2
 91
        2
 64
     7
 65
   257
 75
     2
175
     1
 42
40.0
 92
        0
 66
   257
 43
1.0
 76
     1
 77
     6
 78
     2
 67
     7
 79
     3
170
     0
171
     0
290
     0
174
     0
 93
        1
 44
0.0
173
     0
291
     0
 45
0.0
1001
ACAD
1000
AcDbSavedByObjectVersion
1070
     0
  0
VISUALSTYLE
  5
6E
102
{ACAD_REACTORS
330
23
102
}
102
{ACAD_XDICTIONARY
360
A4
102
}
330
23
100
AcDbVisualStyle
  2
JitterOff
 70
    20
 71
     2
 72
     2
 73
     0
 90
        0
 40
0.6
 41
30.0
 62
     5
 63
     7
 74
     1
 91
        4
 64
     7
 65
   257
 75
     1
175
     1
 42
1.0
 92
       10
 66
     7
 43
1.0
 76
     1
 77
     6
 78
     2
 67
     7
 79
     5
170
     0
171
     0
290
     0
174
     0
 93
        1
 44
0.0
173
     0
291
     1
 45
0.0
1001
ACAD
1000
AcDbSavedByObjectVersion
1070
     0
  0
VISUALSTYLE
  5
6B
102
{ACAD_REACTORS
330
23
102
}
102
{ACAD_XDICTIONARY
360
9E
102
}
330
23
100
AcDbVisualStyle
  2
Linepattern
 70
    14
 71
     2
 72
     2
 73
     0
 90
        0
 40
0.6
 41
30.0
 62
     5
 63
     7
 74
     1
 91
        4
 64
     7
 65
   257
 75
     7
175
     7
 42
1.0
 92
        8
 66
     7
 43
1.0
 76
     1
 77
     6
 78
     2
 67
     7
 79
     5
170
     0
171
     0
290
     0
174
     0
 93
        1
 44
0.0
173
     0
291
     1
 45
0.0
1001
ACAD
1000
AcDbSavedByObjectVersion
1070
     0
  0
VISUALSTYLE
  5
6F
102
{ACAD_REACTORS
330
23
102
}
102
{ACAD_XDICTIONARY
360
A6
102
}
330
23
100
AcDbVisualStyle
  2
OverhangOff
 70
    21
 71
     2
 72
     2
 73
     0
 90
        0
 40
0.6
 41
30.0
 62
     5
 63
     7
 74
     1
 91
        4
 64
     7
 65
   257
 75
     1
175
     1
 42
1.0
 92
        9
 66
     7
 43
1.0
 76
     1
 77
     6
 78
     2
 67
     7
 79
     5
170
     0
171
     0
290
     0
174
     0
 93
        1
 44
0.0
173
     0
291
     1
 45
0.0
1001
ACAD
1000
AcDbSavedByObjectVersion
1070
     0
  0
VISUALSTYLE
  5
66
102
{ACAD_REACTORS
330
23
102
}
102
{ACAD_XDICTIONARY
360
94
102
}
330
23
100
AcDbVisualStyle
  2
Realistic
 70
     8
 71
     2
 72
     3
 73
     0
 90
        2
 40
0.6
 41
30.0
 62
     5
 63
     7
 74
     0
 91
        0
 64
     7
 65
   257
 75
     1
175
     1
 42
1.0
 92
        8
 66
   257
 43
1.0
 76
     1
 77
     6
 78
     2
 67
     7
 79
     3
170
     0
171
     0
290
     0
174
     0
 93
       13
 44
0.0
173
     0
291
     0
 45
0.0
1001
ACAD
1000
AcDbSavedByObjectVersion
1070
     0
  0
VISUALSTYLE
  5
75
102
{ACAD_REACTORS
330
23
102
}
102
{ACAD_XDICTIONARY
360
B2
102
}
330
23
100
AcDbVisualStyle
  2
Shaded
 70
    27
 71
     2
 72
     2
 73
     1
 90
        2
 40
0.6
 41
30.0
 62
     5
 63
     7
 74
     0
 91
        4
 64
     7
 65
   257
 75
     1
175
     1
 42
1.0
 92
        8
 66
   257
 43
1.0
 76
     1
 77
     6
 78
     2
 67
     8
 79
     3
170
     0
171
     0
290
     0
174
     0
 93
        5
 44
0.0
173
     0
291
     0
 45
0.0
1001
ACAD
1000
AcDbSavedByObjectVersion
1070
     0
  0
VISUALSTYLE
  5
74
102
{ACAD_REACTORS
330
23
102
}
102
{ACAD_XDICTIONARY
360
B0
102
}
330
23
100
AcDbVisualStyle
  2
Shaded with edges
 70
    26
 71
     2
 72
     2
 73
     1
 90
        2
 40
0.6
 41
30.0
 62
     5
 63
     7
 74
     1
 91
       10
 64
     7
 65
   257
 75
     2
175
     1
 42
1.0
 92
        8
 66
   257
 43
1.0
 76
     1
 77
     6
 78
     2
 67
     7
 79
     3
170
     0
171
     0
290
     0
174
     0
 93
        5
 44
0.0
173
     0
291
     0
 45
0.0
1001
ACAD
1000
AcDbSavedByObjectVersion
1070
     0
  0
VISUALSTYLE
  5
71
102
{ACAD_REACTORS
330
23
102
}
102
{ACAD_XDICTIONARY
360
AA
102
}
330
23
100
AcDbVisualStyle
  2
Shades of Gray
 70
    23
 71
     2
 72
     2
 73
     3
 90
        0
 40
0.6
 41
30.0
 62
     5
 63
     7
 74
     2
 91
        2
 64
     7
 65
     7
 75
     1
175
     1
 42
40.0
 92
        8
 66
     7
 43
1.0
 76
     1
 77
     6
 78
     2
 67
     7
 79
     3
170
     0
171
     0
290
     0
174
     0
 93
        1
 44
0.0
173
     0
291
     0
 45
0.0
1001
ACAD
1000
AcDbSavedByObjectVersion
1070
     0
  0
VISUALSTYLE
  5
72
102
{ACAD_REACTORS
330
23
102
}
102
{ACAD_XDICTIONARY
360
AC
102
}
330
23
100
AcDbVisualStyle
  2
Sketchy
 70
    24
 71
     1
 72
     2
 73
     2
 90
        0
 40
0.6
 41
30.0
 62
     5
 63
     7
 74
     2
 91
        2
 64
     7
 65
     7
 75
     1
175
     1
 42
40.0
 92
       11
 66
     7
 43
1.0
 76
     1
 77
     6
 78
     2
 67
     7
 79
     6
170
     0
171
     0
290
     0
174
     0
 93
        1
 44
0.0
173
     0
291
     0
 45
0.0
1001
ACAD
1000
AcDbSavedByObjectVersion
1070
     0
  0
VISUALSTYLE
  5
6A
102
{ACAD_REACTORS
330
23
102
}
102
{ACAD_XDICTIONARY
360
9C
102
}
330
23
100
AcDbVisualStyle
  2
Thicken
 70
    13
 71
     2
 72
     2
 73
     0
 90
        0
 40
0.6
 41
30.0
 62
     5
 63
     7
 74
     1
 91
        4
 64
     7
 65
   257
 75
     1
175
     1
 42
1.0
 92
       12
 66
     7
 43
1.0
 76
     1
 77
     6
 78
     2
 67
     7
 79
     5
170
     0
171
     0
290
     0
174
     0
 93
        1
 44
0.0
173
     0
291
     1
 45
0.0
1001
ACAD
1000
AcDbSavedByObjectVersion
1070
     0
  0
VISUALSTYLE
  5
63
102
{ACAD_REACTORS
330
23
102
}
102
{ACAD_XDICTIONARY
360
8E
102
}
330
23
100
AcDbVisualStyle
  2
Wireframe
 70
     5
 71
     0
 72
     2
 73
     0
 90
        0
 40
0.6
 41
30.0
 62
     5
 63
     7
 74
     1
 91
        4
 64
     7
 65
   257
 75
     1
175
     1
 42
1.0
 92
        0
 66
   257
 43
1.0
 76
     1
 77
     6
 78
     2
 67
     7
 79
     3
170
     0
171
     0
290
     0
174
     0
 93
        1
 44
0.0
173
     0
291
     0
 45
0.0
1001
ACAD
1000
AcDbSavedByObjectVersion
1070
     0
  0
VISUALSTYLE
  5
73
102
{ACAD_REACTORS
330
23
102
}
102
{ACAD_XDICTIONARY
360
AE
102
}
330
23
100
AcDbVisualStyle
  2
X-Ray
 70
    25
 71
     2
 72
     2
 73
     1
 90
        1
 40
0.5
 41
30.0
 62
     5
 63
     7
 74
     1
 91
        0
 64
     7
 65
   257
 75
     1
175
     1
 42
1.0
 92
        8
 66
     7
 43
1.0
 76
     1
 77
     6
 78
     2
 67
     7
 79
     3
170
     0
171
     0
290
     0
174
     0
 93
       13
 44
0.0
173
     0
291
     0
 45
0.0
1001
ACAD
1000
AcDbSavedByObjectVersion
1070
     0
  0
DICTIONARYVAR
  5
59
102
{ACAD_REACTORS
330
58
102
}
330
58
100
DictionaryVariables
280
     0
  1
1:1
  0
DICTIONARYVAR
  5
78
102
{ACAD_REACTORS
330
58
102
}
330
58
100
DictionaryVariables
280
     0
  1
Standard
  0
DICTIONARYVAR
  5
77
102
{ACAD_REACTORS
330
58
102
}
330
58
100
DictionaryVariables
280
     0
  1
Standard
  0
DICTIONARYVAR
  5
79
102
{ACAD_REACTORS
330
58
102
}
330
58
100
DictionaryVariables
280
     0
  1
2
  0
DICTIONARYVAR
  5
7A
102
{ACAD_REACTORS
330
58
102
}
330
58
100
DictionaryVariables
280
     0
  1
1
  0
DICTIONARYVAR
  5
7D
102
{ACAD_REACTORS
330
58
102
}
330
58
100
DictionaryVariables
280
     0
  1
1
  0
DICTIONARY
  5
82
330
4C
100
AcDbDictionary
280
     1
281
     1
  3
ACAD_XREC_ROUNDTRIP
360
83
  0
DICTIONARY
  5
7E
330
E
100
AcDbDictionary
280
     1
281
     1
  3
ACAD_XREC_ROUNDTRIP
360
7F
  0
DICTIONARY
  5
80
330
6
100
AcDbDictionary
280
     1
281
     1
  3
ACAD_XREC_ROUNDTRIP
360
81
  0
DICTIONARY
  5
B5
330
5E
100
AcDbDictionary
280
     1
281
     1
  3
ACAD_XREC_ROUNDTRIP
360
B6
  0
DICTIONARY
  5
84
330
26
100
AcDbDictionary
280
     1
281
     1
  3
ACAD_XREC_ROUNDTRIP
360
85
  0
DICTIONARY
  5
92
330
65
100
AcDbDictionary
280
     1
281
     1
  3
ACAD_XREC_ROUNDTRIP
360
93
  0
DICTIONARY
  5
9A
330
69
100
AcDbDictionary
280
     1
281
     1
  3
ACAD_XREC_ROUNDTRIP
360
9B
  0
DICTIONARY
  5
A2
330
6D
100
AcDbDictionary
280
     1
281
     1
  3
ACAD_XREC_ROUNDTRIP
360
A3
  0
DICTIONARY
  5
96
330
67
100
AcDbDictionary
280
     1
281
     1
  3
ACAD_XREC_ROUNDTRIP
360
97
  0
DICTIONARY
  5
98
330
68
100
AcDbDictionary
280
     1
281
     1
  3
ACAD_XREC_ROUNDTRIP
360
99
  0
DICTIONARY
  5
A8
330
70
100
AcDbDictionary
280
     1
281
     1
  3
ACAD_XREC_ROUNDTRIP
360
A9
  0
DICTIONARY
  5
A0
330
6C
100
AcDbDictionary
280
     1
281
     1
  3
ACAD_XREC_ROUNDTRIP
360
A1
  0
DICTIONARY
  5
86
330
5F
100
AcDbDictionary
280
     1
281
     1
  3
ACAD_XREC_ROUNDTRIP
360
87
  0
DICTIONARY
  5
88
330
60
100
AcDbDictionary
280
     1
281
     1
  3
ACAD_XREC_ROUNDTRIP
360
89
  0
DICTIONARY
  5
8A
330
61
100
AcDbDictionary
280
     1
281
     1
  3
ACAD_XREC_ROUNDTRIP
360
8B
  0
DICTIONARY
  5
8C
330
62
100
AcDbDictionary
280
     1
281
     1
  3
ACAD_XREC_ROUNDTRIP
360
8D
  0
DICTIONARY
  5
90
330
64
100
AcDbDictionary
280
     1
281
     1
  3
ACAD_XREC_ROUNDTRIP
360
91
  0
DICTIONARY
  5
A4
330
6E
100
AcDbDictionary
280
     1
281
     1
  3
ACAD_XREC_ROUNDTRIP
360
A5
  0
DICTIONARY
  5
9E
330
6B
100
AcDbDictionary
280
     1
281
     1
  3
ACAD_XREC_ROUNDTRIP
360
9F
  0
DICTIONARY
  5
A6
330
6F
100
AcDbDictionary
280
     1
281
     1
  3
ACAD_XREC_ROUNDTRIP
360
A7
  0
DICTIONARY
  5
94
330
66
100
AcDbDictionary
280
     1
281
     1
  3
ACAD_XREC_ROUNDTRIP
360
95
  0
DICTIONARY
  5
B2
330
75
100
AcDbDictionary
280
     1
281
     1
  3
ACAD_XREC_ROUNDTRIP
360
B3
  0
DICTIONARY
  5
B0
330
74
100
AcDbDictionary
280
     1
281
     1
  3
ACAD_XREC_ROUNDTRIP
360
B1
  0
DICTIONARY
  5
AA
330
71
100
AcDbDictionary
280
     1
281
     1
  3
ACAD_XREC_ROUNDTRIP
360
AB
  0
DICTIONARY
  5
AC
330
72
100
AcDbDictionary
280
     1
281
     1
  3
ACAD_XREC_ROUNDTRIP
360
AD
  0
DICTIONARY
  5
9C
330
6A
100
AcDbDictionary
280
     1
281
     1
  3
ACAD_XREC_ROUNDTRIP
360
9D
  0
DICTIONARY
  5
8E
330
63
100
AcDbDictionary
280
     1
281
     1
  3
ACAD_XREC_ROUNDTRIP
360
8F
  0
DICTIONARY
  5
AE
330
73
100
AcDbDictionary
280
     1
281
     1
  3
ACAD_XREC_ROUNDTRIP
360
AF
  0
XRECORD
  5
83
102
{ACAD_REACTORS
330
82
102
}
330
82
100
AcDbXrecord
280
     1
102
MATERIAL
148
0.0
149
0.0
149
0.0
 93
        0
 94
      127
282
     0
 72
     1
 77
     1
171
     1
175
     1
179
     1
273
     0
  0
XRECORD
  5
7F
102
{ACAD_REACTORS
330
7E
102
}
330
7E
100
AcDbXrecord
280
     1
102
MATERIAL
148
0.0
149
0.0
149
0.0
 93
        0
 94
      127
282
     0
 72
     1
 77
     1
171
     1
175
     1
179
     1
273
     0
  0
XRECORD
  5
81
102
{ACAD_REACTORS
330
80
102
}
330
80
100
AcDbXrecord
280
     1
102
MATERIAL
148
0.0
149
0.0
149
0.0
 93
        0
 94
      127
282
     0
 72
     1
 77
     1
171
     1
175
     1
179
     1
273
     0
  0
XRECORD
  5
B6
102
{ACAD_REACTORS
330
B5
102
}
330
B5
100
AcDbXrecord
280
     1
102
ACAD_ROUNDTRIP_2010_MLEADER_STYLE
  0
XRECORD
  5
85
102
{ACAD_REACTORS
330
84
102
}
330
84
100
AcDbXrecord
280
     1
102
RTVSPropertyOp0
 70
     1
102
RTVSPropertyOp1
 70
     1
102
RTVSPropertyOp2
 70
     1
102
RTVSPropertyOp3
 70
     1
102
RTVSPropertyOp4
 70
     1
102
RTVSPropertyOp5
 70
     1
102
RTVSPropertyOp6
 70
     1
102
RTVSPropertyOp7
 70
     1
102
RTVSPropertyOp8
 70
     1
102
RTVSPropertyOp9
 70
     1
102
RTVSPropertyOp10
 70
     1
102
RTVSPropertyOp11
 70
     1
102
RTVSPropertyOp12
 70
     1
102
RTVSPropertyOp13
 70
     1
102
RTVSPropertyOp14
 70
     1
102
RTVSPropertyOp15
 70
     1
102
RTVSPropertyOp16
 70
     1
102
RTVSPropertyOp17
 70
     1
102
RTVSPropertyOp18
 70
     1
102
RTVSPropertyOp19
 70
     1
102
RTVSPropertyOp20
 70
     1
102
RTVSPropertyOp21
 70
     1
102
RTVSPropertyOp22
 70
     1
102
RTVSPropertyOp23
 70
     1
102
RTVSPropertyOp24
 70
     1
102
RTVSPropertyOp25
 70
     1
102
RTVSPropertyOp26
 70
     1
102
RTVSPropertyOp27
 70
     1
102
RTVSPropertyOp28
 70
     1
102
RTVSPropertyOp29
 70
     1
102
RTVSPropertyOp30
 70
     1
102
RTVSPropertyOp31
 70
     1
102
RTVSPropertyOp32
 70
     1
102
RTVSPropertyOp33
 70
     1
102
RTVSPropertyOp34
 70
     1
102
RTVSPropertyOp35
 70
     1
102
RTVSPropertyOp36
 70
     1
102
RTVSPropertyOp37
 70
     1
102
RTVSPropertyOp38
 70
     1
102
RTVSPropertyOp39
 70
     1
102
RTVSPropertyOp40
 70
     1
102
RTVSPropertyOp41
 70
     1
102
RTVSPropertyOp42
 70
     1
102
RTVSPropertyOp43
 70
     1
102
RTVSPropertyOp44
 70
     1
102
RTVSPropertyOp45
 70
     1
102
RTVSPropertyOp46
 70
     1
102
RTVSPropertyOp47
 70
     1
102
RTVSPropertyOp48
 70
     1
102
RTVSPropertyOp49
 70
     1
102
RTVSPropertyOp50
 70
     1
102
RTVSPropertyOp51
 70
     0
102
RTVSPropertyOp52
 70
     0
102
RTVSPropertyOp53
 70
     1
102
RTVSPropertyOp54
 70
     1
102
RTVSPropertyOp55
 70
     1
102
RTVSPropertyOp56
 70
     1
102
RTVSPropertyOp57
 70
     1
102
RTVSPost2010Prop28
280
     1
102
RTVSPost2010PropOp28
 70
     1
102
RTVSPost2010Prop29
280
     1
102
RTVSPost2010PropOp29
 70
     1
102
RTVSPost2010Prop30
280
     0
102
RTVSPost2010PropOp30
 70
     1
102
RTVSPost2010Prop31
280
     0
102
RTVSPost2010PropOp31
 70
     1
102
RTVSPost2010Prop32
280
     0
102
RTVSPost2010PropOp32
 70
     1
102
RTVSPost2010Prop33
280
     0
102
RTVSPost2010PropOp33
 70
     1
102
RTVSPost2010Prop34
280
     0
102
RTVSPost2010PropOp34
 70
     1
102
RTVSPost2010Prop35
280
     0
102
RTVSPost2010PropOp35
 70
     1
102
RTVSPost2010Prop36
280
     0
102
RTVSPost2010PropOp36
 70
     1
102
RTVSPost2010Prop37
 90
       50
102
RTVSPost2010PropOp37
 70
     1
102
RTVSPost2010Prop38
140
0.0
102
RTVSPost2010PropOp38
 70
     1
102
RTVSPost2010Prop39
140
1.0
102
RTVSPost2010PropOp39
 70
     1
102
RTVSPost2010Prop40
 90
        0
102
RTVSPost2010PropOp40
 70
     1
102
RTVSPost2010Prop41ColorIndex
 90
       18
102
RTVSPost2010Prop41ColorRGB
 90
        0
102
RTVSPost2010PropOp41
 70
     1
102
RTVSPost2010Prop42
 90
       50
102
RTVSPost2010PropOp42
 70
     1
102
RTVSPost2010Prop43
 90
        3
102
RTVSPost2010PropOp43
 70
     1
102
RTVSPost2010Prop44ColorIndex
 90
        5
102
RTVSPost2010Prop44ColorRGB
 90
      255
102
RTVSPost2010PropOp44
 70
     1
102
RTVSPost2010Prop45
280
     0
102
RTVSPost2010PropOp45
 70
     1
102
RTVSPost2010Prop46
 90
       50
102
RTVSPost2010PropOp46
 70
     1
102
RTVSPost2010Prop47
 90
       50
102
RTVSPost2010PropOp47
 70
     1
102
RTVSPost2010Prop48
 90
       50
102
RTVSPost2010PropOp48
 70
     1
102
RTVSPost2010Prop49
280
     0
102
RTVSPost2010PropOp49
 70
     1
102
RTVSPost2010Prop50
 90
       50
102
RTVSPost2010PropOp50
 70
     1
102
RTVSPost2010Prop51ColorIndex
 90
      256
102
RTVSPost2010Prop51ColorRGB
 90
-16777216
102
RTVSPost2010PropOp51
 70
     0
102
RTVSPost2010Prop52
140
1.0
102
RTVSPost2010PropOp52
 70
     0
102
RTVSPost2010Prop53
 90
        2
102
RTVSPost2010PropOp53
 70
     1
102
RTVSPost2010Prop54
  1
strokes_ogs.tif
102
RTVSPost2010PropOp54
 70
     1
102
RTVSPost2010Prop55
280
     0
102
RTVSPost2010PropOp55
 70
     1
102
RTVSPost2010Prop56
140
1.0
102
RTVSPost2010PropOp56
 70
     1
102
RTVSPost2010Prop57
140
1.0
102
RTVSPost2010PropOp57
 70
     1
  0
XRECORD
  5
93
102
{ACAD_REACTORS
330
92
102
}
330
92
100
AcDbXrecord
280
     1
102
RTVSPropertyOp0
 70
     1
102
RTVSPropertyOp1
 70
     1
102
RTVSPropertyOp2
 70
     1
102
RTVSPropertyOp3
 70
     1
102
RTVSPropertyOp4
 70
     1
102
RTVSPropertyOp5
 70
     1
102
RTVSPropertyOp6
 70
     1
102
RTVSPropertyOp7
 70
     1
102
RTVSPropertyOp8
 70
     1
102
RTVSPropertyOp9
 70
     1
102
RTVSPropertyOp10
 70
     1
102
RTVSPropertyOp11
 70
     1
102
RTVSPropertyOp12
 70
     1
102
RTVSPropertyOp13
 70
     1
102
RTVSPropertyOp14
 70
     1
102
RTVSPropertyOp15
 70
     1
102
RTVSPropertyOp16
 70
     1
102
RTVSPropertyOp17
 70
     1
102
RTVSPropertyOp18
 70
     1
102
RTVSPropertyOp19
 70
     1
102
RTVSPropertyOp20
 70
     1
102
RTVSPropertyOp21
 70
     1
102
RTVSPropertyOp22
 70
     1
102
RTVSPropertyOp23
 70
     1
102
RTVSPropertyOp24
 70
     1
102
RTVSPropertyOp25
 70
     1
102
RTVSPropertyOp26
 70
     1
102
RTVSPropertyOp27
 70
     1
102
RTVSPropertyOp28
 70
     1
102
RTVSPropertyOp29
 70
     1
102
RTVSPropertyOp30
 70
     1
102
RTVSPropertyOp31
 70
     1
102
RTVSPropertyOp32
 70
     1
102
RTVSPropertyOp33
 70
     1
102
RTVSPropertyOp34
 70
     1
102
RTVSPropertyOp35
 70
     1
102
RTVSPropertyOp36
 70
     1
102
RTVSPropertyOp37
 70
     1
102
RTVSPropertyOp38
 70
     1
102
RTVSPropertyOp39
 70
     1
102
RTVSPropertyOp40
 70
     1
102
RTVSPropertyOp41
 70
     1
102
RTVSPropertyOp42
 70
     1
102
RTVSPropertyOp43
 70
     1
102
RTVSPropertyOp44
 70
     1
102
RTVSPropertyOp45
 70
     1
102
RTVSPropertyOp46
 70
     1
102
RTVSPropertyOp47
 70
     1
102
RTVSPropertyOp48
 70
     1
102
RTVSPropertyOp49
 70
     1
102
RTVSPropertyOp50
 70
     1
102
RTVSPropertyOp51
 70
     0
102
RTVSPropertyOp52
 70
     0
102
RTVSPropertyOp53
 70
     1
102
RTVSPropertyOp54
 70
     1
102
RTVSPropertyOp55
 70
     1
102
RTVSPropertyOp56
 70
     1
102
RTVSPropertyOp57
 70
     1
102
RTVSPost2010Prop28
280
     0
102
RTVSPost2010PropOp28
 70
     1
102
RTVSPost2010Prop29
280
     1
102
RTVSPost2010PropOp29
 70
     1
102
RTVSPost2010Prop30
280
     1
102
RTVSPost2010PropOp30
 70
     1
102
RTVSPost2010Prop31
280
     0
102
RTVSPost2010PropOp31
 70
     1
102
RTVSPost2010Prop32
280
     0
102
RTVSPost2010PropOp32
 70
     1
102
RTVSPost2010Prop33
280
     0
102
RTVSPost2010PropOp33
 70
     1
102
RTVSPost2010Prop34
280
     0
102
RTVSPost2010PropOp34
 70
     1
102
RTVSPost2010Prop35
280
     0
102
RTVSPost2010PropOp35
 70
     1
102
RTVSPost2010Prop36
280
     0
102
RTVSPost2010PropOp36
 70
     1
102
RTVSPost2010Prop37
 90
       50
102
RTVSPost2010PropOp37
 70
     1
102
RTVSPost2010Prop38
140
0.0
102
RTVSPost2010PropOp38
 70
     1
102
RTVSPost2010Prop39
140
1.0
102
RTVSPost2010PropOp39
 70
     1
102
RTVSPost2010Prop40
 90
        0
102
RTVSPost2010PropOp40
 70
     1
102
RTVSPost2010Prop41ColorIndex
 90
       18
102
RTVSPost2010Prop41ColorRGB
 90
        0
102
RTVSPost2010PropOp41
 70
     1
102
RTVSPost2010Prop42
 90
       50
102
RTVSPost2010PropOp42
 70
     1
102
RTVSPost2010Prop43
 90
        3
102
RTVSPost2010PropOp43
 70
     1
102
RTVSPost2010Prop44ColorIndex
 90
        5
102
RTVSPost2010Prop44ColorRGB
 90
      255
102
RTVSPost2010PropOp44
 70
     1
102
RTVSPost2010Prop45
280
     0
102
RTVSPost2010PropOp45
 70
     1
102
RTVSPost2010Prop46
 90
       50
102
RTVSPost2010PropOp46
 70
     1
102
RTVSPost2010Prop47
 90
       50
102
RTVSPost2010PropOp47
 70
     1
102
RTVSPost2010Prop48
 90
       50
102
RTVSPost2010PropOp48
 70
     1
102
RTVSPost2010Prop49
280
     0
102
RTVSPost2010PropOp49
 70
     1
102
RTVSPost2010Prop50
 90
       50
102
RTVSPost2010PropOp50
 70
     1
102
RTVSPost2010Prop51ColorIndex
 90
      256
102
RTVSPost2010Prop51ColorRGB
 90
-16777216
102
RTVSPost2010PropOp51
 70
     0
102
RTVSPost2010Prop52
140
1.0
102
RTVSPost2010PropOp52
 70
     0
102
RTVSPost2010Prop53
 90
        2
102
RTVSPost2010PropOp53
 70
     1
102
RTVSPost2010Prop54
  1
strokes_ogs.tif
102
RTVSPost2010PropOp54
 70
     1
102
RTVSPost2010Prop55
280
     0
102
RTVSPost2010PropOp55
 70
     1
102
RTVSPost2010Prop56
140
1.0
102
RTVSPost2010PropOp56
 70
     1
102
RTVSPost2010Prop57
140
1.0
102
RTVSPost2010PropOp57
 70
     1
  0
XRECORD
  5
9B
102
{ACAD_REACTORS
330
9A
102
}
330
9A
100
AcDbXrecord
280
     1
102
RTVSPropertyOp0
 70
     1
102
RTVSPropertyOp1
 70
     1
102
RTVSPropertyOp2
 70
     1
102
RTVSPropertyOp3
 70
     1
102
RTVSPropertyOp4
 70
     1
102
RTVSPropertyOp5
 70
     1
102
RTVSPropertyOp6
 70
     1
102
RTVSPropertyOp7
 70
     1
102
RTVSPropertyOp8
 70
     1
102
RTVSPropertyOp9
 70
     1
102
RTVSPropertyOp10
 70
     1
102
RTVSPropertyOp11
 70
     1
102
RTVSPropertyOp12
 70
     1
102
RTVSPropertyOp13
 70
     1
102
RTVSPropertyOp14
 70
     1
102
RTVSPropertyOp15
 70
     1
102
RTVSPropertyOp16
 70
     1
102
RTVSPropertyOp17
 70
     1
102
RTVSPropertyOp18
 70
     1
102
RTVSPropertyOp19
 70
     1
102
RTVSPropertyOp20
 70
     1
102
RTVSPropertyOp21
 70
     1
102
RTVSPropertyOp22
 70
     1
102
RTVSPropertyOp23
 70
     1
102
RTVSPropertyOp24
 70
     1
102
RTVSPropertyOp25
 70
     1
102
RTVSPropertyOp26
 70
     1
102
RTVSPropertyOp27
 70
     1
102
RTVSPropertyOp28
 70
     1
102
RTVSPropertyOp29
 70
     1
102
RTVSPropertyOp30
 70
     1
102
RTVSPropertyOp31
 70
     1
102
RTVSPropertyOp32
 70
     1
102
RTVSPropertyOp33
 70
     1
102
RTVSPropertyOp34
 70
     1
102
RTVSPropertyOp35
 70
     1
102
RTVSPropertyOp36
 70
     1
102
RTVSPropertyOp37
 70
     1
102
RTVSPropertyOp38
 70
     1
102
RTVSPropertyOp39
 70
     1
102
RTVSPropertyOp40
 70
     1
102
RTVSPropertyOp41
 70
     1
102
RTVSPropertyOp42
 70
     1
102
RTVSPropertyOp43
 70
     1
102
RTVSPropertyOp44
 70
     1
102
RTVSPropertyOp45
 70
     1
102
RTVSPropertyOp46
 70
     1
102
RTVSPropertyOp47
 70
     1
102
RTVSPropertyOp48
 70
     1
102
RTVSPropertyOp49
 70
     1
102
RTVSPropertyOp50
 70
     1
102
RTVSPropertyOp51
 70
     0
102
RTVSPropertyOp52
 70
     0
102
RTVSPropertyOp53
 70
     1
102
RTVSPropertyOp54
 70
     1
102
RTVSPropertyOp55
 70
     1
102
RTVSPropertyOp56
 70
     1
102
RTVSPropertyOp57
 70
     1
102
RTVSPost2010Prop28
280
     0
102
RTVSPost2010PropOp28
 70
     1
102
RTVSPost2010Prop29
280
     1
102
RTVSPost2010PropOp29
 70
     1
102
RTVSPost2010Prop30
280
     1
102
RTVSPost2010PropOp30
 70
     1
102
RTVSPost2010Prop31
280
     0
102
RTVSPost2010PropOp31
 70
     1
102
RTVSPost2010Prop32
280
     0
102
RTVSPost2010PropOp32
 70
     1
102
RTVSPost2010Prop33
280
     0
102
RTVSPost2010PropOp33
 70
     1
102
RTVSPost2010Prop34
280
     0
102
RTVSPost2010PropOp34
 70
     1
102
RTVSPost2010Prop35
280
     0
102
RTVSPost2010PropOp35
 70
     1
102
RTVSPost2010Prop36
280
     0
102
RTVSPost2010PropOp36
 70
     1
102
RTVSPost2010Prop37
 90
       50
102
RTVSPost2010PropOp37
 70
     1
102
RTVSPost2010Prop38
140
0.0
102
RTVSPost2010PropOp38
 70
     1
102
RTVSPost2010Prop39
140
1.0
102
RTVSPost2010PropOp39
 70
     1
102
RTVSPost2010Prop40
 90
        0
102
RTVSPost2010PropOp40
 70
     1
102
RTVSPost2010Prop41ColorIndex
 90
       18
102
RTVSPost2010Prop41ColorRGB
 90
        0
102
RTVSPost2010PropOp41
 70
     1
102
RTVSPost2010Prop42
 90
       50
102
RTVSPost2010PropOp42
 70
     1
102
RTVSPost2010Prop43
 90
        3
102
RTVSPost2010PropOp43
 70
     1
102
RTVSPost2010Prop44ColorIndex
 90
        5
102
RTVSPost2010Prop44ColorRGB
 90
      255
102
RTVSPost2010PropOp44
 70
     1
102
RTVSPost2010Prop45
280
     0
102
RTVSPost2010PropOp45
 70
     1
102
RTVSPost2010Prop46
 90
       50
102
RTVSPost2010PropOp46
 70
     1
102
RTVSPost2010Prop47
 90
       50
102
RTVSPost2010PropOp47
 70
     1
102
RTVSPost2010Prop48
 90
       50
102
RTVSPost2010PropOp48
 70
     1
102
RTVSPost2010Prop49
280
     0
102
RTVSPost2010PropOp49
 70
     1
102
RTVSPost2010Prop50
 90
       50
102
RTVSPost2010PropOp50
 70
     1
102
RTVSPost2010Prop51ColorIndex
 90
      256
102
RTVSPost2010Prop51ColorRGB
 90
-16777216
102
RTVSPost2010PropOp51
 70
     0
102
RTVSPost2010Prop52
140
1.0
102
RTVSPost2010PropOp52
 70
     0
102
RTVSPost2010Prop53
 90
        2
102
RTVSPost2010PropOp53
 70
     1
102
RTVSPost2010Prop54
  1
strokes_ogs.tif
102
RTVSPost2010PropOp54
 70
     1
102
RTVSPost2010Prop55
280
     0
102
RTVSPost2010PropOp55
 70
     1
102
RTVSPost2010Prop56
140
1.0
102
RTVSPost2010PropOp56
 70
     1
102
RTVSPost2010Prop57
140
1.0
102
RTVSPost2010PropOp57
 70
     1
  0
XRECORD
  5
A3
102
{ACAD_REACTORS
330
A2
102
}
330
A2
100
AcDbXrecord
280
     1
102
RTVSPropertyOp0
 70
     1
102
RTVSPropertyOp1
 70
     1
102
RTVSPropertyOp2
 70
     1
102
RTVSPropertyOp3
 70
     1
102
RTVSPropertyOp4
 70
     1
102
RTVSPropertyOp5
 70
     1
102
RTVSPropertyOp6
 70
     1
102
RTVSPropertyOp7
 70
     1
102
RTVSPropertyOp8
 70
     1
102
RTVSPropertyOp9
 70
     1
102
RTVSPropertyOp10
 70
     1
102
RTVSPropertyOp11
 70
     1
102
RTVSPropertyOp12
 70
     1
102
RTVSPropertyOp13
 70
     1
102
RTVSPropertyOp14
 70
     1
102
RTVSPropertyOp15
 70
     1
102
RTVSPropertyOp16
 70
     1
102
RTVSPropertyOp17
 70
     1
102
RTVSPropertyOp18
 70
     1
102
RTVSPropertyOp19
 70
     1
102
RTVSPropertyOp20
 70
     1
102
RTVSPropertyOp21
 70
     1
102
RTVSPropertyOp22
 70
     1
102
RTVSPropertyOp23
 70
     1
102
RTVSPropertyOp24
 70
     1
102
RTVSPropertyOp25
 70
     1
102
RTVSPropertyOp26
 70
     1
102
RTVSPropertyOp27
 70
     1
102
RTVSPropertyOp28
 70
     1
102
RTVSPropertyOp29
 70
     1
102
RTVSPropertyOp30
 70
     1
102
RTVSPropertyOp31
 70
     1
102
RTVSPropertyOp32
 70
     1
102
RTVSPropertyOp33
 70
     1
102
RTVSPropertyOp34
 70
     1
102
RTVSPropertyOp35
 70
     1
102
RTVSPropertyOp36
 70
     1
102
RTVSPropertyOp37
 70
     1
102
RTVSPropertyOp38
 70
     1
102
RTVSPropertyOp39
 70
     1
102
RTVSPropertyOp40
 70
     1
102
RTVSPropertyOp41
 70
     1
102
RTVSPropertyOp42
 70
     1
102
RTVSPropertyOp43
 70
     1
102
RTVSPropertyOp44
 70
     1
102
RTVSPropertyOp45
 70
     1
102
RTVSPropertyOp46
 70
     1
102
RTVSPropertyOp47
 70
     1
102
RTVSPropertyOp48
 70
     1
102
RTVSPropertyOp49
 70
     1
102
RTVSPropertyOp50
 70
     1
102
RTVSPropertyOp51
 70
     0
102
RTVSPropertyOp52
 70
     0
102
RTVSPropertyOp53
 70
     1
102
RTVSPropertyOp54
 70
     1
102
RTVSPropertyOp55
 70
     1
102
RTVSPropertyOp56
 70
     1
102
RTVSPropertyOp57
 70
     1
102
RTVSPost2010Prop28
280
     0
102
RTVSPost2010PropOp28
 70
     1
102
RTVSPost2010Prop29
280
     1
102
RTVSPost2010PropOp29
 70
     1
102
RTVSPost2010Prop30
280
     1
102
RTVSPost2010PropOp30
 70
     1
102
RTVSPost2010Prop31
280
     0
102
RTVSPost2010PropOp31
 70
     1
102
RTVSPost2010Prop32
280
     0
102
RTVSPost2010PropOp32
 70
     1
102
RTVSPost2010Prop33
280
     0
102
RTVSPost2010PropOp33
 70
     1
102
RTVSPost2010Prop34
280
     0
102
RTVSPost2010PropOp34
 70
     1
102
RTVSPost2010Prop35
280
     0
102
RTVSPost2010PropOp35
 70
     1
102
RTVSPost2010Prop36
280
     0
102
RTVSPost2010PropOp36
 70
     1
102
RTVSPost2010Prop37
 90
       50
102
RTVSPost2010PropOp37
 70
     1
102
RTVSPost2010Prop38
140
0.0
102
RTVSPost2010PropOp38
 70
     1
102
RTVSPost2010Prop39
140
1.0
102
RTVSPost2010PropOp39
 70
     1
102
RTVSPost2010Prop40
 90
        0
102
RTVSPost2010PropOp40
 70
     1
102
RTVSPost2010Prop41ColorIndex
 90
       18
102
RTVSPost2010Prop41ColorRGB
 90
        0
102
RTVSPost2010PropOp41
 70
     1
102
RTVSPost2010Prop42
 90
       50
102
RTVSPost2010PropOp42
 70
     1
102
RTVSPost2010Prop43
 90
        3
102
RTVSPost2010PropOp43
 70
     1
102
RTVSPost2010Prop44ColorIndex
 90
        5
102
RTVSPost2010Prop44ColorRGB
 90
      255
102
RTVSPost2010PropOp44
 70
     1
102
RTVSPost2010Prop45
280
     0
102
RTVSPost2010PropOp45
 70
     1
102
RTVSPost2010Prop46
 90
       50
102
RTVSPost2010PropOp46
 70
     1
102
RTVSPost2010Prop47
 90
       50
102
RTVSPost2010PropOp47
 70
     1
102
RTVSPost2010Prop48
 90
       50
102
RTVSPost2010PropOp48
 70
     1
102
RTVSPost2010Prop49
280
     0
102
RTVSPost2010PropOp49
 70
     1
102
RTVSPost2010Prop50
 90
       50
102
RTVSPost2010PropOp50
 70
     1
102
RTVSPost2010Prop51ColorIndex
 90
      256
102
RTVSPost2010Prop51ColorRGB
 90
-16777216
102
RTVSPost2010PropOp51
 70
     0
102
RTVSPost2010Prop52
140
1.0
102
RTVSPost2010PropOp52
 70
     0
102
RTVSPost2010Prop53
 90
        2
102
RTVSPost2010PropOp53
 70
     1
102
RTVSPost2010Prop54
  1
strokes_ogs.tif
102
RTVSPost2010PropOp54
 70
     1
102
RTVSPost2010Prop55
280
     0
102
RTVSPost2010PropOp55
 70
     1
102
RTVSPost2010Prop56
140
1.0
102
RTVSPost2010PropOp56
 70
     1
102
RTVSPost2010Prop57
140
1.0
102
RTVSPost2010PropOp57
 70
     1
  0
XRECORD
  5
97
102
{ACAD_REACTORS
330
96
102
}
330
96
100
AcDbXrecord
280
     1
102
RTVSPropertyOp0
 70
     1
102
RTVSPropertyOp1
 70
     1
102
RTVSPropertyOp2
 70
     1
102
RTVSPropertyOp3
 70
     1
102
RTVSPropertyOp4
 70
     1
102
RTVSPropertyOp5
 70
     1
102
RTVSPropertyOp6
 70
     1
102
RTVSPropertyOp7
 70
     1
102
RTVSPropertyOp8
 70
     1
102
RTVSPropertyOp9
 70
     1
102
RTVSPropertyOp10
 70
     1
102
RTVSPropertyOp11
 70
     1
102
RTVSPropertyOp12
 70
     1
102
RTVSPropertyOp13
 70
     1
102
RTVSPropertyOp14
 70
     1
102
RTVSPropertyOp15
 70
     1
102
RTVSPropertyOp16
 70
     1
102
RTVSPropertyOp17
 70
     1
102
RTVSPropertyOp18
 70
     1
102
RTVSPropertyOp19
 70
     1
102
RTVSPropertyOp20
 70
     1
102
RTVSPropertyOp21
 70
     1
102
RTVSPropertyOp22
 70
     1
102
RTVSPropertyOp23
 70
     1
102
RTVSPropertyOp24
 70
     1
102
RTVSPropertyOp25
 70
     1
102
RTVSPropertyOp26
 70
     1
102
RTVSPropertyOp27
 70
     1
102
RTVSPropertyOp28
 70
     1
102
RTVSPropertyOp29
 70
     1
102
RTVSPropertyOp30
 70
     1
102
RTVSPropertyOp31
 70
     1
102
RTVSPropertyOp32
 70
     1
102
RTVSPropertyOp33
 70
     1
102
RTVSPropertyOp34
 70
     1
102
RTVSPropertyOp35
 70
     1
102
RTVSPropertyOp36
 70
     1
102
RTVSPropertyOp37
 70
     1
102
RTVSPropertyOp38
 70
     1
102
RTVSPropertyOp39
 70
     1
102
RTVSPropertyOp40
 70
     1
102
RTVSPropertyOp41
 70
     1
102
RTVSPropertyOp42
 70
     1
102
RTVSPropertyOp43
 70
     1
102
RTVSPropertyOp44
 70
     1
102
RTVSPropertyOp45
 70
     1
102
RTVSPropertyOp46
 70
     1
102
RTVSPropertyOp47
 70
     1
102
RTVSPropertyOp48
 70
     1
102
RTVSPropertyOp49
 70
     1
102
RTVSPropertyOp50
 70
     1
102
RTVSPropertyOp51
 70
     0
102
RTVSPropertyOp52
 70
     0
102
RTVSPropertyOp53
 70
     1
102
RTVSPropertyOp54
 70
     1
102
RTVSPropertyOp55
 70
     1
102
RTVSPropertyOp56
 70
     1
102
RTVSPropertyOp57
 70
     1
102
RTVSPost2010Prop28
280
     0
102
RTVSPost2010PropOp28
 70
     1
102
RTVSPost2010Prop29
280
     1
102
RTVSPost2010PropOp29
 70
     1
102
RTVSPost2010Prop30
280
     1
102
RTVSPost2010PropOp30
 70
     1
102
RTVSPost2010Prop31
280
     0
102
RTVSPost2010PropOp31
 70
     1
102
RTVSPost2010Prop32
280
     0
102
RTVSPost2010PropOp32
 70
     1
102
RTVSPost2010Prop33
280
     0
102
RTVSPost2010PropOp33
 70
     1
102
RTVSPost2010Prop34
280
     0
102
RTVSPost2010PropOp34
 70
     1
102
RTVSPost2010Prop35
280
     0
102
RTVSPost2010PropOp35
 70
     1
102
RTVSPost2010Prop36
280
     0
102
RTVSPost2010PropOp36
 70
     1
102
RTVSPost2010Prop37
 90
       50
102
RTVSPost2010PropOp37
 70
     1
102
RTVSPost2010Prop38
140
0.0
102
RTVSPost2010PropOp38
 70
     1
102
RTVSPost2010Prop39
140
1.0
102
RTVSPost2010PropOp39
 70
     1
102
RTVSPost2010Prop40
 90
        0
102
RTVSPost2010PropOp40
 70
     1
102
RTVSPost2010Prop41ColorIndex
 90
       18
102
RTVSPost2010Prop41ColorRGB
 90
        0
102
RTVSPost2010PropOp41
 70
     1
102
RTVSPost2010Prop42
 90
       50
102
RTVSPost2010PropOp42
 70
     1
102
RTVSPost2010Prop43
 90
        3
102
RTVSPost2010PropOp43
 70
     1
102
RTVSPost2010Prop44ColorIndex
 90
        5
102
RTVSPost2010Prop44ColorRGB
 90
      255
102
RTVSPost2010PropOp44
 70
     1
102
RTVSPost2010Prop45
280
     0
102
RTVSPost2010PropOp45
 70
     1
102
RTVSPost2010Prop46
 90
       50
102
RTVSPost2010PropOp46
 70
     1
102
RTVSPost2010Prop47
 90
       50
102
RTVSPost2010PropOp47
 70
     1
102
RTVSPost2010Prop48
 90
       50
102
RTVSPost2010PropOp48
 70
     1
102
RTVSPost2010Prop49
280
     0
102
RTVSPost2010PropOp49
 70
     1
102
RTVSPost2010Prop50
 90
       50
102
RTVSPost2010PropOp50
 70
     1
102
RTVSPost2010Prop51ColorIndex
 90
      256
102
RTVSPost2010Prop51ColorRGB
 90
-16777216
102
RTVSPost2010PropOp51
 70
     0
102
RTVSPost2010Prop52
140
1.0
102
RTVSPost2010PropOp52
 70
     0
102
RTVSPost2010Prop53
 90
        2
102
RTVSPost2010PropOp53
 70
     1
102
RTVSPost2010Prop54
  1
strokes_ogs.tif
102
RTVSPost2010PropOp54
 70
     1
102
RTVSPost2010Prop55
280
     0
102
RTVSPost2010PropOp55
 70
     1
102
RTVSPost2010Prop56
140
1.0
102
RTVSPost2010PropOp56
 70
     1
102
RTVSPost2010Prop57
140
1.0
102
RTVSPost2010PropOp57
 70
     1
  0
XRECORD
  5
99
102
{ACAD_REACTORS
330
98
102
}
330
98
100
AcDbXrecord
280
     1
102
RTVSPropertyOp0
 70
     1
102
RTVSPropertyOp1
 70
     1
102
RTVSPropertyOp2
 70
     1
102
RTVSPropertyOp3
 70
     1
102
RTVSPropertyOp4
 70
     1
102
RTVSPropertyOp5
 70
     1
102
RTVSPropertyOp6
 70
     1
102
RTVSPropertyOp7
 70
     1
102
RTVSPropertyOp8
 70
     1
102
RTVSPropertyOp9
 70
     1
102
RTVSPropertyOp10
 70
     1
102
RTVSPropertyOp11
 70
     1
102
RTVSPropertyOp12
 70
     1
102
RTVSPropertyOp13
 70
     1
102
RTVSPropertyOp14
 70
     1
102
RTVSPropertyOp15
 70
     1
102
RTVSPropertyOp16
 70
     1
102
RTVSPropertyOp17
 70
     1
102
RTVSPropertyOp18
 70
     1
102
RTVSPropertyOp19
 70
     1
102
RTVSPropertyOp20
 70
     1
102
RTVSPropertyOp21
 70
     1
102
RTVSPropertyOp22
 70
     1
102
RTVSPropertyOp23
 70
     1
102
RTVSPropertyOp24
 70
     1
102
RTVSPropertyOp25
 70
     1
102
RTVSPropertyOp26
 70
     1
102
RTVSPropertyOp27
 70
     1
102
RTVSPropertyOp28
 70
     1
102
RTVSPropertyOp29
 70
     1
102
RTVSPropertyOp30
 70
     1
102
RTVSPropertyOp31
 70
     1
102
RTVSPropertyOp32
 70
     1
102
RTVSPropertyOp33
 70
     1
102
RTVSPropertyOp34
 70
     1
102
RTVSPropertyOp35
 70
     1
102
RTVSPropertyOp36
 70
     1
102
RTVSPropertyOp37
 70
     1
102
RTVSPropertyOp38
 70
     1
102
RTVSPropertyOp39
 70
     1
102
RTVSPropertyOp40
 70
     1
102
RTVSPropertyOp41
 70
     1
102
RTVSPropertyOp42
 70
     1
102
RTVSPropertyOp43
 70
     1
102
RTVSPropertyOp44
 70
     1
102
RTVSPropertyOp45
 70
     1
102
RTVSPropertyOp46
 70
     1
102
RTVSPropertyOp47
 70
     1
102
RTVSPropertyOp48
 70
     1
102
RTVSPropertyOp49
 70
     1
102
RTVSPropertyOp50
 70
     1
102
RTVSPropertyOp51
 70
     0
102
RTVSPropertyOp52
 70
     0
102
RTVSPropertyOp53
 70
     1
102
RTVSPropertyOp54
 70
     1
102
RTVSPropertyOp55
 70
     1
102
RTVSPropertyOp56
 70
     1
102
RTVSPropertyOp57
 70
     1
102
RTVSPost2010Prop28
280
     0
102
RTVSPost2010PropOp28
 70
     1
102
RTVSPost2010Prop29
280
     1
102
RTVSPost2010PropOp29
 70
     1
102
RTVSPost2010Prop30
280
     1
102
RTVSPost2010PropOp30
 70
     1
102
RTVSPost2010Prop31
280
     0
102
RTVSPost2010PropOp31
 70
     1
102
RTVSPost2010Prop32
280
     0
102
RTVSPost2010PropOp32
 70
     1
102
RTVSPost2010Prop33
280
     0
102
RTVSPost2010PropOp33
 70
     1
102
RTVSPost2010Prop34
280
     0
102
RTVSPost2010PropOp34
 70
     1
102
RTVSPost2010Prop35
280
     0
102
RTVSPost2010PropOp35
 70
     1
102
RTVSPost2010Prop36
280
     0
102
RTVSPost2010PropOp36
 70
     1
102
RTVSPost2010Prop37
 90
       50
102
RTVSPost2010PropOp37
 70
     1
102
RTVSPost2010Prop38
140
0.0
102
RTVSPost2010PropOp38
 70
     1
102
RTVSPost2010Prop39
140
1.0
102
RTVSPost2010PropOp39
 70
     1
102
RTVSPost2010Prop40
 90
        0
102
RTVSPost2010PropOp40
 70
     1
102
RTVSPost2010Prop41ColorIndex
 90
       18
102
RTVSPost2010Prop41ColorRGB
 90
        0
102
RTVSPost2010PropOp41
 70
     1
102
RTVSPost2010Prop42
 90
       50
102
RTVSPost2010PropOp42
 70
     1
102
RTVSPost2010Prop43
 90
        3
102
RTVSPost2010PropOp43
 70
     1
102
RTVSPost2010Prop44ColorIndex
 90
        5
102
RTVSPost2010Prop44ColorRGB
 90
      255
102
RTVSPost2010PropOp44
 70
     1
102
RTVSPost2010Prop45
280
     0
102
RTVSPost2010PropOp45
 70
     1
102
RTVSPost2010Prop46
 90
       50
102
RTVSPost2010PropOp46
 70
     1
102
RTVSPost2010Prop47
 90
       50
102
RTVSPost2010PropOp47
 70
     1
102
RTVSPost2010Prop48
 90
       50
102
RTVSPost2010PropOp48
 70
     1
102
RTVSPost2010Prop49
280
     0
102
RTVSPost2010PropOp49
 70
     1
102
RTVSPost2010Prop50
 90
       50
102
RTVSPost2010PropOp50
 70
     1
102
RTVSPost2010Prop51ColorIndex
 90
      256
102
RTVSPost2010Prop51ColorRGB
 90
-16777216
102
RTVSPost2010PropOp51
 70
     0
102
RTVSPost2010Prop52
140
1.0
102
RTVSPost2010PropOp52
 70
     0
102
RTVSPost2010Prop53
 90
        2
102
RTVSPost2010PropOp53
 70
     1
102
RTVSPost2010Prop54
  1
strokes_ogs.tif
102
RTVSPost2010PropOp54
 70
     1
102
RTVSPost2010Prop55
280
     0
102
RTVSPost2010PropOp55
 70
     1
102
RTVSPost2010Prop56
140
1.0
102
RTVSPost2010PropOp56
 70
     1
102
RTVSPost2010Prop57
140
1.0
102
RTVSPost2010PropOp57
 70
     1
  0
XRECORD
  5
A9
102
{ACAD_REACTORS
330
A8
102
}
330
A8
100
AcDbXrecord
280
     1
102
RTVSPropertyOp0
 70
     0
102
RTVSPropertyOp1
 70
     0
102
RTVSPropertyOp2
 70
     0
102
RTVSPropertyOp3
 70
     0
102
RTVSPropertyOp4
 70
     0
102
RTVSPropertyOp5
 70
     0
102
RTVSPropertyOp6
 70
     0
102
RTVSPropertyOp7
 70
     0
102
RTVSPropertyOp8
 70
     0
102
RTVSPropertyOp9
 70
     0
102
RTVSPropertyOp10
 70
     0
102
RTVSPropertyOp11
 70
     0
102
RTVSPropertyOp12
 70
     0
102
RTVSPropertyOp13
 70
     0
102
RTVSPropertyOp14
 70
     2
102
RTVSPropertyOp15
 70
     0
102
RTVSPropertyOp16
 70
     0
102
RTVSPropertyOp17
 70
     0
102
RTVSPropertyOp18
 70
     0
102
RTVSPropertyOp19
 70
     0
102
RTVSPropertyOp20
 70
     0
102
RTVSPropertyOp21
 70
     0
102
RTVSPropertyOp22
 70
     0
102
RTVSPropertyOp23
 70
     0
102
RTVSPropertyOp24
 70
     0
102
RTVSPropertyOp25
 70
     0
102
RTVSPropertyOp26
 70
     0
102
RTVSPropertyOp27
 70
     0
102
RTVSPropertyOp28
 70
     0
102
RTVSPropertyOp29
 70
     0
102
RTVSPropertyOp30
 70
     0
102
RTVSPropertyOp31
 70
     0
102
RTVSPropertyOp32
 70
     0
102
RTVSPropertyOp33
 70
     0
102
RTVSPropertyOp34
 70
     0
102
RTVSPropertyOp35
 70
     0
102
RTVSPropertyOp36
 70
     0
102
RTVSPropertyOp37
 70
     0
102
RTVSPropertyOp38
 70
     0
102
RTVSPropertyOp39
 70
     0
102
RTVSPropertyOp40
 70
     0
102
RTVSPropertyOp41
 70
     0
102
RTVSPropertyOp42
 70
     0
102
RTVSPropertyOp43
 70
     0
102
RTVSPropertyOp44
 70
     0
102
RTVSPropertyOp45
 70
     0
102
RTVSPropertyOp46
 70
     0
102
RTVSPropertyOp47
 70
     0
102
RTVSPropertyOp48
 70
     0
102
RTVSPropertyOp49
 70
     0
102
RTVSPropertyOp50
 70
     0
102
RTVSPropertyOp51
 70
     0
102
RTVSPropertyOp52
 70
     0
102
RTVSPropertyOp53
 70
     0
102
RTVSPropertyOp54
 70
     0
102
RTVSPropertyOp55
 70
     0
102
RTVSPropertyOp56
 70
     0
102
RTVSPropertyOp57
 70
     0
102
RTVSPost2010Prop28
280
     0
102
RTVSPost2010PropOp28
 70
     0
102
RTVSPost2010Prop29
280
     1
102
RTVSPost2010PropOp29
 70
     0
102
RTVSPost2010Prop30
280
     1
102
RTVSPost2010PropOp30
 70
     0
102
RTVSPost2010Prop31
280
     0
102
RTVSPost2010PropOp31
 70
     0
102
RTVSPost2010Prop32
280
     0
102
RTVSPost2010PropOp32
 70
     0
102
RTVSPost2010Prop33
280
     0
102
RTVSPost2010PropOp33
 70
     0
102
RTVSPost2010Prop34
280
     0
102
RTVSPost2010PropOp34
 70
     0
102
RTVSPost2010Prop35
280
     0
102
RTVSPost2010PropOp35
 70
     0
102
RTVSPost2010Prop36
280
     0
102
RTVSPost2010PropOp36
 70
     0
102
RTVSPost2010Prop37
 90
       50
102
RTVSPost2010PropOp37
 70
     0
102
RTVSPost2010Prop38
140
0.0
102
RTVSPost2010PropOp38
 70
     0
102
RTVSPost2010Prop39
140
1.0
102
RTVSPost2010PropOp39
 70
     0
102
RTVSPost2010Prop40
 90
        0
102
RTVSPost2010PropOp40
 70
     0
102
RTVSPost2010Prop41ColorIndex
 90
       18
102
RTVSPost2010Prop41ColorRGB
 90
        0
102
RTVSPost2010PropOp41
 70
     0
102
RTVSPost2010Prop42
 90
       50
102
RTVSPost2010PropOp42
 70
     0
102
RTVSPost2010Prop43
 90
        3
102
RTVSPost2010PropOp43
 70
     0
102
RTVSPost2010Prop44ColorIndex
 90
        5
102
RTVSPost2010Prop44ColorRGB
 90
      255
102
RTVSPost2010PropOp44
 70
     0
102
RTVSPost2010Prop45
280
     0
102
RTVSPost2010PropOp45
 70
     0
102
RTVSPost2010Prop46
 90
       50
102
RTVSPost2010PropOp46
 70
     0
102
RTVSPost2010Prop47
 90
       50
102
RTVSPost2010PropOp47
 70
     0
102
RTVSPost2010Prop48
 90
       50
102
RTVSPost2010PropOp48
 70
     0
102
RTVSPost2010Prop49
280
     0
102
RTVSPost2010PropOp49
 70
     0
102
RTVSPost2010Prop50
 90
       50
102
RTVSPost2010PropOp50
 70
     0
102
RTVSPost2010Prop51ColorIndex
 90
      256
102
RTVSPost2010Prop51ColorRGB
 90
-16777216
102
RTVSPost2010PropOp51
 70
     0
102
RTVSPost2010Prop52
140
1.0
102
RTVSPost2010PropOp52
 70
     0
102
RTVSPost2010Prop53
 90
        2
102
RTVSPost2010PropOp53
 70
     0
102
RTVSPost2010Prop54
  1
strokes_ogs.tif
102
RTVSPost2010PropOp54
 70
     0
102
RTVSPost2010Prop55
280
     0
102
RTVSPost2010PropOp55
 70
     0
102
RTVSPost2010Prop56
140
1.0
102
RTVSPost2010PropOp56
 70
     0
102
RTVSPost2010Prop57
140
1.0
102
RTVSPost2010PropOp57
 70
     0
  0
XRECORD
  5
A1
102
{ACAD_REACTORS
330
A0
102
}
330
A0
100
AcDbXrecord
280
     1
102
RTVSPropertyOp0
 70
     1
102
RTVSPropertyOp1
 70
     1
102
RTVSPropertyOp2
 70
     1
102
RTVSPropertyOp3
 70
     1
102
RTVSPropertyOp4
 70
     1
102
RTVSPropertyOp5
 70
     1
102
RTVSPropertyOp6
 70
     1
102
RTVSPropertyOp7
 70
     1
102
RTVSPropertyOp8
 70
     1
102
RTVSPropertyOp9
 70
     1
102
RTVSPropertyOp10
 70
     1
102
RTVSPropertyOp11
 70
     1
102
RTVSPropertyOp12
 70
     1
102
RTVSPropertyOp13
 70
     1
102
RTVSPropertyOp14
 70
     1
102
RTVSPropertyOp15
 70
     1
102
RTVSPropertyOp16
 70
     1
102
RTVSPropertyOp17
 70
     1
102
RTVSPropertyOp18
 70
     1
102
RTVSPropertyOp19
 70
     1
102
RTVSPropertyOp20
 70
     1
102
RTVSPropertyOp21
 70
     1
102
RTVSPropertyOp22
 70
     1
102
RTVSPropertyOp23
 70
     1
102
RTVSPropertyOp24
 70
     1
102
RTVSPropertyOp25
 70
     1
102
RTVSPropertyOp26
 70
     1
102
RTVSPropertyOp27
 70
     1
102
RTVSPropertyOp28
 70
     1
102
RTVSPropertyOp29
 70
     1
102
RTVSPropertyOp30
 70
     1
102
RTVSPropertyOp31
 70
     1
102
RTVSPropertyOp32
 70
     1
102
RTVSPropertyOp33
 70
     1
102
RTVSPropertyOp34
 70
     1
102
RTVSPropertyOp35
 70
     1
102
RTVSPropertyOp36
 70
     1
102
RTVSPropertyOp37
 70
     1
102
RTVSPropertyOp38
 70
     1
102
RTVSPropertyOp39
 70
     1
102
RTVSPropertyOp40
 70
     1
102
RTVSPropertyOp41
 70
     1
102
RTVSPropertyOp42
 70
     1
102
RTVSPropertyOp43
 70
     1
102
RTVSPropertyOp44
 70
     1
102
RTVSPropertyOp45
 70
     1
102
RTVSPropertyOp46
 70
     1
102
RTVSPropertyOp47
 70
     1
102
RTVSPropertyOp48
 70
     1
102
RTVSPropertyOp49
 70
     1
102
RTVSPropertyOp50
 70
     1
102
RTVSPropertyOp51
 70
     0
102
RTVSPropertyOp52
 70
     0
102
RTVSPropertyOp53
 70
     1
102
RTVSPropertyOp54
 70
     1
102
RTVSPropertyOp55
 70
     1
102
RTVSPropertyOp56
 70
     1
102
RTVSPropertyOp57
 70
     1
102
RTVSPost2010Prop28
280
     0
102
RTVSPost2010PropOp28
 70
     1
102
RTVSPost2010Prop29
280
     1
102
RTVSPost2010PropOp29
 70
     1
102
RTVSPost2010Prop30
280
     1
102
RTVSPost2010PropOp30
 70
     1
102
RTVSPost2010Prop31
280
     0
102
RTVSPost2010PropOp31
 70
     1
102
RTVSPost2010Prop32
280
     0
102
RTVSPost2010PropOp32
 70
     1
102
RTVSPost2010Prop33
280
     0
102
RTVSPost2010PropOp33
 70
     1
102
RTVSPost2010Prop34
280
     0
102
RTVSPost2010PropOp34
 70
     1
102
RTVSPost2010Prop35
280
     0
102
RTVSPost2010PropOp35
 70
     1
102
RTVSPost2010Prop36
280
     0
102
RTVSPost2010PropOp36
 70
     1
102
RTVSPost2010Prop37
 90
       50
102
RTVSPost2010PropOp37
 70
     1
102
RTVSPost2010Prop38
140
0.0
102
RTVSPost2010PropOp38
 70
     1
102
RTVSPost2010Prop39
140
1.0
102
RTVSPost2010PropOp39
 70
     1
102
RTVSPost2010Prop40
 90
        0
102
RTVSPost2010PropOp40
 70
     1
102
RTVSPost2010Prop41ColorIndex
 90
       18
102
RTVSPost2010Prop41ColorRGB
 90
        0
102
RTVSPost2010PropOp41
 70
     1
102
RTVSPost2010Prop42
 90
       50
102
RTVSPost2010PropOp42
 70
     1
102
RTVSPost2010Prop43
 90
        3
102
RTVSPost2010PropOp43
 70
     1
102
RTVSPost2010Prop44ColorIndex
 90
        5
102
RTVSPost2010Prop44ColorRGB
 90
      255
102
RTVSPost2010PropOp44
 70
     1
102
RTVSPost2010Prop45
280
     0
102
RTVSPost2010PropOp45
 70
     1
102
RTVSPost2010Prop46
 90
       50
102
RTVSPost2010PropOp46
 70
     1
102
RTVSPost2010Prop47
 90
       50
102
RTVSPost2010PropOp47
 70
     1
102
RTVSPost2010Prop48
 90
       50
102
RTVSPost2010PropOp48
 70
     1
102
RTVSPost2010Prop49
280
     0
102
RTVSPost2010PropOp49
 70
     1
102
RTVSPost2010Prop50
 90
       50
102
RTVSPost2010PropOp50
 70
     1
102
RTVSPost2010Prop51ColorIndex
 90
      256
102
RTVSPost2010Prop51ColorRGB
 90
-16777216
102
RTVSPost2010PropOp51
 70
     0
102
RTVSPost2010Prop52
140
1.0
102
RTVSPost2010PropOp52
 70
     0
102
RTVSPost2010Prop53
 90
        2
102
RTVSPost2010PropOp53
 70
     1
102
RTVSPost2010Prop54
  1
strokes_ogs.tif
102
RTVSPost2010PropOp54
 70
     1
102
RTVSPost2010Prop55
280
     0
102
RTVSPost2010PropOp55
 70
     1
102
RTVSPost2010Prop56
140
1.0
102
RTVSPost2010PropOp56
 70
     1
102
RTVSPost2010Prop57
140
1.0
102
RTVSPost2010PropOp57
 70
     1
  0
XRECORD
  5
87
102
{ACAD_REACTORS
330
86
102
}
330
86
100
AcDbXrecord
280
     1
102
RTVSPropertyOp0
 70
     1
102
RTVSPropertyOp1
 70
     1
102
RTVSPropertyOp2
 70
     1
102
RTVSPropertyOp3
 70
     1
102
RTVSPropertyOp4
 70
     1
102
RTVSPropertyOp5
 70
     1
102
RTVSPropertyOp6
 70
     1
102
RTVSPropertyOp7
 70
     1
102
RTVSPropertyOp8
 70
     1
102
RTVSPropertyOp9
 70
     1
102
RTVSPropertyOp10
 70
     1
102
RTVSPropertyOp11
 70
     1
102
RTVSPropertyOp12
 70
     1
102
RTVSPropertyOp13
 70
     1
102
RTVSPropertyOp14
 70
     1
102
RTVSPropertyOp15
 70
     1
102
RTVSPropertyOp16
 70
     1
102
RTVSPropertyOp17
 70
     1
102
RTVSPropertyOp18
 70
     1
102
RTVSPropertyOp19
 70
     1
102
RTVSPropertyOp20
 70
     1
102
RTVSPropertyOp21
 70
     1
102
RTVSPropertyOp22
 70
     1
102
RTVSPropertyOp23
 70
     1
102
RTVSPropertyOp24
 70
     1
102
RTVSPropertyOp25
 70
     1
102
RTVSPropertyOp26
 70
     1
102
RTVSPropertyOp27
 70
     1
102
RTVSPropertyOp28
 70
     1
102
RTVSPropertyOp29
 70
     1
102
RTVSPropertyOp30
 70
     1
102
RTVSPropertyOp31
 70
     1
102
RTVSPropertyOp32
 70
     1
102
RTVSPropertyOp33
 70
     1
102
RTVSPropertyOp34
 70
     1
102
RTVSPropertyOp35
 70
     1
102
RTVSPropertyOp36
 70
     1
102
RTVSPropertyOp37
 70
     1
102
RTVSPropertyOp38
 70
     1
102
RTVSPropertyOp39
 70
     1
102
RTVSPropertyOp40
 70
     1
102
RTVSPropertyOp41
 70
     1
102
RTVSPropertyOp42
 70
     1
102
RTVSPropertyOp43
 70
     1
102
RTVSPropertyOp44
 70
     1
102
RTVSPropertyOp45
 70
     1
102
RTVSPropertyOp46
 70
     1
102
RTVSPropertyOp47
 70
     1
102
RTVSPropertyOp48
 70
     1
102
RTVSPropertyOp49
 70
     1
102
RTVSPropertyOp50
 70
     1
102
RTVSPropertyOp51
 70
     0
102
RTVSPropertyOp52
 70
     0
102
RTVSPropertyOp53
 70
     1
102
RTVSPropertyOp54
 70
     1
102
RTVSPropertyOp55
 70
     1
102
RTVSPropertyOp56
 70
     1
102
RTVSPropertyOp57
 70
     1
102
RTVSPost2010Prop28
280
     0
102
RTVSPost2010PropOp28
 70
     1
102
RTVSPost2010Prop29
280
     1
102
RTVSPost2010PropOp29
 70
     1
102
RTVSPost2010Prop30
280
     1
102
RTVSPost2010PropOp30
 70
     1
102
RTVSPost2010Prop31
280
     0
102
RTVSPost2010PropOp31
 70
     1
102
RTVSPost2010Prop32
280
     0
102
RTVSPost2010PropOp32
 70
     1
102
RTVSPost2010Prop33
280
     0
102
RTVSPost2010PropOp33
 70
     1
102
RTVSPost2010Prop34
280
     0
102
RTVSPost2010PropOp34
 70
     1
102
RTVSPost2010Prop35
280
     0
102
RTVSPost2010PropOp35
 70
     1
102
RTVSPost2010Prop36
280
     0
102
RTVSPost2010PropOp36
 70
     1
102
RTVSPost2010Prop37
 90
       50
102
RTVSPost2010PropOp37
 70
     1
102
RTVSPost2010Prop38
140
0.0
102
RTVSPost2010PropOp38
 70
     1
102
RTVSPost2010Prop39
140
1.0
102
RTVSPost2010PropOp39
 70
     1
102
RTVSPost2010Prop40
 90
        0
102
RTVSPost2010PropOp40
 70
     1
102
RTVSPost2010Prop41ColorIndex
 90
       18
102
RTVSPost2010Prop41ColorRGB
 90
        0
102
RTVSPost2010PropOp41
 70
     1
102
RTVSPost2010Prop42
 90
       50
102
RTVSPost2010PropOp42
 70
     1
102
RTVSPost2010Prop43
 90
        3
102
RTVSPost2010PropOp43
 70
     1
102
RTVSPost2010Prop44ColorIndex
 90
        5
102
RTVSPost2010Prop44ColorRGB
 90
      255
102
RTVSPost2010PropOp44
 70
     1
102
RTVSPost2010Prop45
280
     0
102
RTVSPost2010PropOp45
 70
     1
102
RTVSPost2010Prop46
 90
       50
102
RTVSPost2010PropOp46
 70
     1
102
RTVSPost2010Prop47
 90
       50
102
RTVSPost2010PropOp47
 70
     1
102
RTVSPost2010Prop48
 90
       50
102
RTVSPost2010PropOp48
 70
     1
102
RTVSPost2010Prop49
280
     0
102
RTVSPost2010PropOp49
 70
     1
102
RTVSPost2010Prop50
 90
       50
102
RTVSPost2010PropOp50
 70
     1
102
RTVSPost2010Prop51ColorIndex
 90
      256
102
RTVSPost2010Prop51ColorRGB
 90
-16777216
102
RTVSPost2010PropOp51
 70
     0
102
RTVSPost2010Prop52
140
1.0
102
RTVSPost2010PropOp52
 70
     0
102
RTVSPost2010Prop53
 90
        2
102
RTVSPost2010PropOp53
 70
     1
102
RTVSPost2010Prop54
  1
strokes_ogs.tif
102
RTVSPost2010PropOp54
 70
     1
102
RTVSPost2010Prop55
280
     0
102
RTVSPost2010PropOp55
 70
     1
102
RTVSPost2010Prop56
140
1.0
102
RTVSPost2010PropOp56
 70
     1
102
RTVSPost2010Prop57
140
1.0
102
RTVSPost2010PropOp57
 70
     1
  0
XRECORD
  5
89
102
{ACAD_REACTORS
330
88
102
}
330
88
100
AcDbXrecord
280
     1
102
RTVSPropertyOp0
 70
     1
102
RTVSPropertyOp1
 70
     1
102
RTVSPropertyOp2
 70
     1
102
RTVSPropertyOp3
 70
     1
102
RTVSPropertyOp4
 70
     1
102
RTVSPropertyOp5
 70
     1
102
RTVSPropertyOp6
 70
     1
102
RTVSPropertyOp7
 70
     1
102
RTVSPropertyOp8
 70
     1
102
RTVSPropertyOp9
 70
     1
102
RTVSPropertyOp10
 70
     1
102
RTVSPropertyOp11
 70
     1
102
RTVSPropertyOp12
 70
     1
102
RTVSPropertyOp13
 70
     1
102
RTVSPropertyOp14
 70
     1
102
RTVSPropertyOp15
 70
     1
102
RTVSPropertyOp16
 70
     1
102
RTVSPropertyOp17
 70
     1
102
RTVSPropertyOp18
 70
     1
102
RTVSPropertyOp19
 70
     1
102
RTVSPropertyOp20
 70
     1
102
RTVSPropertyOp21
 70
     1
102
RTVSPropertyOp22
 70
     1
102
RTVSPropertyOp23
 70
     1
102
RTVSPropertyOp24
 70
     1
102
RTVSPropertyOp25
 70
     1
102
RTVSPropertyOp26
 70
     1
102
RTVSPropertyOp27
 70
     1
102
RTVSPropertyOp28
 70
     1
102
RTVSPropertyOp29
 70
     1
102
RTVSPropertyOp30
 70
     1
102
RTVSPropertyOp31
 70
     1
102
RTVSPropertyOp32
 70
     1
102
RTVSPropertyOp33
 70
     1
102
RTVSPropertyOp34
 70
     1
102
RTVSPropertyOp35
 70
     1
102
RTVSPropertyOp36
 70
     1
102
RTVSPropertyOp37
 70
     1
102
RTVSPropertyOp38
 70
     1
102
RTVSPropertyOp39
 70
     1
102
RTVSPropertyOp40
 70
     1
102
RTVSPropertyOp41
 70
     1
102
RTVSPropertyOp42
 70
     1
102
RTVSPropertyOp43
 70
     1
102
RTVSPropertyOp44
 70
     1
102
RTVSPropertyOp45
 70
     1
102
RTVSPropertyOp46
 70
     1
102
RTVSPropertyOp47
 70
     1
102
RTVSPropertyOp48
 70
     1
102
RTVSPropertyOp49
 70
     1
102
RTVSPropertyOp50
 70
     1
102
RTVSPropertyOp51
 70
     0
102
RTVSPropertyOp52
 70
     0
102
RTVSPropertyOp53
 70
     1
102
RTVSPropertyOp54
 70
     1
102
RTVSPropertyOp55
 70
     1
102
RTVSPropertyOp56
 70
     1
102
RTVSPropertyOp57
 70
     1
102
RTVSPost2010Prop28
280
     0
102
RTVSPost2010PropOp28
 70
     1
102
RTVSPost2010Prop29
280
     1
102
RTVSPost2010PropOp29
 70
     1
102
RTVSPost2010Prop30
280
     1
102
RTVSPost2010PropOp30
 70
     1
102
RTVSPost2010Prop31
280
     0
102
RTVSPost2010PropOp31
 70
     1
102
RTVSPost2010Prop32
280
     0
102
RTVSPost2010PropOp32
 70
     1
102
RTVSPost2010Prop33
280
     0
102
RTVSPost2010PropOp33
 70
     1
102
RTVSPost2010Prop34
280
     0
102
RTVSPost2010PropOp34
 70
     1
102
RTVSPost2010Prop35
280
     0
102
RTVSPost2010PropOp35
 70
     1
102
RTVSPost2010Prop36
280
     0
102
RTVSPost2010PropOp36
 70
     1
102
RTVSPost2010Prop37
 90
       50
102
RTVSPost2010PropOp37
 70
     1
102
RTVSPost2010Prop38
140
0.0
102
RTVSPost2010PropOp38
 70
     1
102
RTVSPost2010Prop39
140
1.0
102
RTVSPost2010PropOp39
 70
     1
102
RTVSPost2010Prop40
 90
        0
102
RTVSPost2010PropOp40
 70
     1
102
RTVSPost2010Prop41ColorIndex
 90
       18
102
RTVSPost2010Prop41ColorRGB
 90
        0
102
RTVSPost2010PropOp41
 70
     1
102
RTVSPost2010Prop42
 90
       50
102
RTVSPost2010PropOp42
 70
     1
102
RTVSPost2010Prop43
 90
        3
102
RTVSPost2010PropOp43
 70
     1
102
RTVSPost2010Prop44ColorIndex
 90
        5
102
RTVSPost2010Prop44ColorRGB
 90
      255
102
RTVSPost2010PropOp44
 70
     1
102
RTVSPost2010Prop45
280
     0
102
RTVSPost2010PropOp45
 70
     1
102
RTVSPost2010Prop46
 90
       50
102
RTVSPost2010PropOp46
 70
     1
102
RTVSPost2010Prop47
 90
       50
102
RTVSPost2010PropOp47
 70
     1
102
RTVSPost2010Prop48
 90
       50
102
RTVSPost2010PropOp48
 70
     1
102
RTVSPost2010Prop49
280
     0
102
RTVSPost2010PropOp49
 70
     1
102
RTVSPost2010Prop50
 90
       50
102
RTVSPost2010PropOp50
 70
     1
102
RTVSPost2010Prop51ColorIndex
 90
      256
102
RTVSPost2010Prop51ColorRGB
 90
-16777216
102
RTVSPost2010PropOp51
 70
     0
102
RTVSPost2010Prop52
140
1.0
102
RTVSPost2010PropOp52
 70
     0
102
RTVSPost2010Prop53
 90
        2
102
RTVSPost2010PropOp53
 70
     1
102
RTVSPost2010Prop54
  1
strokes_ogs.tif
102
RTVSPost2010PropOp54
 70
     1
102
RTVSPost2010Prop55
280
     0
102
RTVSPost2010PropOp55
 70
     1
102
RTVSPost2010Prop56
140
1.0
102
RTVSPost2010PropOp56
 70
     1
102
RTVSPost2010Prop57
140
1.0
102
RTVSPost2010PropOp57
 70
     1
  0
XRECORD
  5
8B
102
{ACAD_REACTORS
330
8A
102
}
330
8A
100
AcDbXrecord
280
     1
102
RTVSPropertyOp0
 70
     1
102
RTVSPropertyOp1
 70
     1
102
RTVSPropertyOp2
 70
     1
102
RTVSPropertyOp3
 70
     1
102
RTVSPropertyOp4
 70
     1
102
RTVSPropertyOp5
 70
     1
102
RTVSPropertyOp6
 70
     1
102
RTVSPropertyOp7
 70
     1
102
RTVSPropertyOp8
 70
     1
102
RTVSPropertyOp9
 70
     1
102
RTVSPropertyOp10
 70
     1
102
RTVSPropertyOp11
 70
     1
102
RTVSPropertyOp12
 70
     1
102
RTVSPropertyOp13
 70
     1
102
RTVSPropertyOp14
 70
     1
102
RTVSPropertyOp15
 70
     1
102
RTVSPropertyOp16
 70
     1
102
RTVSPropertyOp17
 70
     1
102
RTVSPropertyOp18
 70
     1
102
RTVSPropertyOp19
 70
     1
102
RTVSPropertyOp20
 70
     1
102
RTVSPropertyOp21
 70
     1
102
RTVSPropertyOp22
 70
     1
102
RTVSPropertyOp23
 70
     1
102
RTVSPropertyOp24
 70
     1
102
RTVSPropertyOp25
 70
     1
102
RTVSPropertyOp26
 70
     1
102
RTVSPropertyOp27
 70
     1
102
RTVSPropertyOp28
 70
     1
102
RTVSPropertyOp29
 70
     1
102
RTVSPropertyOp30
 70
     1
102
RTVSPropertyOp31
 70
     1
102
RTVSPropertyOp32
 70
     1
102
RTVSPropertyOp33
 70
     1
102
RTVSPropertyOp34
 70
     1
102
RTVSPropertyOp35
 70
     1
102
RTVSPropertyOp36
 70
     1
102
RTVSPropertyOp37
 70
     1
102
RTVSPropertyOp38
 70
     1
102
RTVSPropertyOp39
 70
     1
102
RTVSPropertyOp40
 70
     1
102
RTVSPropertyOp41
 70
     1
102
RTVSPropertyOp42
 70
     1
102
RTVSPropertyOp43
 70
     1
102
RTVSPropertyOp44
 70
     1
102
RTVSPropertyOp45
 70
     1
102
RTVSPropertyOp46
 70
     1
102
RTVSPropertyOp47
 70
     1
102
RTVSPropertyOp48
 70
     1
102
RTVSPropertyOp49
 70
     1
102
RTVSPropertyOp50
 70
     1
102
RTVSPropertyOp51
 70
     0
102
RTVSPropertyOp52
 70
     0
102
RTVSPropertyOp53
 70
     1
102
RTVSPropertyOp54
 70
     1
102
RTVSPropertyOp55
 70
     1
102
RTVSPropertyOp56
 70
     1
102
RTVSPropertyOp57
 70
     1
102
RTVSPost2010Prop28
280
     0
102
RTVSPost2010PropOp28
 70
     1
102
RTVSPost2010Prop29
280
     1
102
RTVSPost2010PropOp29
 70
     1
102
RTVSPost2010Prop30
280
     1
102
RTVSPost2010PropOp30
 70
     1
102
RTVSPost2010Prop31
280
     0
102
RTVSPost2010PropOp31
 70
     1
102
RTVSPost2010Prop32
280
     0
102
RTVSPost2010PropOp32
 70
     1
102
RTVSPost2010Prop33
280
     0
102
RTVSPost2010PropOp33
 70
     1
102
RTVSPost2010Prop34
280
     0
102
RTVSPost2010PropOp34
 70
     1
102
RTVSPost2010Prop35
280
     0
102
RTVSPost2010PropOp35
 70
     1
102
RTVSPost2010Prop36
280
     0
102
RTVSPost2010PropOp36
 70
     1
102
RTVSPost2010Prop37
 90
       50
102
RTVSPost2010PropOp37
 70
     1
102
RTVSPost2010Prop38
140
0.0
102
RTVSPost2010PropOp38
 70
     1
102
RTVSPost2010Prop39
140
1.0
102
RTVSPost2010PropOp39
 70
     1
102
RTVSPost2010Prop40
 90
        0
102
RTVSPost2010PropOp40
 70
     1
102
RTVSPost2010Prop41ColorIndex
 90
       18
102
RTVSPost2010Prop41ColorRGB
 90
        0
102
RTVSPost2010PropOp41
 70
     1
102
RTVSPost2010Prop42
 90
       50
102
RTVSPost2010PropOp42
 70
     1
102
RTVSPost2010Prop43
 90
        3
102
RTVSPost2010PropOp43
 70
     1
102
RTVSPost2010Prop44ColorIndex
 90
        5
102
RTVSPost2010Prop44ColorRGB
 90
      255
102
RTVSPost2010PropOp44
 70
     1
102
RTVSPost2010Prop45
280
     0
102
RTVSPost2010PropOp45
 70
     1
102
RTVSPost2010Prop46
 90
       50
102
RTVSPost2010PropOp46
 70
     1
102
RTVSPost2010Prop47
 90
       50
102
RTVSPost2010PropOp47
 70
     1
102
RTVSPost2010Prop48
 90
       50
102
RTVSPost2010PropOp48
 70
     1
102
RTVSPost2010Prop49
280
     0
102
RTVSPost2010PropOp49
 70
     1
102
RTVSPost2010Prop50
 90
       50
102
RTVSPost2010PropOp50
 70
     1
102
RTVSPost2010Prop51ColorIndex
 90
      256
102
RTVSPost2010Prop51ColorRGB
 90
-16777216
102
RTVSPost2010PropOp51
 70
     0
102
RTVSPost2010Prop52
140
1.0
102
RTVSPost2010PropOp52
 70
     0
102
RTVSPost2010Prop53
 90
        2
102
RTVSPost2010PropOp53
 70
     1
102
RTVSPost2010Prop54
  1
strokes_ogs.tif
102
RTVSPost2010PropOp54
 70
     1
102
RTVSPost2010Prop55
280
     0
102
RTVSPost2010PropOp55
 70
     1
102
RTVSPost2010Prop56
140
1.0
102
RTVSPost2010PropOp56
 70
     1
102
RTVSPost2010Prop57
140
1.0
102
RTVSPost2010PropOp57
 70
     1
  0
XRECORD
  5
8D
102
{ACAD_REACTORS
330
8C
102
}
330
8C
100
AcDbXrecord
280
     1
102
RTVSPropertyOp0
 70
     1
102
RTVSPropertyOp1
 70
     1
102
RTVSPropertyOp2
 70
     1
102
RTVSPropertyOp3
 70
     1
102
RTVSPropertyOp4
 70
     1
102
RTVSPropertyOp5
 70
     1
102
RTVSPropertyOp6
 70
     1
102
RTVSPropertyOp7
 70
     1
102
RTVSPropertyOp8
 70
     1
102
RTVSPropertyOp9
 70
     1
102
RTVSPropertyOp10
 70
     1
102
RTVSPropertyOp11
 70
     1
102
RTVSPropertyOp12
 70
     1
102
RTVSPropertyOp13
 70
     1
102
RTVSPropertyOp14
 70
     1
102
RTVSPropertyOp15
 70
     1
102
RTVSPropertyOp16
 70
     1
102
RTVSPropertyOp17
 70
     1
102
RTVSPropertyOp18
 70
     1
102
RTVSPropertyOp19
 70
     1
102
RTVSPropertyOp20
 70
     1
102
RTVSPropertyOp21
 70
     1
102
RTVSPropertyOp22
 70
     1
102
RTVSPropertyOp23
 70
     1
102
RTVSPropertyOp24
 70
     1
102
RTVSPropertyOp25
 70
     1
102
RTVSPropertyOp26
 70
     1
102
RTVSPropertyOp27
 70
     1
102
RTVSPropertyOp28
 70
     1
102
RTVSPropertyOp29
 70
     1
102
RTVSPropertyOp30
 70
     1
102
RTVSPropertyOp31
 70
     1
102
RTVSPropertyOp32
 70
     1
102
RTVSPropertyOp33
 70
     1
102
RTVSPropertyOp34
 70
     1
102
RTVSPropertyOp35
 70
     1
102
RTVSPropertyOp36
 70
     1
102
RTVSPropertyOp37
 70
     1
102
RTVSPropertyOp38
 70
     1
102
RTVSPropertyOp39
 70
     1
102
RTVSPropertyOp40
 70
     1
102
RTVSPropertyOp41
 70
     1
102
RTVSPropertyOp42
 70
     1
102
RTVSPropertyOp43
 70
     1
102
RTVSPropertyOp44
 70
     1
102
RTVSPropertyOp45
 70
     1
102
RTVSPropertyOp46
 70
     1
102
RTVSPropertyOp47
 70
     1
102
RTVSPropertyOp48
 70
     1
102
RTVSPropertyOp49
 70
     1
102
RTVSPropertyOp50
 70
     1
102
RTVSPropertyOp51
 70
     0
102
RTVSPropertyOp52
 70
     0
102
RTVSPropertyOp53
 70
     1
102
RTVSPropertyOp54
 70
     1
102
RTVSPropertyOp55
 70
     1
102
RTVSPropertyOp56
 70
     1
102
RTVSPropertyOp57
 70
     1
102
RTVSPost2010Prop28
280
     0
102
RTVSPost2010PropOp28
 70
     1
102
RTVSPost2010Prop29
280
     1
102
RTVSPost2010PropOp29
 70
     1
102
RTVSPost2010Prop30
280
     1
102
RTVSPost2010PropOp30
 70
     1
102
RTVSPost2010Prop31
280
     0
102
RTVSPost2010PropOp31
 70
     1
102
RTVSPost2010Prop32
280
     0
102
RTVSPost2010PropOp32
 70
     1
102
RTVSPost2010Prop33
280
     0
102
RTVSPost2010PropOp33
 70
     1
102
RTVSPost2010Prop34
280
     0
102
RTVSPost2010PropOp34
 70
     1
102
RTVSPost2010Prop35
280
     0
102
RTVSPost2010PropOp35
 70
     1
102
RTVSPost2010Prop36
280
     0
102
RTVSPost2010PropOp36
 70
     1
102
RTVSPost2010Prop37
 90
       50
102
RTVSPost2010PropOp37
 70
     1
102
RTVSPost2010Prop38
140
0.0
102
RTVSPost2010PropOp38
 70
     1
102
RTVSPost2010Prop39
140
1.0
102
RTVSPost2010PropOp39
 70
     1
102
RTVSPost2010Prop40
 90
        0
102
RTVSPost2010PropOp40
 70
     1
102
RTVSPost2010Prop41ColorIndex
 90
       18
102
RTVSPost2010Prop41ColorRGB
 90
        0
102
RTVSPost2010PropOp41
 70
     1
102
RTVSPost2010Prop42
 90
       50
102
RTVSPost2010PropOp42
 70
     1
102
RTVSPost2010Prop43
 90
        3
102
RTVSPost2010PropOp43
 70
     1
102
RTVSPost2010Prop44ColorIndex
 90
        5
102
RTVSPost2010Prop44ColorRGB
 90
      255
102
RTVSPost2010PropOp44
 70
     1
102
RTVSPost2010Prop45
280
     0
102
RTVSPost2010PropOp45
 70
     1
102
RTVSPost2010Prop46
 90
       50
102
RTVSPost2010PropOp46
 70
     1
102
RTVSPost2010Prop47
 90
       50
102
RTVSPost2010PropOp47
 70
     1
102
RTVSPost2010Prop48
 90
       50
102
RTVSPost2010PropOp48
 70
     1
102
RTVSPost2010Prop49
280
     0
102
RTVSPost2010PropOp49
 70
     1
102
RTVSPost2010Prop50
 90
       50
102
RTVSPost2010PropOp50
 70
     1
102
RTVSPost2010Prop51ColorIndex
 90
      256
102
RTVSPost2010Prop51ColorRGB
 90
-16777216
102
RTVSPost2010PropOp51
 70
     0
102
RTVSPost2010Prop52
140
1.0
102
RTVSPost2010PropOp52
 70
     0
102
RTVSPost2010Prop53
 90
        2
102
RTVSPost2010PropOp53
 70
     1
102
RTVSPost2010Prop54
  1
strokes_ogs.tif
102
RTVSPost2010PropOp54
 70
     1
102
RTVSPost2010Prop55
280
     0
102
RTVSPost2010PropOp55
 70
     1
102
RTVSPost2010Prop56
140
1.0
102
RTVSPost2010PropOp56
 70
     1
102
RTVSPost2010Prop57
140
1.0
102
RTVSPost2010PropOp57
 70
     1
  0
XRECORD
  5
91
102
{ACAD_REACTORS
330
90
102
}
330
90
100
AcDbXrecord
280
     1
102
RTVSPropertyOp0
 70
     1
102
RTVSPropertyOp1
 70
     1
102
RTVSPropertyOp2
 70
     1
102
RTVSPropertyOp3
 70
     1
102
RTVSPropertyOp4
 70
     1
102
RTVSPropertyOp5
 70
     1
102
RTVSPropertyOp6
 70
     1
102
RTVSPropertyOp7
 70
     1
102
RTVSPropertyOp8
 70
     1
102
RTVSPropertyOp9
 70
     1
102
RTVSPropertyOp10
 70
     1
102
RTVSPropertyOp11
 70
     1
102
RTVSPropertyOp12
 70
     1
102
RTVSPropertyOp13
 70
     1
102
RTVSPropertyOp14
 70
     1
102
RTVSPropertyOp15
 70
     1
102
RTVSPropertyOp16
 70
     1
102
RTVSPropertyOp17
 70
     1
102
RTVSPropertyOp18
 70
     1
102
RTVSPropertyOp19
 70
     1
102
RTVSPropertyOp20
 70
     1
102
RTVSPropertyOp21
 70
     1
102
RTVSPropertyOp22
 70
     1
102
RTVSPropertyOp23
 70
     1
102
RTVSPropertyOp24
 70
     1
102
RTVSPropertyOp25
 70
     1
102
RTVSPropertyOp26
 70
     1
102
RTVSPropertyOp27
 70
     1
102
RTVSPropertyOp28
 70
     1
102
RTVSPropertyOp29
 70
     1
102
RTVSPropertyOp30
 70
     1
102
RTVSPropertyOp31
 70
     1
102
RTVSPropertyOp32
 70
     1
102
RTVSPropertyOp33
 70
     1
102
RTVSPropertyOp34
 70
     1
102
RTVSPropertyOp35
 70
     1
102
RTVSPropertyOp36
 70
     1
102
RTVSPropertyOp37
 70
     1
102
RTVSPropertyOp38
 70
     1
102
RTVSPropertyOp39
 70
     1
102
RTVSPropertyOp40
 70
     1
102
RTVSPropertyOp41
 70
     1
102
RTVSPropertyOp42
 70
     1
102
RTVSPropertyOp43
 70
     1
102
RTVSPropertyOp44
 70
     1
102
RTVSPropertyOp45
 70
     1
102
RTVSPropertyOp46
 70
     1
102
RTVSPropertyOp47
 70
     1
102
RTVSPropertyOp48
 70
     1
102
RTVSPropertyOp49
 70
     1
102
RTVSPropertyOp50
 70
     1
102
RTVSPropertyOp51
 70
     0
102
RTVSPropertyOp52
 70
     0
102
RTVSPropertyOp53
 70
     1
102
RTVSPropertyOp54
 70
     1
102
RTVSPropertyOp55
 70
     1
102
RTVSPropertyOp56
 70
     1
102
RTVSPropertyOp57
 70
     1
102
RTVSPost2010Prop28
280
     0
102
RTVSPost2010PropOp28
 70
     1
102
RTVSPost2010Prop29
280
     1
102
RTVSPost2010PropOp29
 70
     1
102
RTVSPost2010Prop30
280
     1
102
RTVSPost2010PropOp30
 70
     1
102
RTVSPost2010Prop31
280
     0
102
RTVSPost2010PropOp31
 70
     1
102
RTVSPost2010Prop32
280
     0
102
RTVSPost2010PropOp32
 70
     1
102
RTVSPost2010Prop33
280
     0
102
RTVSPost2010PropOp33
 70
     1
102
RTVSPost2010Prop34
280
     0
102
RTVSPost2010PropOp34
 70
     1
102
RTVSPost2010Prop35
280
     0
102
RTVSPost2010PropOp35
 70
     1
102
RTVSPost2010Prop36
280
     0
102
RTVSPost2010PropOp36
 70
     1
102
RTVSPost2010Prop37
 90
       50
102
RTVSPost2010PropOp37
 70
     1
102
RTVSPost2010Prop38
140
0.0
102
RTVSPost2010PropOp38
 70
     1
102
RTVSPost2010Prop39
140
1.0
102
RTVSPost2010PropOp39
 70
     1
102
RTVSPost2010Prop40
 90
        0
102
RTVSPost2010PropOp40
 70
     1
102
RTVSPost2010Prop41ColorIndex
 90
       18
102
RTVSPost2010Prop41ColorRGB
 90
        0
102
RTVSPost2010PropOp41
 70
     1
102
RTVSPost2010Prop42
 90
       50
102
RTVSPost2010PropOp42
 70
     1
102
RTVSPost2010Prop43
 90
        3
102
RTVSPost2010PropOp43
 70
     1
102
RTVSPost2010Prop44ColorIndex
 90
        5
102
RTVSPost2010Prop44ColorRGB
 90
      255
102
RTVSPost2010PropOp44
 70
     1
102
RTVSPost2010Prop45
280
     0
102
RTVSPost2010PropOp45
 70
     1
102
RTVSPost2010Prop46
 90
       50
102
RTVSPost2010PropOp46
 70
     1
102
RTVSPost2010Prop47
 90
       50
102
RTVSPost2010PropOp47
 70
     1
102
RTVSPost2010Prop48
 90
       50
102
RTVSPost2010PropOp48
 70
     1
102
RTVSPost2010Prop49
280
     0
102
RTVSPost2010PropOp49
 70
     1
102
RTVSPost2010Prop50
 90
       50
102
RTVSPost2010PropOp50
 70
     1
102
RTVSPost2010Prop51ColorIndex
 90
      256
102
RTVSPost2010Prop51ColorRGB
 90
-16777216
102
RTVSPost2010PropOp51
 70
     0
102
RTVSPost2010Prop52
140
1.0
102
RTVSPost2010PropOp52
 70
     0
102
RTVSPost2010Prop53
 90
        2
102
RTVSPost2010PropOp53
 70
     1
102
RTVSPost2010Prop54
  1
strokes_ogs.tif
102
RTVSPost2010PropOp54
 70
     1
102
RTVSPost2010Prop55
280
     0
102
RTVSPost2010PropOp55
 70
     1
102
RTVSPost2010Prop56
140
1.0
102
RTVSPost2010PropOp56
 70
     1
102
RTVSPost2010Prop57
140
1.0
102
RTVSPost2010PropOp57
 70
     1
  0
XRECORD
  5
A5
102
{ACAD_REACTORS
330
A4
102
}
330
A4
100
AcDbXrecord
280
     1
102
RTVSPropertyOp0
 70
     0
102
RTVSPropertyOp1
 70
     0
102
RTVSPropertyOp2
 70
     0
102
RTVSPropertyOp3
 70
     0
102
RTVSPropertyOp4
 70
     0
102
RTVSPropertyOp5
 70
     0
102
RTVSPropertyOp6
 70
     0
102
RTVSPropertyOp7
 70
     0
102
RTVSPropertyOp8
 70
     0
102
RTVSPropertyOp9
 70
     0
102
RTVSPropertyOp10
 70
     0
102
RTVSPropertyOp11
 70
     0
102
RTVSPropertyOp12
 70
     0
102
RTVSPropertyOp13
 70
     0
102
RTVSPropertyOp14
 70
     2
102
RTVSPropertyOp15
 70
     0
102
RTVSPropertyOp16
 70
     0
102
RTVSPropertyOp17
 70
     0
102
RTVSPropertyOp18
 70
     0
102
RTVSPropertyOp19
 70
     0
102
RTVSPropertyOp20
 70
     0
102
RTVSPropertyOp21
 70
     0
102
RTVSPropertyOp22
 70
     0
102
RTVSPropertyOp23
 70
     0
102
RTVSPropertyOp24
 70
     0
102
RTVSPropertyOp25
 70
     0
102
RTVSPropertyOp26
 70
     0
102
RTVSPropertyOp27
 70
     0
102
RTVSPropertyOp28
 70
     0
102
RTVSPropertyOp29
 70
     0
102
RTVSPropertyOp30
 70
     0
102
RTVSPropertyOp31
 70
     0
102
RTVSPropertyOp32
 70
     0
102
RTVSPropertyOp33
 70
     0
102
RTVSPropertyOp34
 70
     0
102
RTVSPropertyOp35
 70
     0
102
RTVSPropertyOp36
 70
     0
102
RTVSPropertyOp37
 70
     0
102
RTVSPropertyOp38
 70
     0
102
RTVSPropertyOp39
 70
     0
102
RTVSPropertyOp40
 70
     0
102
RTVSPropertyOp41
 70
     0
102
RTVSPropertyOp42
 70
     0
102
RTVSPropertyOp43
 70
     0
102
RTVSPropertyOp44
 70
     0
102
RTVSPropertyOp45
 70
     0
102
RTVSPropertyOp46
 70
     0
102
RTVSPropertyOp47
 70
     0
102
RTVSPropertyOp48
 70
     0
102
RTVSPropertyOp49
 70
     0
102
RTVSPropertyOp50
 70
     0
102
RTVSPropertyOp51
 70
     0
102
RTVSPropertyOp52
 70
     0
102
RTVSPropertyOp53
 70
     0
102
RTVSPropertyOp54
 70
     0
102
RTVSPropertyOp55
 70
     0
102
RTVSPropertyOp56
 70
     0
102
RTVSPropertyOp57
 70
     0
102
RTVSPost2010Prop28
280
     0
102
RTVSPost2010PropOp28
 70
     0
102
RTVSPost2010Prop29
280
     1
102
RTVSPost2010PropOp29
 70
     0
102
RTVSPost2010Prop30
280
     1
102
RTVSPost2010PropOp30
 70
     0
102
RTVSPost2010Prop31
280
     0
102
RTVSPost2010PropOp31
 70
     0
102
RTVSPost2010Prop32
280
     0
102
RTVSPost2010PropOp32
 70
     0
102
RTVSPost2010Prop33
280
     0
102
RTVSPost2010PropOp33
 70
     0
102
RTVSPost2010Prop34
280
     0
102
RTVSPost2010PropOp34
 70
     0
102
RTVSPost2010Prop35
280
     0
102
RTVSPost2010PropOp35
 70
     0
102
RTVSPost2010Prop36
280
     0
102
RTVSPost2010PropOp36
 70
     0
102
RTVSPost2010Prop37
 90
       50
102
RTVSPost2010PropOp37
 70
     0
102
RTVSPost2010Prop38
140
0.0
102
RTVSPost2010PropOp38
 70
     0
102
RTVSPost2010Prop39
140
1.0
102
RTVSPost2010PropOp39
 70
     0
102
RTVSPost2010Prop40
 90
        0
102
RTVSPost2010PropOp40
 70
     0
102
RTVSPost2010Prop41ColorIndex
 90
       18
102
RTVSPost2010Prop41ColorRGB
 90
        0
102
RTVSPost2010PropOp41
 70
     0
102
RTVSPost2010Prop42
 90
       50
102
RTVSPost2010PropOp42
 70
     0
102
RTVSPost2010Prop43
 90
        3
102
RTVSPost2010PropOp43
 70
     0
102
RTVSPost2010Prop44ColorIndex
 90
        5
102
RTVSPost2010Prop44ColorRGB
 90
      255
102
RTVSPost2010PropOp44
 70
     0
102
RTVSPost2010Prop45
280
     0
102
RTVSPost2010PropOp45
 70
     0
102
RTVSPost2010Prop46
 90
       50
102
RTVSPost2010PropOp46
 70
     0
102
RTVSPost2010Prop47
 90
       50
102
RTVSPost2010PropOp47
 70
     0
102
RTVSPost2010Prop48
 90
       50
102
RTVSPost2010PropOp48
 70
     0
102
RTVSPost2010Prop49
280
     0
102
RTVSPost2010PropOp49
 70
     0
102
RTVSPost2010Prop50
 90
       50
102
RTVSPost2010PropOp50
 70
     0
102
RTVSPost2010Prop51ColorIndex
 90
      256
102
RTVSPost2010Prop51ColorRGB
 90
-16777216
102
RTVSPost2010PropOp51
 70
     0
102
RTVSPost2010Prop52
140
1.0
102
RTVSPost2010PropOp52
 70
     0
102
RTVSPost2010Prop53
 90
        2
102
RTVSPost2010PropOp53
 70
     0
102
RTVSPost2010Prop54
  1
strokes_ogs.tif
102
RTVSPost2010PropOp54
 70
     0
102
RTVSPost2010Prop55
280
     0
102
RTVSPost2010PropOp55
 70
     0
102
RTVSPost2010Prop56
140
1.0
102
RTVSPost2010PropOp56
 70
     0
102
RTVSPost2010Prop57
140
1.0
102
RTVSPost2010PropOp57
 70
     0
  0
XRECORD
  5
9F
102
{ACAD_REACTORS
330
9E
102
}
330
9E
100
AcDbXrecord
280
     1
102
RTVSPropertyOp0
 70
     1
102
RTVSPropertyOp1
 70
     1
102
RTVSPropertyOp2
 70
     1
102
RTVSPropertyOp3
 70
     1
102
RTVSPropertyOp4
 70
     1
102
RTVSPropertyOp5
 70
     1
102
RTVSPropertyOp6
 70
     1
102
RTVSPropertyOp7
 70
     1
102
RTVSPropertyOp8
 70
     1
102
RTVSPropertyOp9
 70
     1
102
RTVSPropertyOp10
 70
     1
102
RTVSPropertyOp11
 70
     1
102
RTVSPropertyOp12
 70
     1
102
RTVSPropertyOp13
 70
     1
102
RTVSPropertyOp14
 70
     1
102
RTVSPropertyOp15
 70
     1
102
RTVSPropertyOp16
 70
     1
102
RTVSPropertyOp17
 70
     1
102
RTVSPropertyOp18
 70
     1
102
RTVSPropertyOp19
 70
     1
102
RTVSPropertyOp20
 70
     1
102
RTVSPropertyOp21
 70
     1
102
RTVSPropertyOp22
 70
     1
102
RTVSPropertyOp23
 70
     1
102
RTVSPropertyOp24
 70
     1
102
RTVSPropertyOp25
 70
     1
102
RTVSPropertyOp26
 70
     1
102
RTVSPropertyOp27
 70
     1
102
RTVSPropertyOp28
 70
     1
102
RTVSPropertyOp29
 70
     1
102
RTVSPropertyOp30
 70
     1
102
RTVSPropertyOp31
 70
     1
102
RTVSPropertyOp32
 70
     1
102
RTVSPropertyOp33
 70
     1
102
RTVSPropertyOp34
 70
     1
102
RTVSPropertyOp35
 70
     1
102
RTVSPropertyOp36
 70
     1
102
RTVSPropertyOp37
 70
     1
102
RTVSPropertyOp38
 70
     1
102
RTVSPropertyOp39
 70
     1
102
RTVSPropertyOp40
 70
     1
102
RTVSPropertyOp41
 70
     1
102
RTVSPropertyOp42
 70
     1
102
RTVSPropertyOp43
 70
     1
102
RTVSPropertyOp44
 70
     1
102
RTVSPropertyOp45
 70
     1
102
RTVSPropertyOp46
 70
     1
102
RTVSPropertyOp47
 70
     1
102
RTVSPropertyOp48
 70
     1
102
RTVSPropertyOp49
 70
     1
102
RTVSPropertyOp50
 70
     1
102
RTVSPropertyOp51
 70
     0
102
RTVSPropertyOp52
 70
     0
102
RTVSPropertyOp53
 70
     1
102
RTVSPropertyOp54
 70
     1
102
RTVSPropertyOp55
 70
     1
102
RTVSPropertyOp56
 70
     1
102
RTVSPropertyOp57
 70
     1
102
RTVSPost2010Prop28
280
     0
102
RTVSPost2010PropOp28
 70
     1
102
RTVSPost2010Prop29
280
     1
102
RTVSPost2010PropOp29
 70
     1
102
RTVSPost2010Prop30
280
     1
102
RTVSPost2010PropOp30
 70
     1
102
RTVSPost2010Prop31
280
     0
102
RTVSPost2010PropOp31
 70
     1
102
RTVSPost2010Prop32
280
     0
102
RTVSPost2010PropOp32
 70
     1
102
RTVSPost2010Prop33
280
     0
102
RTVSPost2010PropOp33
 70
     1
102
RTVSPost2010Prop34
280
     0
102
RTVSPost2010PropOp34
 70
     1
102
RTVSPost2010Prop35
280
     0
102
RTVSPost2010PropOp35
 70
     1
102
RTVSPost2010Prop36
280
     0
102
RTVSPost2010PropOp36
 70
     1
102
RTVSPost2010Prop37
 90
       50
102
RTVSPost2010PropOp37
 70
     1
102
RTVSPost2010Prop38
140
0.0
102
RTVSPost2010PropOp38
 70
     1
102
RTVSPost2010Prop39
140
1.0
102
RTVSPost2010PropOp39
 70
     1
102
RTVSPost2010Prop40
 90
        0
102
RTVSPost2010PropOp40
 70
     1
102
RTVSPost2010Prop41ColorIndex
 90
       18
102
RTVSPost2010Prop41ColorRGB
 90
        0
102
RTVSPost2010PropOp41
 70
     1
102
RTVSPost2010Prop42
 90
       50
102
RTVSPost2010PropOp42
 70
     1
102
RTVSPost2010Prop43
 90
        3
102
RTVSPost2010PropOp43
 70
     1
102
RTVSPost2010Prop44ColorIndex
 90
        5
102
RTVSPost2010Prop44ColorRGB
 90
      255
102
RTVSPost2010PropOp44
 70
     1
102
RTVSPost2010Prop45
280
     0
102
RTVSPost2010PropOp45
 70
     1
102
RTVSPost2010Prop46
 90
       50
102
RTVSPost2010PropOp46
 70
     1
102
RTVSPost2010Prop47
 90
       50
102
RTVSPost2010PropOp47
 70
     1
102
RTVSPost2010Prop48
 90
       50
102
RTVSPost2010PropOp48
 70
     1
102
RTVSPost2010Prop49
280
     0
102
RTVSPost2010PropOp49
 70
     1
102
RTVSPost2010Prop50
 90
       50
102
RTVSPost2010PropOp50
 70
     1
102
RTVSPost2010Prop51ColorIndex
 90
      256
102
RTVSPost2010Prop51ColorRGB
 90
-16777216
102
RTVSPost2010PropOp51
 70
     0
102
RTVSPost2010Prop52
140
1.0
102
RTVSPost2010PropOp52
 70
     0
102
RTVSPost2010Prop53
 90
        2
102
RTVSPost2010PropOp53
 70
     1
102
RTVSPost2010Prop54
  1
strokes_ogs.tif
102
RTVSPost2010PropOp54
 70
     1
102
RTVSPost2010Prop55
280
     0
102
RTVSPost2010PropOp55
 70
     1
102
RTVSPost2010Prop56
140
1.0
102
RTVSPost2010PropOp56
 70
     1
102
RTVSPost2010Prop57
140
1.0
102
RTVSPost2010PropOp57
 70
     1
  0
XRECORD
  5
A7
102
{ACAD_REACTORS
330
A6
102
}
330
A6
100
AcDbXrecord
280
     1
102
RTVSPropertyOp0
 70
     0
102
RTVSPropertyOp1
 70
     0
102
RTVSPropertyOp2
 70
     0
102
RTVSPropertyOp3
 70
     0
102
RTVSPropertyOp4
 70
     0
102
RTVSPropertyOp5
 70
     0
102
RTVSPropertyOp6
 70
     0
102
RTVSPropertyOp7
 70
     0
102
RTVSPropertyOp8
 70
     0
102
RTVSPropertyOp9
 70
     0
102
RTVSPropertyOp10
 70
     0
102
RTVSPropertyOp11
 70
     0
102
RTVSPropertyOp12
 70
     0
102
RTVSPropertyOp13
 70
     0
102
RTVSPropertyOp14
 70
     2
102
RTVSPropertyOp15
 70
     0
102
RTVSPropertyOp16
 70
     0
102
RTVSPropertyOp17
 70
     0
102
RTVSPropertyOp18
 70
     0
102
RTVSPropertyOp19
 70
     0
102
RTVSPropertyOp20
 70
     0
102
RTVSPropertyOp21
 70
     0
102
RTVSPropertyOp22
 70
     0
102
RTVSPropertyOp23
 70
     0
102
RTVSPropertyOp24
 70
     0
102
RTVSPropertyOp25
 70
     0
102
RTVSPropertyOp26
 70
     0
102
RTVSPropertyOp27
 70
     0
102
RTVSPropertyOp28
 70
     0
102
RTVSPropertyOp29
 70
     0
102
RTVSPropertyOp30
 70
     0
102
RTVSPropertyOp31
 70
     0
102
RTVSPropertyOp32
 70
     0
102
RTVSPropertyOp33
 70
     0
102
RTVSPropertyOp34
 70
     0
102
RTVSPropertyOp35
 70
     0
102
RTVSPropertyOp36
 70
     0
102
RTVSPropertyOp37
 70
     0
102
RTVSPropertyOp38
 70
     0
102
RTVSPropertyOp39
 70
     0
102
RTVSPropertyOp40
 70
     0
102
RTVSPropertyOp41
 70
     0
102
RTVSPropertyOp42
 70
     0
102
RTVSPropertyOp43
 70
     0
102
RTVSPropertyOp44
 70
     0
102
RTVSPropertyOp45
 70
     0
102
RTVSPropertyOp46
 70
     0
102
RTVSPropertyOp47
 70
     0
102
RTVSPropertyOp48
 70
     0
102
RTVSPropertyOp49
 70
     0
102
RTVSPropertyOp50
 70
     0
102
RTVSPropertyOp51
 70
     0
102
RTVSPropertyOp52
 70
     0
102
RTVSPropertyOp53
 70
     0
102
RTVSPropertyOp54
 70
     0
102
RTVSPropertyOp55
 70
     0
102
RTVSPropertyOp56
 70
     0
102
RTVSPropertyOp57
 70
     0
102
RTVSPost2010Prop28
280
     0
102
RTVSPost2010PropOp28
 70
     0
102
RTVSPost2010Prop29
280
     1
102
RTVSPost2010PropOp29
 70
     0
102
RTVSPost2010Prop30
280
     1
102
RTVSPost2010PropOp30
 70
     0
102
RTVSPost2010Prop31
280
     0
102
RTVSPost2010PropOp31
 70
     0
102
RTVSPost2010Prop32
280
     0
102
RTVSPost2010PropOp32
 70
     0
102
RTVSPost2010Prop33
280
     0
102
RTVSPost2010PropOp33
 70
     0
102
RTVSPost2010Prop34
280
     0
102
RTVSPost2010PropOp34
 70
     0
102
RTVSPost2010Prop35
280
     0
102
RTVSPost2010PropOp35
 70
     0
102
RTVSPost2010Prop36
280
     0
102
RTVSPost2010PropOp36
 70
     0
102
RTVSPost2010Prop37
 90
       50
102
RTVSPost2010PropOp37
 70
     0
102
RTVSPost2010Prop38
140
0.0
102
RTVSPost2010PropOp38
 70
     0
102
RTVSPost2010Prop39
140
1.0
102
RTVSPost2010PropOp39
 70
     0
102
RTVSPost2010Prop40
 90
        0
102
RTVSPost2010PropOp40
 70
     0
102
RTVSPost2010Prop41ColorIndex
 90
       18
102
RTVSPost2010Prop41ColorRGB
 90
        0
102
RTVSPost2010PropOp41
 70
     0
102
RTVSPost2010Prop42
 90
       50
102
RTVSPost2010PropOp42
 70
     0
102
RTVSPost2010Prop43
 90
        3
102
RTVSPost2010PropOp43
 70
     0
102
RTVSPost2010Prop44ColorIndex
 90
        5
102
RTVSPost2010Prop44ColorRGB
 90
      255
102
RTVSPost2010PropOp44
 70
     0
102
RTVSPost2010Prop45
280
     0
102
RTVSPost2010PropOp45
 70
     0
102
RTVSPost2010Prop46
 90
       50
102
RTVSPost2010PropOp46
 70
     0
102
RTVSPost2010Prop47
 90
       50
102
RTVSPost2010PropOp47
 70
     0
102
RTVSPost2010Prop48
 90
       50
102
RTVSPost2010PropOp48
 70
     0
102
RTVSPost2010Prop49
280
     0
102
RTVSPost2010PropOp49
 70
     0
102
RTVSPost2010Prop50
 90
       50
102
RTVSPost2010PropOp50
 70
     0
102
RTVSPost2010Prop51ColorIndex
 90
      256
102
RTVSPost2010Prop51ColorRGB
 90
-16777216
102
RTVSPost2010PropOp51
 70
     0
102
RTVSPost2010Prop52
140
1.0
102
RTVSPost2010PropOp52
 70
     0
102
RTVSPost2010Prop53
 90
        2
102
RTVSPost2010PropOp53
 70
     0
102
RTVSPost2010Prop54
  1
strokes_ogs.tif
102
RTVSPost2010PropOp54
 70
     0
102
RTVSPost2010Prop55
280
     0
102
RTVSPost2010PropOp55
 70
     0
102
RTVSPost2010Prop56
140
1.0
102
RTVSPost2010PropOp56
 70
     0
102
RTVSPost2010Prop57
140
1.0
102
RTVSPost2010PropOp57
 70
     0
  0
XRECORD
  5
95
102
{ACAD_REACTORS
330
94
102
}
330
94
100
AcDbXrecord
280
     1
102
RTVSPropertyOp0
 70
     1
102
RTVSPropertyOp1
 70
     1
102
RTVSPropertyOp2
 70
     1
102
RTVSPropertyOp3
 70
     1
102
RTVSPropertyOp4
 70
     1
102
RTVSPropertyOp5
 70
     1
102
RTVSPropertyOp6
 70
     1
102
RTVSPropertyOp7
 70
     1
102
RTVSPropertyOp8
 70
     1
102
RTVSPropertyOp9
 70
     1
102
RTVSPropertyOp10
 70
     1
102
RTVSPropertyOp11
 70
     1
102
RTVSPropertyOp12
 70
     1
102
RTVSPropertyOp13
 70
     1
102
RTVSPropertyOp14
 70
     1
102
RTVSPropertyOp15
 70
     1
102
RTVSPropertyOp16
 70
     1
102
RTVSPropertyOp17
 70
     1
102
RTVSPropertyOp18
 70
     1
102
RTVSPropertyOp19
 70
     1
102
RTVSPropertyOp20
 70
     1
102
RTVSPropertyOp21
 70
     1
102
RTVSPropertyOp22
 70
     1
102
RTVSPropertyOp23
 70
     1
102
RTVSPropertyOp24
 70
     1
102
RTVSPropertyOp25
 70
     1
102
RTVSPropertyOp26
 70
     1
102
RTVSPropertyOp27
 70
     1
102
RTVSPropertyOp28
 70
     1
102
RTVSPropertyOp29
 70
     1
102
RTVSPropertyOp30
 70
     1
102
RTVSPropertyOp31
 70
     1
102
RTVSPropertyOp32
 70
     1
102
RTVSPropertyOp33
 70
     1
102
RTVSPropertyOp34
 70
     1
102
RTVSPropertyOp35
 70
     1
102
RTVSPropertyOp36
 70
     1
102
RTVSPropertyOp37
 70
     1
102
RTVSPropertyOp38
 70
     1
102
RTVSPropertyOp39
 70
     1
102
RTVSPropertyOp40
 70
     1
102
RTVSPropertyOp41
 70
     1
102
RTVSPropertyOp42
 70
     1
102
RTVSPropertyOp43
 70
     1
102
RTVSPropertyOp44
 70
     1
102
RTVSPropertyOp45
 70
     1
102
RTVSPropertyOp46
 70
     1
102
RTVSPropertyOp47
 70
     1
102
RTVSPropertyOp48
 70
     1
102
RTVSPropertyOp49
 70
     1
102
RTVSPropertyOp50
 70
     1
102
RTVSPropertyOp51
 70
     0
102
RTVSPropertyOp52
 70
     0
102
RTVSPropertyOp53
 70
     1
102
RTVSPropertyOp54
 70
     1
102
RTVSPropertyOp55
 70
     1
102
RTVSPropertyOp56
 70
     1
102
RTVSPropertyOp57
 70
     1
102
RTVSPost2010Prop28
280
     0
102
RTVSPost2010PropOp28
 70
     1
102
RTVSPost2010Prop29
280
     1
102
RTVSPost2010PropOp29
 70
     1
102
RTVSPost2010Prop30
280
     1
102
RTVSPost2010PropOp30
 70
     1
102
RTVSPost2010Prop31
280
     0
102
RTVSPost2010PropOp31
 70
     1
102
RTVSPost2010Prop32
280
     0
102
RTVSPost2010PropOp32
 70
     1
102
RTVSPost2010Prop33
280
     0
102
RTVSPost2010PropOp33
 70
     1
102
RTVSPost2010Prop34
280
     0
102
RTVSPost2010PropOp34
 70
     1
102
RTVSPost2010Prop35
280
     0
102
RTVSPost2010PropOp35
 70
     1
102
RTVSPost2010Prop36
280
     0
102
RTVSPost2010PropOp36
 70
     1
102
RTVSPost2010Prop37
 90
       50
102
RTVSPost2010PropOp37
 70
     1
102
RTVSPost2010Prop38
140
0.0
102
RTVSPost2010PropOp38
 70
     1
102
RTVSPost2010Prop39
140
1.0
102
RTVSPost2010PropOp39
 70
     1
102
RTVSPost2010Prop40
 90
        0
102
RTVSPost2010PropOp40
 70
     1
102
RTVSPost2010Prop41ColorIndex
 90
       18
102
RTVSPost2010Prop41ColorRGB
 90
        0
102
RTVSPost2010PropOp41
 70
     1
102
RTVSPost2010Prop42
 90
       50
102
RTVSPost2010PropOp42
 70
     1
102
RTVSPost2010Prop43
 90
        3
102
RTVSPost2010PropOp43
 70
     1
102
RTVSPost2010Prop44ColorIndex
 90
        5
102
RTVSPost2010Prop44ColorRGB
 90
      255
102
RTVSPost2010PropOp44
 70
     1
102
RTVSPost2010Prop45
280
     0
102
RTVSPost2010PropOp45
 70
     1
102
RTVSPost2010Prop46
 90
       50
102
RTVSPost2010PropOp46
 70
     1
102
RTVSPost2010Prop47
 90
       50
102
RTVSPost2010PropOp47
 70
     1
102
RTVSPost2010Prop48
 90
       50
102
RTVSPost2010PropOp48
 70
     1
102
RTVSPost2010Prop49
280
     0
102
RTVSPost2010PropOp49
 70
     1
102
RTVSPost2010Prop50
 90
       50
102
RTVSPost2010PropOp50
 70
     1
102
RTVSPost2010Prop51ColorIndex
 90
      256
102
RTVSPost2010Prop51ColorRGB
 90
-16777216
102
RTVSPost2010PropOp51
 70
     0
102
RTVSPost2010Prop52
140
1.0
102
RTVSPost2010PropOp52
 70
     0
102
RTVSPost2010Prop53
 90
        2
102
RTVSPost2010PropOp53
 70
     1
102
RTVSPost2010Prop54
  1
strokes_ogs.tif
102
RTVSPost2010PropOp54
 70
     1
102
RTVSPost2010Prop55
280
     0
102
RTVSPost2010PropOp55
 70
     1
102
RTVSPost2010Prop56
140
1.0
102
RTVSPost2010PropOp56
 70
     1
102
RTVSPost2010Prop57
140
1.0
102
RTVSPost2010PropOp57
 70
     1
  0
XRECORD
  5
B3
102
{ACAD_REACTORS
330
B2
102
}
330
B2
100
AcDbXrecord
280
     1
102
RTVSPropertyOp0
 70
     1
102
RTVSPropertyOp1
 70
     1
102
RTVSPropertyOp2
 70
     1
102
RTVSPropertyOp3
 70
     1
102
RTVSPropertyOp4
 70
     1
102
RTVSPropertyOp5
 70
     1
102
RTVSPropertyOp6
 70
     1
102
RTVSPropertyOp7
 70
     1
102
RTVSPropertyOp8
 70
     1
102
RTVSPropertyOp9
 70
     1
102
RTVSPropertyOp10
 70
     1
102
RTVSPropertyOp11
 70
     1
102
RTVSPropertyOp12
 70
     1
102
RTVSPropertyOp13
 70
     1
102
RTVSPropertyOp14
 70
     1
102
RTVSPropertyOp15
 70
     1
102
RTVSPropertyOp16
 70
     1
102
RTVSPropertyOp17
 70
     1
102
RTVSPropertyOp18
 70
     1
102
RTVSPropertyOp19
 70
     1
102
RTVSPropertyOp20
 70
     1
102
RTVSPropertyOp21
 70
     1
102
RTVSPropertyOp22
 70
     1
102
RTVSPropertyOp23
 70
     1
102
RTVSPropertyOp24
 70
     1
102
RTVSPropertyOp25
 70
     1
102
RTVSPropertyOp26
 70
     1
102
RTVSPropertyOp27
 70
     1
102
RTVSPropertyOp28
 70
     1
102
RTVSPropertyOp29
 70
     1
102
RTVSPropertyOp30
 70
     1
102
RTVSPropertyOp31
 70
     1
102
RTVSPropertyOp32
 70
     1
102
RTVSPropertyOp33
 70
     1
102
RTVSPropertyOp34
 70
     1
102
RTVSPropertyOp35
 70
     1
102
RTVSPropertyOp36
 70
     1
102
RTVSPropertyOp37
 70
     1
102
RTVSPropertyOp38
 70
     1
102
RTVSPropertyOp39
 70
     1
102
RTVSPropertyOp40
 70
     1
102
RTVSPropertyOp41
 70
     1
102
RTVSPropertyOp42
 70
     1
102
RTVSPropertyOp43
 70
     1
102
RTVSPropertyOp44
 70
     1
102
RTVSPropertyOp45
 70
     1
102
RTVSPropertyOp46
 70
     1
102
RTVSPropertyOp47
 70
     1
102
RTVSPropertyOp48
 70
     1
102
RTVSPropertyOp49
 70
     1
102
RTVSPropertyOp50
 70
     1
102
RTVSPropertyOp51
 70
     0
102
RTVSPropertyOp52
 70
     0
102
RTVSPropertyOp53
 70
     1
102
RTVSPropertyOp54
 70
     1
102
RTVSPropertyOp55
 70
     1
102
RTVSPropertyOp56
 70
     1
102
RTVSPropertyOp57
 70
     1
102
RTVSPost2010Prop28
280
     0
102
RTVSPost2010PropOp28
 70
     1
102
RTVSPost2010Prop29
280
     1
102
RTVSPost2010PropOp29
 70
     1
102
RTVSPost2010Prop30
280
     1
102
RTVSPost2010PropOp30
 70
     1
102
RTVSPost2010Prop31
280
     0
102
RTVSPost2010PropOp31
 70
     1
102
RTVSPost2010Prop32
280
     0
102
RTVSPost2010PropOp32
 70
     1
102
RTVSPost2010Prop33
280
     0
102
RTVSPost2010PropOp33
 70
     1
102
RTVSPost2010Prop34
280
     0
102
RTVSPost2010PropOp34
 70
     1
102
RTVSPost2010Prop35
280
     0
102
RTVSPost2010PropOp35
 70
     1
102
RTVSPost2010Prop36
280
     0
102
RTVSPost2010PropOp36
 70
     1
102
RTVSPost2010Prop37
 90
       50
102
RTVSPost2010PropOp37
 70
     1
102
RTVSPost2010Prop38
140
0.0
102
RTVSPost2010PropOp38
 70
     1
102
RTVSPost2010Prop39
140
1.0
102
RTVSPost2010PropOp39
 70
     1
102
RTVSPost2010Prop40
 90
        0
102
RTVSPost2010PropOp40
 70
     1
102
RTVSPost2010Prop41ColorIndex
 90
       18
102
RTVSPost2010Prop41ColorRGB
 90
        0
102
RTVSPost2010PropOp41
 70
     1
102
RTVSPost2010Prop42
 90
       50
102
RTVSPost2010PropOp42
 70
     1
102
RTVSPost2010Prop43
 90
        3
102
RTVSPost2010PropOp43
 70
     1
102
RTVSPost2010Prop44ColorIndex
 90
        5
102
RTVSPost2010Prop44ColorRGB
 90
      255
102
RTVSPost2010PropOp44
 70
     1
102
RTVSPost2010Prop45
280
     0
102
RTVSPost2010PropOp45
 70
     1
102
RTVSPost2010Prop46
 90
       50
102
RTVSPost2010PropOp46
 70
     1
102
RTVSPost2010Prop47
 90
       50
102
RTVSPost2010PropOp47
 70
     1
102
RTVSPost2010Prop48
 90
       50
102
RTVSPost2010PropOp48
 70
     1
102
RTVSPost2010Prop49
280
     0
102
RTVSPost2010PropOp49
 70
     1
102
RTVSPost2010Prop50
 90
       50
102
RTVSPost2010PropOp50
 70
     1
102
RTVSPost2010Prop51ColorIndex
 90
      256
102
RTVSPost2010Prop51ColorRGB
 90
-16777216
102
RTVSPost2010PropOp51
 70
     0
102
RTVSPost2010Prop52
140
1.0
102
RTVSPost2010PropOp52
 70
     0
102
RTVSPost2010Prop53
 90
        2
102
RTVSPost2010PropOp53
 70
     1
102
RTVSPost2010Prop54
  1
strokes_ogs.tif
102
RTVSPost2010PropOp54
 70
     1
102
RTVSPost2010Prop55
280
     0
102
RTVSPost2010PropOp55
 70
     1
102
RTVSPost2010Prop56
140
1.0
102
RTVSPost2010PropOp56
 70
     1
102
RTVSPost2010Prop57
140
1.0
102
RTVSPost2010PropOp57
 70
     1
  0
XRECORD
  5
B1
102
{ACAD_REACTORS
330
B0
102
}
330
B0
100
AcDbXrecord
280
     1
102
RTVSPropertyOp0
 70
     1
102
RTVSPropertyOp1
 70
     1
102
RTVSPropertyOp2
 70
     1
102
RTVSPropertyOp3
 70
     1
102
RTVSPropertyOp4
 70
     1
102
RTVSPropertyOp5
 70
     1
102
RTVSPropertyOp6
 70
     1
102
RTVSPropertyOp7
 70
     1
102
RTVSPropertyOp8
 70
     1
102
RTVSPropertyOp9
 70
     1
102
RTVSPropertyOp10
 70
     1
102
RTVSPropertyOp11
 70
     1
102
RTVSPropertyOp12
 70
     1
102
RTVSPropertyOp13
 70
     1
102
RTVSPropertyOp14
 70
     1
102
RTVSPropertyOp15
 70
     1
102
RTVSPropertyOp16
 70
     1
102
RTVSPropertyOp17
 70
     1
102
RTVSPropertyOp18
 70
     1
102
RTVSPropertyOp19
 70
     1
102
RTVSPropertyOp20
 70
     1
102
RTVSPropertyOp21
 70
     1
102
RTVSPropertyOp22
 70
     1
102
RTVSPropertyOp23
 70
     1
102
RTVSPropertyOp24
 70
     1
102
RTVSPropertyOp25
 70
     1
102
RTVSPropertyOp26
 70
     1
102
RTVSPropertyOp27
 70
     1
102
RTVSPropertyOp28
 70
     1
102
RTVSPropertyOp29
 70
     1
102
RTVSPropertyOp30
 70
     1
102
RTVSPropertyOp31
 70
     1
102
RTVSPropertyOp32
 70
     1
102
RTVSPropertyOp33
 70
     1
102
RTVSPropertyOp34
 70
     1
102
RTVSPropertyOp35
 70
     1
102
RTVSPropertyOp36
 70
     1
102
RTVSPropertyOp37
 70
     1
102
RTVSPropertyOp38
 70
     1
102
RTVSPropertyOp39
 70
     1
102
RTVSPropertyOp40
 70
     1
102
RTVSPropertyOp41
 70
     1
102
RTVSPropertyOp42
 70
     1
102
RTVSPropertyOp43
 70
     1
102
RTVSPropertyOp44
 70
     1
102
RTVSPropertyOp45
 70
     1
102
RTVSPropertyOp46
 70
     1
102
RTVSPropertyOp47
 70
     1
102
RTVSPropertyOp48
 70
     1
102
RTVSPropertyOp49
 70
     1
102
RTVSPropertyOp50
 70
     1
102
RTVSPropertyOp51
 70
     0
102
RTVSPropertyOp52
 70
     0
102
RTVSPropertyOp53
 70
     1
102
RTVSPropertyOp54
 70
     1
102
RTVSPropertyOp55
 70
     1
102
RTVSPropertyOp56
 70
     1
102
RTVSPropertyOp57
 70
     1
102
RTVSPost2010Prop28
280
     0
102
RTVSPost2010PropOp28
 70
     1
102
RTVSPost2010Prop29
280
     1
102
RTVSPost2010PropOp29
 70
     1
102
RTVSPost2010Prop30
280
     1
102
RTVSPost2010PropOp30
 70
     1
102
RTVSPost2010Prop31
280
     0
102
RTVSPost2010PropOp31
 70
     1
102
RTVSPost2010Prop32
280
     0
102
RTVSPost2010PropOp32
 70
     1
102
RTVSPost2010Prop33
280
     0
102
RTVSPost2010PropOp33
 70
     1
102
RTVSPost2010Prop34
280
     0
102
RTVSPost2010PropOp34
 70
     1
102
RTVSPost2010Prop35
280
     0
102
RTVSPost2010PropOp35
 70
     1
102
RTVSPost2010Prop36
280
     0
102
RTVSPost2010PropOp36
 70
     1
102
RTVSPost2010Prop37
 90
       50
102
RTVSPost2010PropOp37
 70
     1
102
RTVSPost2010Prop38
140
0.0
102
RTVSPost2010PropOp38
 70
     1
102
RTVSPost2010Prop39
140
1.0
102
RTVSPost2010PropOp39
 70
     1
102
RTVSPost2010Prop40
 90
        0
102
RTVSPost2010PropOp40
 70
     1
102
RTVSPost2010Prop41ColorIndex
 90
       18
102
RTVSPost2010Prop41ColorRGB
 90
        0
102
RTVSPost2010PropOp41
 70
     1
102
RTVSPost2010Prop42
 90
       50
102
RTVSPost2010PropOp42
 70
     1
102
RTVSPost2010Prop43
 90
        3
102
RTVSPost2010PropOp43
 70
     1
102
RTVSPost2010Prop44ColorIndex
 90
        5
102
RTVSPost2010Prop44ColorRGB
 90
      255
102
RTVSPost2010PropOp44
 70
     1
102
RTVSPost2010Prop45
280
     0
102
RTVSPost2010PropOp45
 70
     1
102
RTVSPost2010Prop46
 90
       50
102
RTVSPost2010PropOp46
 70
     1
102
RTVSPost2010Prop47
 90
       50
102
RTVSPost2010PropOp47
 70
     1
102
RTVSPost2010Prop48
 90
       50
102
RTVSPost2010PropOp48
 70
     1
102
RTVSPost2010Prop49
280
     0
102
RTVSPost2010PropOp49
 70
     1
102
RTVSPost2010Prop50
 90
       50
102
RTVSPost2010PropOp50
 70
     1
102
RTVSPost2010Prop51ColorIndex
 90
      256
102
RTVSPost2010Prop51ColorRGB
 90
-16777216
102
RTVSPost2010PropOp51
 70
     0
102
RTVSPost2010Prop52
140
1.0
102
RTVSPost2010PropOp52
 70
     0
102
RTVSPost2010Prop53
 90
        2
102
RTVSPost2010PropOp53
 70
     1
102
RTVSPost2010Prop54
  1
strokes_ogs.tif
102
RTVSPost2010PropOp54
 70
     1
102
RTVSPost2010Prop55
280
     0
102
RTVSPost2010PropOp55
 70
     1
102
RTVSPost2010Prop56
140
1.0
102
RTVSPost2010PropOp56
 70
     1
102
RTVSPost2010Prop57
140
1.0
102
RTVSPost2010PropOp57
 70
     1
  0
XRECORD
  5
AB
102
{ACAD_REACTORS
330
AA
102
}
330
AA
100
AcDbXrecord
280
     1
102
RTVSPropertyOp0
 70
     1
102
RTVSPropertyOp1
 70
     1
102
RTVSPropertyOp2
 70
     1
102
RTVSPropertyOp3
 70
     1
102
RTVSPropertyOp4
 70
     1
102
RTVSPropertyOp5
 70
     1
102
RTVSPropertyOp6
 70
     1
102
RTVSPropertyOp7
 70
     1
102
RTVSPropertyOp8
 70
     1
102
RTVSPropertyOp9
 70
     1
102
RTVSPropertyOp10
 70
     1
102
RTVSPropertyOp11
 70
     1
102
RTVSPropertyOp12
 70
     1
102
RTVSPropertyOp13
 70
     1
102
RTVSPropertyOp14
 70
     1
102
RTVSPropertyOp15
 70
     1
102
RTVSPropertyOp16
 70
     1
102
RTVSPropertyOp17
 70
     1
102
RTVSPropertyOp18
 70
     1
102
RTVSPropertyOp19
 70
     1
102
RTVSPropertyOp20
 70
     1
102
RTVSPropertyOp21
 70
     1
102
RTVSPropertyOp22
 70
     1
102
RTVSPropertyOp23
 70
     1
102
RTVSPropertyOp24
 70
     1
102
RTVSPropertyOp25
 70
     1
102
RTVSPropertyOp26
 70
     1
102
RTVSPropertyOp27
 70
     1
102
RTVSPropertyOp28
 70
     1
102
RTVSPropertyOp29
 70
     1
102
RTVSPropertyOp30
 70
     1
102
RTVSPropertyOp31
 70
     1
102
RTVSPropertyOp32
 70
     1
102
RTVSPropertyOp33
 70
     1
102
RTVSPropertyOp34
 70
     1
102
RTVSPropertyOp35
 70
     1
102
RTVSPropertyOp36
 70
     1
102
RTVSPropertyOp37
 70
     1
102
RTVSPropertyOp38
 70
     1
102
RTVSPropertyOp39
 70
     1
102
RTVSPropertyOp40
 70
     1
102
RTVSPropertyOp41
 70
     1
102
RTVSPropertyOp42
 70
     1
102
RTVSPropertyOp43
 70
     1
102
RTVSPropertyOp44
 70
     1
102
RTVSPropertyOp45
 70
     1
102
RTVSPropertyOp46
 70
     1
102
RTVSPropertyOp47
 70
     1
102
RTVSPropertyOp48
 70
     1
102
RTVSPropertyOp49
 70
     1
102
RTVSPropertyOp50
 70
     1
102
RTVSPropertyOp51
 70
     0
102
RTVSPropertyOp52
 70
     0
102
RTVSPropertyOp53
 70
     1
102
RTVSPropertyOp54
 70
     1
102
RTVSPropertyOp55
 70
     1
102
RTVSPropertyOp56
 70
     1
102
RTVSPropertyOp57
 70
     1
102
RTVSPost2010Prop28
280
     0
102
RTVSPost2010PropOp28
 70
     1
102
RTVSPost2010Prop29
280
     1
102
RTVSPost2010PropOp29
 70
     1
102
RTVSPost2010Prop30
280
     1
102
RTVSPost2010PropOp30
 70
     1
102
RTVSPost2010Prop31
280
     0
102
RTVSPost2010PropOp31
 70
     1
102
RTVSPost2010Prop32
280
     0
102
RTVSPost2010PropOp32
 70
     1
102
RTVSPost2010Prop33
280
     0
102
RTVSPost2010PropOp33
 70
     1
102
RTVSPost2010Prop34
280
     0
102
RTVSPost2010PropOp34
 70
     1
102
RTVSPost2010Prop35
280
     0
102
RTVSPost2010PropOp35
 70
     1
102
RTVSPost2010Prop36
280
     0
102
RTVSPost2010PropOp36
 70
     1
102
RTVSPost2010Prop37
 90
       50
102
RTVSPost2010PropOp37
 70
     1
102
RTVSPost2010Prop38
140
0.0
102
RTVSPost2010PropOp38
 70
     1
102
RTVSPost2010Prop39
140
1.0
102
RTVSPost2010PropOp39
 70
     1
102
RTVSPost2010Prop40
 90
        0
102
RTVSPost2010PropOp40
 70
     1
102
RTVSPost2010Prop41ColorIndex
 90
       18
102
RTVSPost2010Prop41ColorRGB
 90
        0
102
RTVSPost2010PropOp41
 70
     1
102
RTVSPost2010Prop42
 90
       50
102
RTVSPost2010PropOp42
 70
     1
102
RTVSPost2010Prop43
 90
        3
102
RTVSPost2010PropOp43
 70
     1
102
RTVSPost2010Prop44ColorIndex
 90
        5
102
RTVSPost2010Prop44ColorRGB
 90
      255
102
RTVSPost2010PropOp44
 70
     1
102
RTVSPost2010Prop45
280
     0
102
RTVSPost2010PropOp45
 70
     1
102
RTVSPost2010Prop46
 90
       50
102
RTVSPost2010PropOp46
 70
     1
102
RTVSPost2010Prop47
 90
       50
102
RTVSPost2010PropOp47
 70
     1
102
RTVSPost2010Prop48
 90
       50
102
RTVSPost2010PropOp48
 70
     1
102
RTVSPost2010Prop49
280
     0
102
RTVSPost2010PropOp49
 70
     1
102
RTVSPost2010Prop50
 90
       50
102
RTVSPost2010PropOp50
 70
     1
102
RTVSPost2010Prop51ColorIndex
 90
      256
102
RTVSPost2010Prop51ColorRGB
 90
-16777216
102
RTVSPost2010PropOp51
 70
     0
102
RTVSPost2010Prop52
140
1.0
102
RTVSPost2010PropOp52
 70
     0
102
RTVSPost2010Prop53
 90
        2
102
RTVSPost2010PropOp53
 70
     1
102
RTVSPost2010Prop54
  1
strokes_ogs.tif
102
RTVSPost2010PropOp54
 70
     1
102
RTVSPost2010Prop55
280
     0
102
RTVSPost2010PropOp55
 70
     1
102
RTVSPost2010Prop56
140
1.0
102
RTVSPost2010PropOp56
 70
     1
102
RTVSPost2010Prop57
140
1.0
102
RTVSPost2010PropOp57
 70
     1
  0
XRECORD
  5
AD
102
{ACAD_REACTORS
330
AC
102
}
330
AC
100
AcDbXrecord
280
     1
102
RTVSPropertyOp0
 70
     1
102
RTVSPropertyOp1
 70
     1
102
RTVSPropertyOp2
 70
     1
102
RTVSPropertyOp3
 70
     1
102
RTVSPropertyOp4
 70
     1
102
RTVSPropertyOp5
 70
     1
102
RTVSPropertyOp6
 70
     1
102
RTVSPropertyOp7
 70
     1
102
RTVSPropertyOp8
 70
     1
102
RTVSPropertyOp9
 70
     1
102
RTVSPropertyOp10
 70
     1
102
RTVSPropertyOp11
 70
     1
102
RTVSPropertyOp12
 70
     1
102
RTVSPropertyOp13
 70
     1
102
RTVSPropertyOp14
 70
     1
102
RTVSPropertyOp15
 70
     1
102
RTVSPropertyOp16
 70
     1
102
RTVSPropertyOp17
 70
     1
102
RTVSPropertyOp18
 70
     1
102
RTVSPropertyOp19
 70
     1
102
RTVSPropertyOp20
 70
     1
102
RTVSPropertyOp21
 70
     1
102
RTVSPropertyOp22
 70
     1
102
RTVSPropertyOp23
 70
     1
102
RTVSPropertyOp24
 70
     1
102
RTVSPropertyOp25
 70
     1
102
RTVSPropertyOp26
 70
     1
102
RTVSPropertyOp27
 70
     1
102
RTVSPropertyOp28
 70
     1
102
RTVSPropertyOp29
 70
     1
102
RTVSPropertyOp30
 70
     1
102
RTVSPropertyOp31
 70
     1
102
RTVSPropertyOp32
 70
     1
102
RTVSPropertyOp33
 70
     1
102
RTVSPropertyOp34
 70
     1
102
RTVSPropertyOp35
 70
     1
102
RTVSPropertyOp36
 70
     1
102
RTVSPropertyOp37
 70
     1
102
RTVSPropertyOp38
 70
     1
102
RTVSPropertyOp39
 70
     1
102
RTVSPropertyOp40
 70
     1
102
RTVSPropertyOp41
 70
     1
102
RTVSPropertyOp42
 70
     1
102
RTVSPropertyOp43
 70
     1
102
RTVSPropertyOp44
 70
     1
102
RTVSPropertyOp45
 70
     1
102
RTVSPropertyOp46
 70
     1
102
RTVSPropertyOp47
 70
     1
102
RTVSPropertyOp48
 70
     1
102
RTVSPropertyOp49
 70
     1
102
RTVSPropertyOp50
 70
     1
102
RTVSPropertyOp51
 70
     0
102
RTVSPropertyOp52
 70
     0
102
RTVSPropertyOp53
 70
     1
102
RTVSPropertyOp54
 70
     1
102
RTVSPropertyOp55
 70
     1
102
RTVSPropertyOp56
 70
     1
102
RTVSPropertyOp57
 70
     1
102
RTVSPost2010Prop28
280
     0
102
RTVSPost2010PropOp28
 70
     1
102
RTVSPost2010Prop29
280
     1
102
RTVSPost2010PropOp29
 70
     1
102
RTVSPost2010Prop30
280
     1
102
RTVSPost2010PropOp30
 70
     1
102
RTVSPost2010Prop31
280
     0
102
RTVSPost2010PropOp31
 70
     1
102
RTVSPost2010Prop32
280
     0
102
RTVSPost2010PropOp32
 70
     1
102
RTVSPost2010Prop33
280
     0
102
RTVSPost2010PropOp33
 70
     1
102
RTVSPost2010Prop34
280
     0
102
RTVSPost2010PropOp34
 70
     1
102
RTVSPost2010Prop35
280
     0
102
RTVSPost2010PropOp35
 70
     1
102
RTVSPost2010Prop36
280
     0
102
RTVSPost2010PropOp36
 70
     1
102
RTVSPost2010Prop37
 90
       50
102
RTVSPost2010PropOp37
 70
     1
102
RTVSPost2010Prop38
140
0.0
102
RTVSPost2010PropOp38
 70
     1
102
RTVSPost2010Prop39
140
1.0
102
RTVSPost2010PropOp39
 70
     1
102
RTVSPost2010Prop40
 90
        0
102
RTVSPost2010PropOp40
 70
     1
102
RTVSPost2010Prop41ColorIndex
 90
       18
102
RTVSPost2010Prop41ColorRGB
 90
        0
102
RTVSPost2010PropOp41
 70
     1
102
RTVSPost2010Prop42
 90
       50
102
RTVSPost2010PropOp42
 70
     1
102
RTVSPost2010Prop43
 90
        3
102
RTVSPost2010PropOp43
 70
     1
102
RTVSPost2010Prop44ColorIndex
 90
        5
102
RTVSPost2010Prop44ColorRGB
 90
      255
102
RTVSPost2010PropOp44
 70
     1
102
RTVSPost2010Prop45
280
     0
102
RTVSPost2010PropOp45
 70
     1
102
RTVSPost2010Prop46
 90
       50
102
RTVSPost2010PropOp46
 70
     1
102
RTVSPost2010Prop47
 90
       50
102
RTVSPost2010PropOp47
 70
     1
102
RTVSPost2010Prop48
 90
       50
102
RTVSPost2010PropOp48
 70
     1
102
RTVSPost2010Prop49
280
     0
102
RTVSPost2010PropOp49
 70
     1
102
RTVSPost2010Prop50
 90
       50
102
RTVSPost2010PropOp50
 70
     1
102
RTVSPost2010Prop51ColorIndex
 90
      256
102
RTVSPost2010Prop51ColorRGB
 90
-16777216
102
RTVSPost2010PropOp51
 70
     0
102
RTVSPost2010Prop52
140
1.0
102
RTVSPost2010PropOp52
 70
     0
102
RTVSPost2010Prop53
 90
        2
102
RTVSPost2010PropOp53
 70
     1
102
RTVSPost2010Prop54
  1
strokes_ogs.tif
102
RTVSPost2010PropOp54
 70
     1
102
RTVSPost2010Prop55
280
     0
102
RTVSPost2010PropOp55
 70
     1
102
RTVSPost2010Prop56
140
1.0
102
RTVSPost2010PropOp56
 70
     1
102
RTVSPost2010Prop57
140
1.0
102
RTVSPost2010PropOp57
 70
     1
  0
XRECORD
  5
9D
102
{ACAD_REACTORS
330
9C
102
}
330
9C
100
AcDbXrecord
280
     1
102
RTVSPropertyOp0
 70
     1
102
RTVSPropertyOp1
 70
     1
102
RTVSPropertyOp2
 70
     1
102
RTVSPropertyOp3
 70
     1
102
RTVSPropertyOp4
 70
     1
102
RTVSPropertyOp5
 70
     1
102
RTVSPropertyOp6
 70
     1
102
RTVSPropertyOp7
 70
     1
102
RTVSPropertyOp8
 70
     1
102
RTVSPropertyOp9
 70
     1
102
RTVSPropertyOp10
 70
     1
102
RTVSPropertyOp11
 70
     1
102
RTVSPropertyOp12
 70
     1
102
RTVSPropertyOp13
 70
     1
102
RTVSPropertyOp14
 70
     1
102
RTVSPropertyOp15
 70
     1
102
RTVSPropertyOp16
 70
     1
102
RTVSPropertyOp17
 70
     1
102
RTVSPropertyOp18
 70
     1
102
RTVSPropertyOp19
 70
     1
102
RTVSPropertyOp20
 70
     1
102
RTVSPropertyOp21
 70
     1
102
RTVSPropertyOp22
 70
     1
102
RTVSPropertyOp23
 70
     1
102
RTVSPropertyOp24
 70
     1
102
RTVSPropertyOp25
 70
     1
102
RTVSPropertyOp26
 70
     1
102
RTVSPropertyOp27
 70
     1
102
RTVSPropertyOp28
 70
     1
102
RTVSPropertyOp29
 70
     1
102
RTVSPropertyOp30
 70
     1
102
RTVSPropertyOp31
 70
     1
102
RTVSPropertyOp32
 70
     1
102
RTVSPropertyOp33
 70
     1
102
RTVSPropertyOp34
 70
     1
102
RTVSPropertyOp35
 70
     1
102
RTVSPropertyOp36
 70
     1
102
RTVSPropertyOp37
 70
     1
102
RTVSPropertyOp38
 70
     1
102
RTVSPropertyOp39
 70
     1
102
RTVSPropertyOp40
 70
     1
102
RTVSPropertyOp41
 70
     1
102
RTVSPropertyOp42
 70
     1
102
RTVSPropertyOp43
 70
     1
102
RTVSPropertyOp44
 70
     1
102
RTVSPropertyOp45
 70
     1
102
RTVSPropertyOp46
 70
     1
102
RTVSPropertyOp47
 70
     1
102
RTVSPropertyOp48
 70
     1
102
RTVSPropertyOp49
 70
     1
102
RTVSPropertyOp50
 70
     1
102
RTVSPropertyOp51
 70
     0
102
RTVSPropertyOp52
 70
     0
102
RTVSPropertyOp53
 70
     1
102
RTVSPropertyOp54
 70
     1
102
RTVSPropertyOp55
 70
     1
102
RTVSPropertyOp56
 70
     1
102
RTVSPropertyOp57
 70
     1
102
RTVSPost2010Prop28
280
     0
102
RTVSPost2010PropOp28
 70
     1
102
RTVSPost2010Prop29
280
     1
102
RTVSPost2010PropOp29
 70
     1
102
RTVSPost2010Prop30
280
     1
102
RTVSPost2010PropOp30
 70
     1
102
RTVSPost2010Prop31
280
     0
102
RTVSPost2010PropOp31
 70
     1
102
RTVSPost2010Prop32
280
     0
102
RTVSPost2010PropOp32
 70
     1
102
RTVSPost2010Prop33
280
     0
102
RTVSPost2010PropOp33
 70
     1
102
RTVSPost2010Prop34
280
     0
102
RTVSPost2010PropOp34
 70
     1
102
RTVSPost2010Prop35
280
     0
102
RTVSPost2010PropOp35
 70
     1
102
RTVSPost2010Prop36
280
     0
102
RTVSPost2010PropOp36
 70
     1
102
RTVSPost2010Prop37
 90
       50
102
RTVSPost2010PropOp37
 70
     1
102
RTVSPost2010Prop38
140
0.0
102
RTVSPost2010PropOp38
 70
     1
102
RTVSPost2010Prop39
140
1.0
102
RTVSPost2010PropOp39
 70
     1
102
RTVSPost2010Prop40
 90
        0
102
RTVSPost2010PropOp40
 70
     1
102
RTVSPost2010Prop41ColorIndex
 90
       18
102
RTVSPost2010Prop41ColorRGB
 90
        0
102
RTVSPost2010PropOp41
 70
     1
102
RTVSPost2010Prop42
 90
       50
102
RTVSPost2010PropOp42
 70
     1
102
RTVSPost2010Prop43
 90
        3
102
RTVSPost2010PropOp43
 70
     1
102
RTVSPost2010Prop44ColorIndex
 90
        5
102
RTVSPost2010Prop44ColorRGB
 90
      255
102
RTVSPost2010PropOp44
 70
     1
102
RTVSPost2010Prop45
280
     0
102
RTVSPost2010PropOp45
 70
     1
102
RTVSPost2010Prop46
 90
       50
102
RTVSPost2010PropOp46
 70
     1
102
RTVSPost2010Prop47
 90
       50
102
RTVSPost2010PropOp47
 70
     1
102
RTVSPost2010Prop48
 90
       50
102
RTVSPost2010PropOp48
 70
     1
102
RTVSPost2010Prop49
280
     0
102
RTVSPost2010PropOp49
 70
     1
102
RTVSPost2010Prop50
 90
       50
102
RTVSPost2010PropOp50
 70
     1
102
RTVSPost2010Prop51ColorIndex
 90
      256
102
RTVSPost2010Prop51ColorRGB
 90
-16777216
102
RTVSPost2010PropOp51
 70
     0
102
RTVSPost2010Prop52
140
1.0
102
RTVSPost2010PropOp52
 70
     0
102
RTVSPost2010Prop53
 90
        2
102
RTVSPost2010PropOp53
 70
     1
102
RTVSPost2010Prop54
  1
strokes_ogs.tif
102
RTVSPost2010PropOp54
 70
     1
102
RTVSPost2010Prop55
280
     0
102
RTVSPost2010PropOp55
 70
     1
102
RTVSPost2010Prop56
140
1.0
102
RTVSPost2010PropOp56
 70
     1
102
RTVSPost2010Prop57
140
1.0
102
RTVSPost2010PropOp57
 70
     1
  0
XRECORD
  5
8F
102
{ACAD_REACTORS
330
8E
102
}
330
8E
100
AcDbXrecord
280
     1
102
RTVSPropertyOp0
 70
     1
102
RTVSPropertyOp1
 70
     1
102
RTVSPropertyOp2
 70
     1
102
RTVSPropertyOp3
 70
     1
102
RTVSPropertyOp4
 70
     1
102
RTVSPropertyOp5
 70
     1
102
RTVSPropertyOp6
 70
     1
102
RTVSPropertyOp7
 70
     1
102
RTVSPropertyOp8
 70
     1
102
RTVSPropertyOp9
 70
     1
102
RTVSPropertyOp10
 70
     1
102
RTVSPropertyOp11
 70
     1
102
RTVSPropertyOp12
 70
     1
102
RTVSPropertyOp13
 70
     1
102
RTVSPropertyOp14
 70
     1
102
RTVSPropertyOp15
 70
     1
102
RTVSPropertyOp16
 70
     1
102
RTVSPropertyOp17
 70
     1
102
RTVSPropertyOp18
 70
     1
102
RTVSPropertyOp19
 70
     1
102
RTVSPropertyOp20
 70
     1
102
RTVSPropertyOp21
 70
     1
102
RTVSPropertyOp22
 70
     1
102
RTVSPropertyOp23
 70
     1
102
RTVSPropertyOp24
 70
     1
102
RTVSPropertyOp25
 70
     1
102
RTVSPropertyOp26
 70
     1
102
RTVSPropertyOp27
 70
     1
102
RTVSPropertyOp28
 70
     1
102
RTVSPropertyOp29
 70
     1
102
RTVSPropertyOp30
 70
     1
102
RTVSPropertyOp31
 70
     1
102
RTVSPropertyOp32
 70
     1
102
RTVSPropertyOp33
 70
     1
102
RTVSPropertyOp34
 70
     1
102
RTVSPropertyOp35
 70
     1
102
RTVSPropertyOp36
 70
     1
102
RTVSPropertyOp37
 70
     1
102
RTVSPropertyOp38
 70
     1
102
RTVSPropertyOp39
 70
     1
102
RTVSPropertyOp40
 70
     1
102
RTVSPropertyOp41
 70
     1
102
RTVSPropertyOp42
 70
     1
102
RTVSPropertyOp43
 70
     1
102
RTVSPropertyOp44
 70
     1
102
RTVSPropertyOp45
 70
     1
102
RTVSPropertyOp46
 70
     1
102
RTVSPropertyOp47
 70
     1
102
RTVSPropertyOp48
 70
     1
102
RTVSPropertyOp49
 70
     1
102
RTVSPropertyOp50
 70
     1
102
RTVSPropertyOp51
 70
     0
102
RTVSPropertyOp52
 70
     0
102
RTVSPropertyOp53
 70
     1
102
RTVSPropertyOp54
 70
     1
102
RTVSPropertyOp55
 70
     1
102
RTVSPropertyOp56
 70
     1
102
RTVSPropertyOp57
 70
     1
102
RTVSPost2010Prop28
280
     0
102
RTVSPost2010PropOp28
 70
     1
102
RTVSPost2010Prop29
280
     1
102
RTVSPost2010PropOp29
 70
     1
102
RTVSPost2010Prop30
280
     1
102
RTVSPost2010PropOp30
 70
     1
102
RTVSPost2010Prop31
280
     0
102
RTVSPost2010PropOp31
 70
     1
102
RTVSPost2010Prop32
280
     0
102
RTVSPost2010PropOp32
 70
     1
102
RTVSPost2010Prop33
280
     0
102
RTVSPost2010PropOp33
 70
     1
102
RTVSPost2010Prop34
280
     0
102
RTVSPost2010PropOp34
 70
     1
102
RTVSPost2010Prop35
280
     0
102
RTVSPost2010PropOp35
 70
     1
102
RTVSPost2010Prop36
280
     0
102
RTVSPost2010PropOp36
 70
     1
102
RTVSPost2010Prop37
 90
       50
102
RTVSPost2010PropOp37
 70
     1
102
RTVSPost2010Prop38
140
0.0
102
RTVSPost2010PropOp38
 70
     1
102
RTVSPost2010Prop39
140
1.0
102
RTVSPost2010PropOp39
 70
     1
102
RTVSPost2010Prop40
 90
        0
102
RTVSPost2010PropOp40
 70
     1
102
RTVSPost2010Prop41ColorIndex
 90
       18
102
RTVSPost2010Prop41ColorRGB
 90
        0
102
RTVSPost2010PropOp41
 70
     1
102
RTVSPost2010Prop42
 90
       50
102
RTVSPost2010PropOp42
 70
     1
102
RTVSPost2010Prop43
 90
        3
102
RTVSPost2010PropOp43
 70
     1
102
RTVSPost2010Prop44ColorIndex
 90
        5
102
RTVSPost2010Prop44ColorRGB
 90
      255
102
RTVSPost2010PropOp44
 70
     1
102
RTVSPost2010Prop45
280
     0
102
RTVSPost2010PropOp45
 70
     1
102
RTVSPost2010Prop46
 90
       50
102
RTVSPost2010PropOp46
 70
     1
102
RTVSPost2010Prop47
 90
       50
102
RTVSPost2010PropOp47
 70
     1
102
RTVSPost2010Prop48
 90
       50
102
RTVSPost2010PropOp48
 70
     1
102
RTVSPost2010Prop49
280
     0
102
RTVSPost2010PropOp49
 70
     1
102
RTVSPost2010Prop50
 90
       50
102
RTVSPost2010PropOp50
 70
     1
102
RTVSPost2010Prop51ColorIndex
 90
      256
102
RTVSPost2010Prop51ColorRGB
 90
-16777216
102
RTVSPost2010PropOp51
 70
     0
102
RTVSPost2010Prop52
140
1.0
102
RTVSPost2010PropOp52
 70
     0
102
RTVSPost2010Prop53
 90
        2
102
RTVSPost2010PropOp53
 70
     1
102
RTVSPost2010Prop54
  1
strokes_ogs.tif
102
RTVSPost2010PropOp54
 70
     1
102
RTVSPost2010Prop55
280
     0
102
RTVSPost2010PropOp55
 70
     1
102
RTVSPost2010Prop56
140
1.0
102
RTVSPost2010PropOp56
 70
     1
102
RTVSPost2010Prop57
140
1.0
102
RTVSPost2010PropOp57
 70
     1
  0
XRECORD
  5
AF
102
{ACAD_REACTORS
330
AE
102
}
330
AE
100
AcDbXrecord
280
     1
102
RTVSPropertyOp0
 70
     1
102
RTVSPropertyOp1
 70
     1
102
RTVSPropertyOp2
 70
     1
102
RTVSPropertyOp3
 70
     1
102
RTVSPropertyOp4
 70
     1
102
RTVSPropertyOp5
 70
     1
102
RTVSPropertyOp6
 70
     1
102
RTVSPropertyOp7
 70
     1
102
RTVSPropertyOp8
 70
     1
102
RTVSPropertyOp9
 70
     1
102
RTVSPropertyOp10
 70
     1
102
RTVSPropertyOp11
 70
     1
102
RTVSPropertyOp12
 70
     1
102
RTVSPropertyOp13
 70
     1
102
RTVSPropertyOp14
 70
     1
102
RTVSPropertyOp15
 70
     1
102
RTVSPropertyOp16
 70
     1
102
RTVSPropertyOp17
 70
     1
102
RTVSPropertyOp18
 70
     1
102
RTVSPropertyOp19
 70
     1
102
RTVSPropertyOp20
 70
     1
102
RTVSPropertyOp21
 70
     1
102
RTVSPropertyOp22
 70
     1
102
RTVSPropertyOp23
 70
     1
102
RTVSPropertyOp24
 70
     1
102
RTVSPropertyOp25
 70
     1
102
RTVSPropertyOp26
 70
     1
102
RTVSPropertyOp27
 70
     1
102
RTVSPropertyOp28
 70
     1
102
RTVSPropertyOp29
 70
     1
102
RTVSPropertyOp30
 70
     1
102
RTVSPropertyOp31
 70
     1
102
RTVSPropertyOp32
 70
     1
102
RTVSPropertyOp33
 70
     1
102
RTVSPropertyOp34
 70
     1
102
RTVSPropertyOp35
 70
     1
102
RTVSPropertyOp36
 70
     1
102
RTVSPropertyOp37
 70
     1
102
RTVSPropertyOp38
 70
     1
102
RTVSPropertyOp39
 70
     1
102
RTVSPropertyOp40
 70
     1
102
RTVSPropertyOp41
 70
     1
102
RTVSPropertyOp42
 70
     1
102
RTVSPropertyOp43
 70
     1
102
RTVSPropertyOp44
 70
     1
102
RTVSPropertyOp45
 70
     1
102
RTVSPropertyOp46
 70
     1
102
RTVSPropertyOp47
 70
     1
102
RTVSPropertyOp48
 70
     1
102
RTVSPropertyOp49
 70
     1
102
RTVSPropertyOp50
 70
     1
102
RTVSPropertyOp51
 70
     0
102
RTVSPropertyOp52
 70
     0
102
RTVSPropertyOp53
 70
     1
102
RTVSPropertyOp54
 70
     1
102
RTVSPropertyOp55
 70
     1
102
RTVSPropertyOp56
 70
     1
102
RTVSPropertyOp57
 70
     1
102
RTVSPost2010Prop28
280
     0
102
RTVSPost2010PropOp28
 70
     1
102
RTVSPost2010Prop29
280
     1
102
RTVSPost2010PropOp29
 70
     1
102
RTVSPost2010Prop30
280
     1
102
RTVSPost2010PropOp30
 70
     1
102
RTVSPost2010Prop31
280
     0
102
RTVSPost2010PropOp31
 70
     1
102
RTVSPost2010Prop32
280
     0
102
RTVSPost2010PropOp32
 70
     1
102
RTVSPost2010Prop33
280
     0
102
RTVSPost2010PropOp33
 70
     1
102
RTVSPost2010Prop34
280
     0
102
RTVSPost2010PropOp34
 70
     1
102
RTVSPost2010Prop35
280
     0
102
RTVSPost2010PropOp35
 70
     1
102
RTVSPost2010Prop36
280
     0
102
RTVSPost2010PropOp36
 70
     1
102
RTVSPost2010Prop37
 90
       50
102
RTVSPost2010PropOp37
 70
     1
102
RTVSPost2010Prop38
140
0.0
102
RTVSPost2010PropOp38
 70
     1
102
RTVSPost2010Prop39
140
1.0
102
RTVSPost2010PropOp39
 70
     1
102
RTVSPost2010Prop40
 90
        0
102
RTVSPost2010PropOp40
 70
     1
102
RTVSPost2010Prop41ColorIndex
 90
       18
102
RTVSPost2010Prop41ColorRGB
 90
        0
102
RTVSPost2010PropOp41
 70
     1
102
RTVSPost2010Prop42
 90
       50
102
RTVSPost2010PropOp42
 70
     1
102
RTVSPost2010Prop43
 90
        3
102
RTVSPost2010PropOp43
 70
     1
102
RTVSPost2010Prop44ColorIndex
 90
        5
102
RTVSPost2010Prop44ColorRGB
 90
      255
102
RTVSPost2010PropOp44
 70
     1
102
RTVSPost2010Prop45
280
     0
102
RTVSPost2010PropOp45
 70
     1
102
RTVSPost2010Prop46
 90
       50
102
RTVSPost2010PropOp46
 70
     1
102
RTVSPost2010Prop47
 90
       50
102
RTVSPost2010PropOp47
 70
     1
102
RTVSPost2010Prop48
 90
       50
102
RTVSPost2010PropOp48
 70
     1
102
RTVSPost2010Prop49
280
     0
102
RTVSPost2010PropOp49
 70
     1
102
RTVSPost2010Prop50
 90
       50
102
RTVSPost2010PropOp50
 70
     1
102
RTVSPost2010Prop51ColorIndex
 90
      256
102
RTVSPost2010Prop51ColorRGB
 90
-16777216
102
RTVSPost2010PropOp51
 70
     0
102
RTVSPost2010Prop52
140
1.0
102
RTVSPost2010PropOp52
 70
     0
102
RTVSPost2010Prop53
 90
        2
102
RTVSPost2010PropOp53
 70
     1
102
RTVSPost2010Prop54
  1
strokes_ogs.tif
102
RTVSPost2010PropOp54
 70
     1
102
RTVSPost2010Prop55
280
     0
102
RTVSPost2010PropOp55
 70
     1
102
RTVSPost2010Prop56
140
1.0
102
RTVSPost2010PropOp56
 70
     1
102
RTVSPost2010Prop57
140
1.0
102
RTVSPost2010PropOp57
 70
     1
  0
ENDSEC
  0
EOF
