  0
SECTION
  2
HEADER
  9
$ACADVER
  1
AC1015
  9
$ACADMAINTVER
 70
     6
  9
$DWGCODEPAGE
  3
ANSI_1252
  9
$INSBASE
 10
291.7470926298483
 20
594.9428849704782
 30
0.0
  9
$EXTMIN
 10
276.744093008856
 20
583.3075852644105
 30
0.0
  9
$EXTMAX
 10
307.6181922289107
 20
606.5497846772633
 30
0.0
  9
$LIMMIN
 10
0.0
 20
0.0
  9
$LIMMAX
 10
12.0
 20
9.0
  9
$ORTHOMODE
 70
     0
  9
$REGENMODE
 70
     1
  9
$FILLMODE
 70
     1
  9
$QTEXTMODE
 70
     0
  9
$MIRRTEXT
 70
     1
  9
$LTSCALE
 40
1.0
  9
$ATTMODE
 70
     1
  9
$TEXTSIZE
 40
0.2
  9
$TRACEWID
 40
0.05
  9
$TEXTSTYLE
  7
Standard
  9
$CLAYER
  8
0
  9
$CELTYPE
  6
ByLayer
  9
$CECOLOR
 62
   256
  9
$CELTSCALE
 40
1.0
  9
$DISPSILH
 70
     0
  9
$DIMSCALE
 40
1.0
  9
$DIMASZ
 40
0.18
  9
$DIMEXO
 40
0.0625
  9
$DIMDLI
 40
0.38
  9
$DIMRND
 40
0.0
  9
$DIMDLE
 40
0.0
  9
$DIMEXE
 40
0.18
  9
$DIMTP
 40
0.0
  9
$DIMTM
 40
0.0
  9
$DIMTXT
 40
0.18
  9
$DIMCEN
 40
0.09
  9
$DIMTSZ
 40
0.0
  9
$DIMTOL
 70
     0
  9
$DIMLIM
 70
     0
  9
$DIMTIH
 70
     1
  9
$DIMTOH
 70
     1
  9
$DIMSE1
 70
     0
  9
$DIMSE2
 70
     0
  9
$DIMTAD
 70
     0
  9
$DIMZIN
 70
     0
  9
$DIMBLK
  1

  9
$DIMASO
 70
     1
  9
$DIMSHO
 70
     1
  9
$DIMPOST
  1

  9
$DIMAPOST
  1

  9
$DIMALT
 70
     0
  9
$DIMALTD
 70
     2
  9
$DIMALTF
 40
25.4
  9
$DIMLFAC
 40
1.0
  9
$DIMTOFL
 70
     0
  9
$DIMTVP
 40
0.0
  9
$DIMTIX
 70
     0
  9
$DIMSOXD
 70
     0
  9
$DIMSAH
 70
     0
  9
$DIMBLK1
  1

  9
$DIMBLK2
  1

  9
$DIMSTYLE
  2
Standard
  9
$DIMCLRD
 70
     0
  9
$DIMCLRE
 70
     0
  9
$DIMCLRT
 70
     0
  9
$DIMTFAC
 40
1.0
  9
$DIMGAP
 40
0.09
  9
$DIMJUST
 70
     0
  9
$DIMSD1
 70
     0
  9
$DIMSD2
 70
     0
  9
$DIMTOLJ
 70
     1
  9
$DIMTZIN
 70
     0
  9
$DIMALTZ
 70
     0
  9
$DIMALTTZ
 70
     0
  9
$DIMUPT
 70
     0
  9
$DIMDEC
 70
     4
  9
$DIMTDEC
 70
     4
  9
$DIMALTU
 70
     2
  9
$DIMALTTD
 70
     2
  9
$DIMTXSTY
  7
Standard
  9
$DIMAUNIT
 70
     0
  9
$DIMADEC
 70
     0
  9
$DIMALTRND
 40
0.0
  9
$DIMAZIN
 70
     0
  9
$DIMDSEP
 70
    46
  9
$DIMATFIT
 70
     3
  9
$DIMFRAC
 70
     0
  9
$DIMLDRBLK
  1

  9
$DIMLUNIT
 70
     2
  9
$DIMLWD
 70
    -2
  9
$DIMLWE
 70
    -2
  9
$DIMTMOVE
 70
     0
  9
$LUNITS
 70
     2
  9
$LUPREC
 70
     4
  9
$SKETCHINC
 40
0.1
  9
$FILLETRAD
 40
0.5
  9
$AUNITS
 70
     0
  9
$AUPREC
 70
     0
  9
$MENU
  1
.
  9
$ELEVATION
 40
0.0
  9
$PELEVATION
 40
0.0
  9
$THICKNESS
 40
0.0
  9
$LIMCHECK
 70
     0
  9
$CHAMFERA
 40
0.5
  9
$CHAMFERB
 40
0.5
  9
$CHAMFERC
 40
1.0
  9
$CHAMFERD
 40
0.0
  9
$SKPOLY
 70
     0
  9
$TDCREATE
 40
2458676.485268229
  9
$TDUCREATE
 40
2458676.651934896
  9
$TDUPDATE
 40
2458708.511916609
  9
$TDUUPDATE
 40
2458708.678583276
  9
$TDINDWG
 40
0.0447239236
  9
$TDUSRTIMER
 40
0.0447239236
  9
$USRTIMER
 70
     1
  9
$ANGBASE
 50
0.0
  9
$ANGDIR
 70
     0
  9
$PDMODE
 70
     0
  9
$PDSIZE
 40
0.0
  9
$PLINEWID
 40
0.0
  9
$SPLFRAME
 70
     0
  9
$SPLINETYPE
 70
     6
  9
$SPLINESEGS
 70
     8
  9
$HANDSEED
  5
FB
  9
$SURFTAB1
 70
     6
  9
$SURFTAB2
 70
     6
  9
$SURFTYPE
 70
     6
  9
$SURFU
 70
     6
  9
$SURFV
 70
     6
  9
$UCSBASE
  2

  9
$UCSNAME
  2

  9
$UCSORG
 10
0.0
 20
0.0
 30
0.0
  9
$UCSXDIR
 10
1.0
 20
0.0
 30
0.0
  9
$UCSYDIR
 10
0.0
 20
1.0
 30
0.0
  9
$UCSORTHOREF
  2

  9
$UCSORTHOVIEW
 70
     0
  9
$UCSORGTOP
 10
0.0
 20
0.0
 30
0.0
  9
$UCSORGBOTTOM
 10
0.0
 20
0.0
 30
0.0
  9
$UCSORGLEFT
 10
0.0
 20
0.0
 30
0.0
  9
$UCSORGRIGHT
 10
0.0
 20
0.0
 30
0.0
  9
$UCSORGFRONT
 10
0.0
 20
0.0
 30
0.0
  9
$UCSORGBACK
 10
0.0
 20
0.0
 30
0.0
  9
$PUCSBASE
  2

  9
$PUCSNAME
  2

  9
$PUCSORG
 10
0.0
 20
0.0
 30
0.0
  9
$PUCSXDIR
 10
1.0
 20
0.0
 30
0.0
  9
$PUCSYDIR
 10
0.0
 20
1.0
 30
0.0
  9
$PUCSORTHOREF
  2

  9
$PUCSORTHOVIEW
 70
     0
  9
$PUCSORGTOP
 10
0.0
 20
0.0
 30
0.0
  9
$PUCSORGBOTTOM
 10
0.0
 20
0.0
 30
0.0
  9
$PUCSORGLEFT
 10
0.0
 20
0.0
 30
0.0
  9
$PUCSORGRIGHT
 10
0.0
 20
0.0
 30
0.0
  9
$PUCSORGFRONT
 10
0.0
 20
0.0
 30
0.0
  9
$PUCSORGBACK
 10
0.0
 20
0.0
 30
0.0
  9
$USERI1
 70
     0
  9
$USERI2
 70
     0
  9
$USERI3
 70
     0
  9
$USERI4
 70
     0
  9
$USERI5
 70
     0
  9
$USERR1
 40
0.0
  9
$USERR2
 40
0.0
  9
$USERR3
 40
0.0
  9
$USERR4
 40
0.0
  9
$USERR5
 40
0.0
  9
$WORLDVIEW
 70
     1
  9
$SHADEDGE
 70
     3
  9
$SHADEDIF
 70
    70
  9
$TILEMODE
 70
     1
  9
$MAXACTVP
 70
    64
  9
$PINSBASE
 10
0.0
 20
0.0
 30
0.0
  9
$PLIMCHECK
 70
     0
  9
$PEXTMIN
 10
1.000000000000000E+20
 20
1.000000000000000E+20
 30
1.000000000000000E+20
  9
$PEXTMAX
 10
-1.000000000000000E+20
 20
-1.000000000000000E+20
 30
-1.000000000000000E+20
  9
$PLIMMIN
 10
-0.25
 20
-0.25
  9
$PLIMMAX
 10
10.75
 20
8.25
  9
$UNITMODE
 70
     0
  9
$VISRETAIN
 70
     1
  9
$PLINEGEN
 70
     0
  9
$PSLTSCALE
 70
     1
  9
$TREEDEPTH
 70
  3020
  9
$CMLSTYLE
  2
Standard
  9
$CMLJUST
 70
     0
  9
$CMLSCALE
 40
1.0
  9
$PROXYGRAPHICS
 70
     1
  9
$MEASUREMENT
 70
     0
  9
$CELWEIGHT
370
    -1
  9
$ENDCAPS
280
     0
  9
$JOINSTYLE
280
     0
  9
$LWDISPLAY
290
     1
  9
$INSUNITS
 70
     1
  9
$HYPERLINKBASE
  1

  9
$STYLESHEET
  1

  9
$XEDIT
290
     1
  9
$CEPSNTYPE
380
     0
  9
$PSTYLEMODE
290
     1
  9
$FINGERPRINTGUID
  2
{3FF96223-F9C2-48F7-A4C5-C732E40B2087}
  9
$VERSIONGUID
  2
{FAEB1C32-E019-11D5-929B-00C0DF256EC4}
  9
$EXTNAMES
290
     1
  9
$PSVPSCALE
 40
0.0
  9
$OLESTARTUP
290
     0
  0
ENDSEC
  0
SECTION
  2
CLASSES
  0
CLASS
  1
ACDBDICTIONARYWDFLT
  2
AcDbDictionaryWithDefault
  3
ObjectDBX Classes
 90
        0
280
     0
281
     0
  0
CLASS
  1
MATERIAL
  2
AcDbMaterial
  3
ObjectDBX Classes
 90
     1153
280
     0
281
     0
  0
CLASS
  1
VISUALSTYLE
  2
AcDbVisualStyle
  3
ObjectDBX Classes
 90
     4095
280
     0
281
     0
  0
CLASS
  1
SUN
  2
AcDbSun
  3
SCENEOE
 90
     1153
280
     0
281
     0
  0
CLASS
  1
SCALE
  2
AcDbScale
  3
ObjectDBX Classes
 90
     1153
280
     0
281
     0
  0
CLASS
  1
DICTIONARYVAR
  2
AcDbDictionaryVar
  3
ObjectDBX Classes
 90
        0
280
     0
281
     0
  0
CLASS
  1
MLEADERSTYLE
  2
AcDbMLeaderStyle
  3
ACDB_MLEADERSTYLE_CLASS
 90
     4095
280
     0
281
     0
  0
CLASS
  1
TABLESTYLE
  2
AcDbTableStyle
  3
ObjectDBX Classes
 90
     4095
280
     0
281
     0
  0
CLASS
  1
ACDBPLACEHOLDER
  2
AcDbPlaceHolder
  3
ObjectDBX Classes
 90
        0
280
     0
281
     0
  0
CLASS
  1
LAYOUT
  2
AcDbLayout
  3
ObjectDBX Classes
 90
        0
280
     0
281
     0
  0
ENDSEC
  0
SECTION
  2
TABLES
  0
TABLE
  2
VPORT
  5
1F
102
{ACAD_XDICTIONARY
360
BF
102
}
330
0
100
AcDbSymbolTable
 70
     1
  0
VPORT
  5
25
330
1F
100
AcDbSymbolTableRecord
100
AcDbViewportTableRecord
  2
*Active
 70
     0
 10
0.0
 20
0.0
 11
1.0
 21
1.0
 12
292.1811426188833
 22
594.9286849708369
 13
0.0
 23
0.0
 14
0.5
 24
0.5
 15
0.5
 25
0.5
 16
0.0
 26
0.0
 36
1.0
 17
0.0
 27
0.0
 37
0.0
 40
23.70704340110993
 41
1.32836392424124
 42
50.0
 43
0.0
 44
0.0
 50
0.0
 51
0.0
 71
    16
 72
   100
 73
     1
 74
     3
 75
     0
 76
     0
 77
     0
 78
     0
281
     0
 65
     1
110
0.0
120
0.0
130
0.0
111
1.0
121
0.0
131
0.0
112
0.0
122
1.0
132
0.0
 79
     0
146
0.0
  0
ENDTAB
  0
TABLE
  2
LTYPE
  5
9
330
0
100
AcDbSymbolTable
 70
     1
  0
LTYPE
  5
A
330
9
100
AcDbSymbolTableRecord
100
AcDbLinetypeTableRecord
  2
ByBlock
 70
     0
  3

 72
    65
 73
     0
 40
0.0
  0
LTYPE
  5
B
330
9
100
AcDbSymbolTableRecord
100
AcDbLinetypeTableRecord
  2
ByLayer
 70
     0
  3

 72
    65
 73
     0
 40
0.0
  0
LTYPE
  5
8
330
9
100
AcDbSymbolTableRecord
100
AcDbLinetypeTableRecord
  2
Continuous
 70
     0
  3
Solid line
 72
    65
 73
     0
 40
0.0
  0
ENDTAB
  0
TABLE
  2
LAYER
  5
2
330
0
100
AcDbSymbolTable
 70
     2
  0
LAYER
  5
1
330
2
100
AcDbSymbolTableRecord
100
AcDbLayerTableRecord
  2
0
 70
     0
 62
     7
  6
Continuous
370
    -3
390
3
  0
LAYER
  5
4E
330
2
100
AcDbSymbolTableRecord
100
AcDbLayerTableRecord
  2
Layer 1
 70
     0
 62
     7
  6
Continuous
370
    -3
390
3
  0
ENDTAB
  0
TABLE
  2
STYLE
  5
D
330
0
100
AcDbSymbolTable
 70
     1
  0
STYLE
  5
C
330
D
100
AcDbSymbolTableRecord
100
AcDbTextStyleTableRecord
  2
Standard
 70
     0
 40
0.0
 41
1.0
 50
0.0
 71
     0
 42
0.2
  3
txt
  4

  0
ENDTAB
  0
TABLE
  2
VIEW
  5
1D
330
0
100
AcDbSymbolTable
 70
     0
  0
ENDTAB
  0
TABLE
  2
UCS
  5
1E
330
0
100
AcDbSymbolTable
 70
     0
  0
ENDTAB
  0
TABLE
  2
APPID
  5
20
330
0
100
AcDbSymbolTable
 70
     2
  0
APPID
  5
24
330
20
100
AcDbSymbolTableRecord
100
AcDbRegAppTableRecord
  2
ACAD
 70
     0
  0
APPID
  5
F8
330
20
100
AcDbSymbolTableRecord
100
AcDbRegAppTableRecord
  2
ACAD_MLEADERVER
 70
     0
  0
ENDTAB
  0
TABLE
  2
DIMSTYLE
  5
10
330
0
100
AcDbSymbolTable
 70
     1
100
AcDbDimStyleTable
  0
DIMSTYLE
105
F
330
10
100
AcDbSymbolTableRecord
100
AcDbDimStyleTableRecord
  2
Standard
 70
     0
178
     0
340
C
  0
ENDTAB
  0
TABLE
  2
BLOCK_RECORD
  5
13
330
0
100
AcDbSymbolTable
 70
     0
  0
BLOCK_RECORD
  5
14
330
13
100
AcDbSymbolTableRecord
100
AcDbBlockTableRecord
  2
*Model_Space
340
17
  0
BLOCK_RECORD
  5
19
330
13
100
AcDbSymbolTableRecord
100
AcDbBlockTableRecord
  2
*Paper_Space
340
1C
  0
ENDTAB
  0
ENDSEC
  0
SECTION
  2
BLOCKS
  0
BLOCK
  5
15
330
14
100
AcDbEntity
  8
0
100
AcDbBlockBegin
  2
*Model_Space
 70
     0
 10
0.0
 20
0.0
 30
0.0
  3
*Model_Space
  1

  0
ENDBLK
  5
16
330
14
100
AcDbEntity
  8
0
100
AcDbBlockEnd
  0
BLOCK
  5
1A
330
19
100
AcDbEntity
 67
     1
  8
0
100
AcDbBlockBegin
  2
*Paper_Space
 70
     0
 10
0.0
 20
0.0
 30
0.0
  3
*Paper_Space
  1

  0
ENDBLK
  5
1B
330
19
100
AcDbEntity
 67
     1
  8
0
100
AcDbBlockEnd
  0
ENDSEC
  0
SECTION
  2
ENTITIES
  0
SPLINE
  5
4D
330
14
100
AcDbEntity
  8
Layer 1
370
     0
100
AcDbSpline
210
0.0
220
0.0
230
1.0
 70
    11
 71
     3
 72
    32
 73
    28
 74
     0
 42
0.000000001
 43
0.0000000001
 40
0.0
 40
0.0
 40
0.0
 40
0.0
 40
1.0
 40
1.0
 40
1.0
 40
2.0
 40
2.0
 40
2.0
 40
3.0
 40
3.0
 40
3.0
 40
4.0
 40
4.0
 40
4.0
 40
5.0
 40
5.0
 40
5.0
 40
6.0
 40
6.0
 40
6.0
 40
7.0
 40
7.0
 40
7.0
 40
8.0
 40
8.0
 40
8.0
 40
9.0
 40
9.0
 40
9.0
 40
9.0
 10
301.2792923890447
 20
585.5746852071388
 30
0.0
 10
301.4071923858137
 20
585.4467852103699
 30
0.0
 10
301.4872923837902
 20
585.2700000000004
 30
0.0
 10
301.4872923837902
 20
585.0746852197699
 30
0.0
 10
301.4872923837902
 20
584.8788852247162
 30
0.0
 10
301.4071923858137
 20
584.7011852292053
 30
0.0
 10
301.2792923890447
 20
584.5731852324388
 30
0.0
 10
301.152292392253
 20
584.4452852356699
 30
0.0
 10
300.9745923967421
 20
584.3666852376555
 30
0.0
 10
300.7792924016758
 20
584.3666852376555
 30
0.0
 10
300.5840000000007
 20
584.3666852376555
 30
0.0
 10
300.4071924110758
 20
584.4452852356699
 30
0.0
 10
300.2792924143068
 20
584.5731852324388
 30
0.0
 10
300.1503924175631
 20
584.7011852292053
 30
0.0
 10
300.0722924195361
 20
584.8788852247162
 30
0.0
 10
300.0722924195361
 20
585.0746852197699
 30
0.0
 10
300.0722924195361
 20
585.2700000000004
 30
0.0
 10
300.1503924175631
 20
585.4467852103699
 30
0.0
 10
300.2792924143068
 20
585.5746852071388
 30
0.0
 10
300.4071924110758
 20
585.7025852039078
 30
0.0
 10
300.5840000000007
 20
585.7821852018969
 30
0.0
 10
300.7792924016758
 20
585.7821852018969
 30
0.0
 10
300.9745923967421
 20
585.7821852018969
 30
0.0
 10
301.152292392253
 20
585.7025852039078
 30
0.0
 10
301.2792923890447
 20
585.5746852071388
 30
0.0
 10
301.2792923890447
 20
585.5746852071388
 30
0.0
 10
301.2792923890447
 20
585.5746852071388
 30
0.0
 10
301.2792923890447
 20
585.5746852071388
 30
0.0
  0
SPLINE
  5
4F
330
14
100
AcDbEntity
  8
Layer 1
370
     0
100
AcDbSpline
210
0.0
220
0.0
230
1.0
 70
    11
 71
     3
 72
    44
 73
    40
 74
     0
 42
0.000000001
 43
0.0000000001
 40
0.0
 40
0.0
 40
0.0
 40
0.0
 40
1.0
 40
1.0
 40
1.0
 40
2.0
 40
2.0
 40
2.0
 40
3.0
 40
3.0
 40
3.0
 40
4.0
 40
4.0
 40
4.0
 40
5.0
 40
5.0
 40
5.0
 40
6.0
 40
6.0
 40
6.0
 40
7.0
 40
7.0
 40
7.0
 40
8.0
 40
8.0
 40
8.0
 40
9.0
 40
9.0
 40
9.0
 40
10.0
 40
10.0
 40
10.0
 40
11.0
 40
11.0
 40
11.0
 40
12.0
 40
12.0
 40
12.0
 40
13.0
 40
13.0
 40
13.0
 40
13.0
 10
303.6386923294413
 20
588.2274851401235
 30
0.0
 10
303.6386923294413
 20
588.2274851401235
 30
0.0
 10
303.6405923293933
 20
588.2245851401967
 30
0.0
 10
303.6405923293933
 20
588.2245851401967
 30
0.0
 10
303.801792325321
 20
588.0640000000003
 30
0.0
 10
303.9022923227822
 20
587.8393851499277
 30
0.0
 10
303.9022923227822
 20
587.5897851562331
 30
0.0
 10
303.9022923227822
 20
587.340285162536
 30
0.0
 10
303.801792325321
 20
587.1151851682225
 30
0.0
 10
303.6405923293933
 20
586.9545851722796
 30
0.0
 10
303.6405923293933
 20
586.9545851722796
 30
0.0
 10
303.6386923294413
 20
586.9525851723301
 30
0.0
 10
303.6386923294413
 20
586.9525851723301
 30
0.0
 10
303.4765923335362
 20
586.7914851763999
 30
0.0
 10
303.2520000000004
 20
586.6908851789412
 30
0.0
 10
303.0028923455029
 20
586.6908851789412
 30
0.0
 10
302.7538923517932
 20
586.6908851789412
 30
0.0
 10
302.5292923574671
 20
586.7914851763999
 30
0.0
 10
302.3681923615368
 20
586.9525851723301
 30
0.0
 10
302.3681923615368
 20
586.9525851723301
 30
0.0
 10
302.3651923616126
 20
586.9545851722796
 30
0.0
 10
302.3651923616126
 20
586.9545851722796
 30
0.0
 10
302.205092365657
 20
587.1151851682225
 30
0.0
 10
302.1054923681731
 20
587.340285162536
 30
0.0
 10
302.1054923681731
 20
587.5897851562331
 30
0.0
 10
302.1054923681731
 20
587.8393851499277
 30
0.0
 10
302.205092365657
 20
588.0640000000003
 30
0.0
 10
302.3651923616126
 20
588.2245851401967
 30
0.0
 10
302.3651923616126
 20
588.2245851401967
 30
0.0
 10
302.3681923615368
 20
588.2274851401235
 30
0.0
 10
302.3681923615368
 20
588.2274851401235
 30
0.0
 10
302.5292923574671
 20
588.3886851360512
 30
0.0
 10
302.7538923517932
 20
588.4877851335477
 30
0.0
 10
303.0028923455029
 20
588.4877851335477
 30
0.0
 10
303.2520000000004
 20
588.4877851335477
 30
0.0
 10
303.4765923335362
 20
588.3886851360512
 30
0.0
 10
303.6386923294413
 20
588.2274851401235
 30
0.0
 10
303.6386923294413
 20
588.2274851401235
 30
0.0
 10
303.6386923294413
 20
588.2274851401235
 30
0.0
 10
303.6386923294413
 20
588.2274851401235
 30
0.0
  0
SPLINE
  5
50
330
14
100
AcDbEntity
  8
Layer 1
370
     0
100
AcDbSpline
210
0.0
220
0.0
230
1.0
 70
    11
 71
     3
 72
    23
 73
    19
 74
     0
 42
0.000000001
 43
0.0000000001
 40
0.0
 40
0.0
 40
0.0
 40
0.0
 40
1.0
 40
1.0
 40
1.0
 40
2.0
 40
2.0
 40
2.0
 40
3.0
 40
3.0
 40
3.0
 40
4.0
 40
4.0
 40
4.0
 40
5.0
 40
5.0
 40
5.0
 40
6.0
 40
6.0
 40
6.0
 40
6.0
 10
303.1317923422466
 20
585.6322852056837
 30
0.0
 10
303.1317923422466
 20
585.6322852056837
 30
0.0
 10
302.125
 20
584.6303852309939
 30
0.0
 10
302.125
 20
584.6303852309939
 30
0.0
 10
302.170892366521
 20
584.7700000000004
 30
0.0
 10
302.1962923658793
 20
584.9188852237057
 30
0.0
 10
302.1962923658793
 20
585.0746852197699
 30
0.0
 10
302.1962923658793
 20
585.433085210716
 30
0.0
 10
302.0614923692847
 20
585.7616852024148
 30
0.0
 10
301.8417923748348
 20
586.0111851961119
 30
0.0
 10
302.1679999999997
 20
585.7709999999997
 30
0.0
 10
302.5702923564313
 20
585.6283852057823
 30
0.0
 10
303.0028923455029
 20
585.6283852057823
 30
0.0
 10
303.0468923443914
 20
585.6283852057823
 30
0.0
 10
303.0897923433076
 20
585.6303852057317
 30
0.0
 10
303.1317923422466
 20
585.6322852056837
 30
0.0
 10
303.1317923422466
 20
585.6322852056837
 30
0.0
 10
303.1317923422466
 20
585.6322852056837
 30
0.0
 10
303.1317923422466
 20
585.6322852056837
 30
0.0
  0
POLYLINE
  5
51
330
14
100
AcDbEntity
  8
Layer 1
370
     0
100
AcDb2dPolyline
 66
     1
 10
0.0
 20
0.0
 30
0.0
  0
VERTEX
  5
52
330
51
100
AcDbEntity
  8
Layer 1
370
     0
100
AcDbVertex
100
AcDb2dVertex
 10
291.7470926298483
 20
594.9428849704782
 30
0.0
  0
VERTEX
  5
53
330
51
100
AcDbEntity
  8
Layer 1
370
     0
100
AcDbVertex
100
AcDb2dVertex
 10
291.7470926298483
 20
593.4428850083714
 30
0.0
  0
VERTEX
  5
54
330
51
100
AcDbEntity
  8
Layer 1
370
     0
100
AcDbVertex
100
AcDb2dVertex
 10
282.558092861982
 20
593.4428850083714
 30
0.0
  0
VERTEX
  5
55
330
51
100
AcDbEntity
  8
Layer 1
370
     0
100
AcDbVertex
100
AcDb2dVertex
 10
282.558092861982
 20
594.9428849704782
 30
0.0
  0
VERTEX
  5
56
330
51
100
AcDbEntity
  8
Layer 1
370
     0
100
AcDbVertex
100
AcDb2dVertex
 10
291.7470926298483
 20
594.9428849704782
 30
0.0
  0
SEQEND
  5
57
330
51
100
AcDbEntity
  8
Layer 1
370
     0
  0
POLYLINE
  5
58
330
14
100
AcDbEntity
  8
Layer 1
370
     0
100
AcDb2dPolyline
 66
     1
 10
0.0
 20
0.0
 30
0.0
  0
VERTEX
  5
59
330
58
100
AcDbEntity
  8
Layer 1
370
     0
100
AcDbVertex
100
AcDb2dVertex
 10
295.0277925469709
 20
603.8612847451805
 30
0.0
  0
VERTEX
  5
5A
330
58
100
AcDbEntity
  8
Layer 1
370
     0
100
AcDbVertex
100
AcDb2dVertex
 10
295.0277925469709
 20
598.0058848931003
 30
0.0
  0
VERTEX
  5
5B
330
58
100
AcDbEntity
  8
Layer 1
370
     0
100
AcDbVertex
100
AcDb2dVertex
 10
292.9594925992205
 20
598.0058848931003
 30
0.0
  0
VERTEX
  5
5C
330
58
100
AcDbEntity
  8
Layer 1
370
     0
100
AcDbVertex
100
AcDb2dVertex
 10
292.4276926126549
 20
603.8612847451805
 30
0.0
  0
VERTEX
  5
5D
330
58
100
AcDbEntity
  8
Layer 1
370
     0
100
AcDbVertex
100
AcDb2dVertex
 10
295.0277925469709
 20
603.8612847451805
 30
0.0
  0
VERTEX
  5
5E
330
58
100
AcDbEntity
  8
Layer 1
370
     0
100
AcDbVertex
100
AcDb2dVertex
 10
295.0277925469709
 20
603.8612847451805
 30
0.0
  0
SEQEND
  5
5F
330
58
100
AcDbEntity
  8
Layer 1
370
     0
  0
POLYLINE
  5
60
330
14
100
AcDbEntity
  8
Layer 1
370
     0
100
AcDb2dPolyline
 66
     1
 10
0.0
 20
0.0
 30
0.0
  0
VERTEX
  5
61
330
60
100
AcDbEntity
  8
Layer 1
370
     0
100
AcDbVertex
100
AcDb2dVertex
 10
287.4721927378414
 20
597.0141849181528
 30
0.0
  0
VERTEX
  5
62
330
60
100
AcDbEntity
  8
Layer 1
370
     0
100
AcDbVertex
100
AcDb2dVertex
 10
289.5341926857509
 20
597.0141849181528
 30
0.0
  0
VERTEX
  5
63
330
60
100
AcDbEntity
  8
Layer 1
370
     0
100
AcDbVertex
100
AcDb2dVertex
 10
289.5341926857509
 20
596.7484849248649
 30
0.0
  0
VERTEX
  5
64
330
60
100
AcDbEntity
  8
Layer 1
370
     0
100
AcDbVertex
100
AcDb2dVertex
 10
287.4721927378414
 20
596.7484849248649
 30
0.0
  0
VERTEX
  5
65
330
60
100
AcDbEntity
  8
Layer 1
370
     0
100
AcDbVertex
100
AcDb2dVertex
 10
287.4721927378414
 20
597.0141849181528
 30
0.0
  0
VERTEX
  5
66
330
60
100
AcDbEntity
  8
Layer 1
370
     0
100
AcDbVertex
100
AcDb2dVertex
 10
287.4721927378414
 20
597.0141849181528
 30
0.0
  0
SEQEND
  5
67
330
60
100
AcDbEntity
  8
Layer 1
370
     0
  0
POLYLINE
  5
68
330
14
100
AcDbEntity
  8
Layer 1
370
     0
100
AcDb2dPolyline
 66
     1
 10
0.0
 20
0.0
 30
0.0
  0
VERTEX
  5
69
330
68
100
AcDbEntity
  8
Layer 1
370
     0
100
AcDbVertex
100
AcDb2dVertex
 10
287.4721927378414
 20
596.4750849317716
 30
0.0
  0
VERTEX
  5
6A
330
68
100
AcDbEntity
  8
Layer 1
370
     0
100
AcDbVertex
100
AcDb2dVertex
 10
289.5341926857509
 20
596.4750849317716
 30
0.0
  0
VERTEX
  5
6B
330
68
100
AcDbEntity
  8
Layer 1
370
     0
100
AcDbVertex
100
AcDb2dVertex
 10
289.5341926857509
 20
596.2094849384812
 30
0.0
  0
VERTEX
  5
6C
330
68
100
AcDbEntity
  8
Layer 1
370
     0
100
AcDbVertex
100
AcDb2dVertex
 10
287.4721927378414
 20
596.2094849384812
 30
0.0
  0
VERTEX
  5
6D
330
68
100
AcDbEntity
  8
Layer 1
370
     0
100
AcDbVertex
100
AcDb2dVertex
 10
287.4721927378414
 20
596.4750849317716
 30
0.0
  0
VERTEX
  5
6E
330
68
100
AcDbEntity
  8
Layer 1
370
     0
100
AcDbVertex
100
AcDb2dVertex
 10
287.4721927378414
 20
596.4750849317716
 30
0.0
  0
SEQEND
  5
6F
330
68
100
AcDbEntity
  8
Layer 1
370
     0
  0
POLYLINE
  5
70
330
14
100
AcDbEntity
  8
Layer 1
370
     0
100
AcDb2dPolyline
 66
     1
 10
0.0
 20
0.0
 30
0.0
  0
VERTEX
  5
71
330
70
100
AcDbEntity
  8
Layer 1
370
     0
100
AcDbVertex
100
AcDb2dVertex
 10
287.4721927378414
 20
595.9433849452034
 30
0.0
  0
VERTEX
  5
72
330
70
100
AcDbEntity
  8
Layer 1
370
     0
100
AcDbVertex
100
AcDb2dVertex
 10
289.5341926857509
 20
595.9433849452034
 30
0.0
  0
VERTEX
  5
73
330
70
100
AcDbEntity
  8
Layer 1
370
     0
100
AcDbVertex
100
AcDb2dVertex
 10
289.5341926857509
 20
595.6771849519282
 30
0.0
  0
VERTEX
  5
74
330
70
100
AcDbEntity
  8
Layer 1
370
     0
100
AcDbVertex
100
AcDb2dVertex
 10
287.4721927378414
 20
595.6771849519282
 30
0.0
  0
VERTEX
  5
75
330
70
100
AcDbEntity
  8
Layer 1
370
     0
100
AcDbVertex
100
AcDb2dVertex
 10
287.4721927378414
 20
595.9433849452034
 30
0.0
  0
VERTEX
  5
76
330
70
100
AcDbEntity
  8
Layer 1
370
     0
100
AcDbVertex
100
AcDb2dVertex
 10
287.4721927378414
 20
595.9433849452034
 30
0.0
  0
SEQEND
  5
77
330
70
100
AcDbEntity
  8
Layer 1
370
     0
  0
POLYLINE
  5
78
330
14
100
AcDbEntity
  8
Layer 1
370
     0
100
AcDb2dPolyline
 66
     1
 10
0.0
 20
0.0
 30
0.0
  0
VERTEX
  5
79
330
78
100
AcDbEntity
  8
Layer 1
370
     0
100
AcDbVertex
100
AcDb2dVertex
 10
287.4721927378414
 20
595.4354849580341
 30
0.0
  0
VERTEX
  5
7A
330
78
100
AcDbEntity
  8
Layer 1
370
     0
100
AcDbVertex
100
AcDb2dVertex
 10
289.5341926857509
 20
595.4354849580341
 30
0.0
  0
VERTEX
  5
7B
330
78
100
AcDbEntity
  8
Layer 1
370
     0
100
AcDbVertex
100
AcDb2dVertex
 10
289.5341926857509
 20
595.1698849647437
 30
0.0
  0
VERTEX
  5
7C
330
78
100
AcDbEntity
  8
Layer 1
370
     0
100
AcDbVertex
100
AcDb2dVertex
 10
287.4721927378414
 20
595.1698849647437
 30
0.0
  0
VERTEX
  5
7D
330
78
100
AcDbEntity
  8
Layer 1
370
     0
100
AcDbVertex
100
AcDb2dVertex
 10
287.4721927378414
 20
595.4354849580341
 30
0.0
  0
VERTEX
  5
7E
330
78
100
AcDbEntity
  8
Layer 1
370
     0
100
AcDbVertex
100
AcDb2dVertex
 10
287.4721927378414
 20
595.4354849580341
 30
0.0
  0
SEQEND
  5
7F
330
78
100
AcDbEntity
  8
Layer 1
370
     0
  0
POLYLINE
  5
80
330
14
100
AcDbEntity
  8
Layer 1
370
     0
100
AcDb2dPolyline
 66
     1
 10
0.0
 20
0.0
 30
0.0
  0
VERTEX
  5
81
330
80
100
AcDbEntity
  8
Layer 1
370
     0
100
AcDbVertex
100
AcDb2dVertex
 10
287.4721927378414
 20
597.5453849047335
 30
0.0
  0
VERTEX
  5
82
330
80
100
AcDbEntity
  8
Layer 1
370
     0
100
AcDbVertex
100
AcDb2dVertex
 10
289.5341926857509
 20
597.5453849047335
 30
0.0
  0
VERTEX
  5
83
330
80
100
AcDbEntity
  8
Layer 1
370
     0
100
AcDbVertex
100
AcDb2dVertex
 10
289.5341926857509
 20
597.2792849114558
 30
0.0
  0
VERTEX
  5
84
330
80
100
AcDbEntity
  8
Layer 1
370
     0
100
AcDbVertex
100
AcDb2dVertex
 10
287.4721927378414
 20
597.2792849114558
 30
0.0
  0
VERTEX
  5
85
330
80
100
AcDbEntity
  8
Layer 1
370
     0
100
AcDbVertex
100
AcDb2dVertex
 10
287.4721927378414
 20
597.5453849047335
 30
0.0
  0
VERTEX
  5
86
330
80
100
AcDbEntity
  8
Layer 1
370
     0
100
AcDbVertex
100
AcDb2dVertex
 10
287.4721927378414
 20
597.5453849047335
 30
0.0
  0
SEQEND
  5
87
330
80
100
AcDbEntity
  8
Layer 1
370
     0
  0
SPLINE
  5
88
330
14
100
AcDbEntity
  8
Layer 1
370
     0
100
AcDbSpline
210
0.0
220
0.0
230
1.0
 70
    11
 71
     3
 72
    44
 73
    40
 74
     0
 42
0.000000001
 43
0.0000000001
 40
0.0
 40
0.0
 40
0.0
 40
0.0
 40
1.0
 40
1.0
 40
1.0
 40
2.0
 40
2.0
 40
2.0
 40
3.0
 40
3.0
 40
3.0
 40
4.0
 40
4.0
 40
4.0
 40
5.0
 40
5.0
 40
5.0
 40
6.0
 40
6.0
 40
6.0
 40
7.0
 40
7.0
 40
7.0
 40
8.0
 40
8.0
 40
8.0
 40
9.0
 40
9.0
 40
9.0
 40
10.0
 40
10.0
 40
10.0
 40
11.0
 40
11.0
 40
11.0
 40
12.0
 40
12.0
 40
12.0
 40
13.0
 40
13.0
 40
13.0
 40
13.0
 10
284.2597928189934
 20
588.2274851401235
 30
0.0
 10
284.2597928189934
 20
588.2274851401235
 30
0.0
 10
284.2616928189454
 20
588.2245851401967
 30
0.0
 10
284.2616928189454
 20
588.2245851401967
 30
0.0
 10
284.4228928148732
 20
588.0640000000003
 30
0.0
 10
284.522892812347
 20
587.8393851499277
 30
0.0
 10
284.522892812347
 20
587.5897851562331
 30
0.0
 10
284.522892812347
 20
587.340285162536
 30
0.0
 10
284.4228928148732
 20
587.1151851682225
 30
0.0
 10
284.2616928189454
 20
586.9545851722796
 30
0.0
 10
284.2616928189454
 20
586.9545851722796
 30
0.0
 10
284.2597928189934
 20
586.9525851723301
 30
0.0
 10
284.2597928189934
 20
586.9525851723301
 30
0.0
 10
284.0985928230657
 20
586.7914851763999
 30
0.0
 10
283.8744928287269
 20
586.6908851789412
 30
0.0
 10
283.625
 20
586.6908851789412
 30
0.0
 10
283.374492841358
 20
586.6908851789412
 30
0.0
 10
283.1503928470192
 20
586.7914851763999
 30
0.0
 10
282.9896928510789
 20
586.9525851723301
 30
0.0
 10
282.9896928510789
 20
586.9525851723301
 30
0.0
 10
282.9877928511269
 20
586.9545851722796
 30
0.0
 10
282.9877928511269
 20
586.9545851722796
 30
0.0
 10
282.8266928551966
 20
587.1151851682225
 30
0.0
 10
282.7265928577253
 20
587.340285162536
 30
0.0
 10
282.7265928577253
 20
587.5897851562331
 30
0.0
 10
282.7265928577253
 20
587.8393851499277
 30
0.0
 10
282.8266928551966
 20
588.0640000000003
 30
0.0
 10
282.9877928511269
 20
588.2245851401967
 30
0.0
 10
282.9877928511269
 20
588.2245851401967
 30
0.0
 10
282.9896928510789
 20
588.2274851401235
 30
0.0
 10
282.9896928510789
 20
588.2274851401235
 30
0.0
 10
283.1503928470192
 20
588.3886851360512
 30
0.0
 10
283.374492841358
 20
588.4877851335477
 30
0.0
 10
283.625
 20
588.4877851335477
 30
0.0
 10
283.8744928287269
 20
588.4877851335477
 30
0.0
 10
284.0985928230657
 20
588.3886851360512
 30
0.0
 10
284.2597928189934
 20
588.2274851401235
 30
0.0
 10
284.2597928189934
 20
588.2274851401235
 30
0.0
 10
284.2597928189934
 20
588.2274851401235
 30
0.0
 10
284.2597928189934
 20
588.2274851401235
 30
0.0
  0
SPLINE
  5
89
330
14
100
AcDbEntity
  8
Layer 1
370
     0
100
AcDbSpline
210
0.0
220
0.0
230
1.0
 70
    11
 71
     3
 72
    32
 73
    28
 74
     0
 42
0.000000001
 43
0.0000000001
 40
0.0
 40
0.0
 40
0.0
 40
0.0
 40
1.0
 40
1.0
 40
1.0
 40
2.0
 40
2.0
 40
2.0
 40
3.0
 40
3.0
 40
3.0
 40
4.0
 40
4.0
 40
4.0
 40
5.0
 40
5.0
 40
5.0
 40
6.0
 40
6.0
 40
6.0
 40
7.0
 40
7.0
 40
7.0
 40
8.0
 40
8.0
 40
8.0
 40
9.0
 40
9.0
 40
9.0
 40
9.0
 10
289.5614926850612
 20
585.5746852071388
 30
0.0
 10
289.6894926818277
 20
585.4467852103699
 30
0.0
 10
289.7690000000002
 20
585.2700000000004
 30
0.0
 10
289.7690000000002
 20
585.0746852197699
 30
0.0
 10
289.7690000000002
 20
584.8788852247162
 30
0.0
 10
289.6894926818277
 20
584.7011852292053
 30
0.0
 10
289.5614926850612
 20
584.5731852324388
 30
0.0
 10
289.4335926882923
 20
584.4452852356699
 30
0.0
 10
289.255392692794
 20
584.3666852376555
 30
0.0
 10
289.0600926977277
 20
584.3666852376555
 30
0.0
 10
288.8656927026386
 20
584.3666852376555
 30
0.0
 10
288.6880000000001
 20
584.4452852356699
 30
0.0
 10
288.5595927103714
 20
584.5731852324388
 30
0.0
 10
288.4320927135923
 20
584.7011852292053
 30
0.0
 10
288.3520927156133
 20
584.8788852247162
 30
0.0
 10
288.3520927156133
 20
585.0746852197699
 30
0.0
 10
288.3520927156133
 20
585.2700000000004
 30
0.0
 10
288.4320927135923
 20
585.4467852103699
 30
0.0
 10
288.5595927103714
 20
585.5746852071388
 30
0.0
 10
288.6880000000001
 20
585.7025852039078
 30
0.0
 10
288.8656927026386
 20
585.7821852018969
 30
0.0
 10
289.0600926977277
 20
585.7821852018969
 30
0.0
 10
289.255392692794
 20
585.7821852018969
 30
0.0
 10
289.4335926882923
 20
585.7025852039078
 30
0.0
 10
289.5614926850612
 20
585.5746852071388
 30
0.0
 10
289.5614926850612
 20
585.5746852071388
 30
0.0
 10
289.5614926850612
 20
585.5746852071388
 30
0.0
 10
289.5614926850612
 20
585.5746852071388
 30
0.0
  0
SPLINE
  5
8A
330
14
100
AcDbEntity
  8
Layer 1
370
     0
100
AcDbSpline
210
0.0
220
0.0
230
1.0
 70
    11
 71
     3
 72
    32
 73
    28
 74
     0
 42
0.000000001
 43
0.0000000001
 40
0.0
 40
0.0
 40
0.0
 40
0.0
 40
1.0
 40
1.0
 40
1.0
 40
2.0
 40
2.0
 40
2.0
 40
3.0
 40
3.0
 40
3.0
 40
4.0
 40
4.0
 40
4.0
 40
5.0
 40
5.0
 40
5.0
 40
6.0
 40
6.0
 40
6.0
 40
7.0
 40
7.0
 40
7.0
 40
8.0
 40
8.0
 40
8.0
 40
9.0
 40
9.0
 40
9.0
 40
9.0
 10
292.532192610015
 20
585.5746852071388
 30
0.0
 10
292.6605926067714
 20
585.4467852103699
 30
0.0
 10
292.7392926047833
 20
585.2700000000004
 30
0.0
 10
292.7392926047833
 20
585.0746852197699
 30
0.0
 10
292.7392926047833
 20
584.8788852247162
 30
0.0
 10
292.6605926067714
 20
584.7011852292053
 30
0.0
 10
292.532192610015
 20
584.5731852324388
 30
0.0
 10
292.4047926132334
 20
584.4452852356699
 30
0.0
 10
292.2270926177225
 20
584.3666852376555
 30
0.0
 10
292.0312926226688
 20
584.3666852376555
 30
0.0
 10
291.8358926276051
 20
584.3666852376555
 30
0.0
 10
291.6586926320815
 20
584.4452852356699
 30
0.0
 10
291.5312926352999
 20
584.5731852324388
 30
0.0
 10
291.4027926385461
 20
584.7011852292053
 30
0.0
 10
291.323192640557
 20
584.8788852247162
 30
0.0
 10
291.323192640557
 20
585.0746852197699
 30
0.0
 10
291.323192640557
 20
585.2700000000004
 30
0.0
 10
291.4027926385461
 20
585.4467852103699
 30
0.0
 10
291.5312926352999
 20
585.5746852071388
 30
0.0
 10
291.6586926320815
 20
585.7025852039078
 30
0.0
 10
291.8358926276051
 20
585.7821852018969
 30
0.0
 10
292.0312926226688
 20
585.7821852018969
 30
0.0
 10
292.2270926177225
 20
585.7821852018969
 30
0.0
 10
292.4047926132334
 20
585.7025852039078
 30
0.0
 10
292.532192610015
 20
585.5746852071388
 30
0.0
 10
292.532192610015
 20
585.5746852071388
 30
0.0
 10
292.532192610015
 20
585.5746852071388
 30
0.0
 10
292.532192610015
 20
585.5746852071388
 30
0.0
  0
SPLINE
  5
8B
330
14
100
AcDbEntity
  8
Layer 1
370
     0
100
AcDbSpline
210
0.0
220
0.0
230
1.0
 70
    11
 71
     3
 72
    32
 73
    28
 74
     0
 42
0.000000001
 43
0.0000000001
 40
0.0
 40
0.0
 40
0.0
 40
0.0
 40
1.0
 40
1.0
 40
1.0
 40
2.0
 40
2.0
 40
2.0
 40
3.0
 40
3.0
 40
3.0
 40
4.0
 40
4.0
 40
4.0
 40
5.0
 40
5.0
 40
5.0
 40
6.0
 40
6.0
 40
6.0
 40
7.0
 40
7.0
 40
7.0
 40
8.0
 40
8.0
 40
8.0
 40
9.0
 40
9.0
 40
9.0
 40
9.0
 10
295.5131925347087
 20
585.5746852071388
 30
0.0
 10
295.6410925314776
 20
585.4467852103699
 30
0.0
 10
295.7206925294668
 20
585.2700000000004
 30
0.0
 10
295.7206925294668
 20
585.0746852197699
 30
0.0
 10
295.7206925294668
 20
584.8788852247162
 30
0.0
 10
295.6410925314776
 20
584.7011852292053
 30
0.0
 10
295.5131925347087
 20
584.5731852324388
 30
0.0
 10
295.3852925379397
 20
584.4452852356699
 30
0.0
 10
295.208492542406
 20
584.3666852376555
 30
0.0
 10
295.0126925473523
 20
584.3666852376555
 30
0.0
 10
294.817392552286
 20
584.3666852376555
 30
0.0
 10
294.640092556765
 20
584.4452852356699
 30
0.0
 10
294.512192559996
 20
584.5731852324388
 30
0.0
 10
294.3837925632397
 20
584.7011852292053
 30
0.0
 10
294.3046925652379
 20
584.8788852247162
 30
0.0
 10
294.3046925652379
 20
585.0746852197699
 30
0.0
 10
294.3046925652379
 20
585.2700000000004
 30
0.0
 10
294.3837925632397
 20
585.4467852103699
 30
0.0
 10
294.512192559996
 20
585.5746852071388
 30
0.0
 10
294.640092556765
 20
585.7025852039078
 30
0.0
 10
294.817392552286
 20
585.7821852018969
 30
0.0
 10
295.0126925473523
 20
585.7821852018969
 30
0.0
 10
295.208492542406
 20
585.7821852018969
 30
0.0
 10
295.3852925379397
 20
585.7025852039078
 30
0.0
 10
295.5131925347087
 20
585.5746852071388
 30
0.0
 10
295.5131925347087
 20
585.5746852071388
 30
0.0
 10
295.5131925347087
 20
585.5746852071388
 30
0.0
 10
295.5131925347087
 20
585.5746852071388
 30
0.0
  0
SPLINE
  5
8C
330
14
100
AcDbEntity
  8
Layer 1
370
     0
100
AcDbSpline
210
0.0
220
0.0
230
1.0
 70
    11
 71
     3
 72
    32
 73
    28
 74
     0
 42
0.000000001
 43
0.0000000001
 40
0.0
 40
0.0
 40
0.0
 40
0.0
 40
1.0
 40
1.0
 40
1.0
 40
2.0
 40
2.0
 40
2.0
 40
3.0
 40
3.0
 40
3.0
 40
4.0
 40
4.0
 40
4.0
 40
5.0
 40
5.0
 40
5.0
 40
6.0
 40
6.0
 40
6.0
 40
7.0
 40
7.0
 40
7.0
 40
8.0
 40
8.0
 40
8.0
 40
9.0
 40
9.0
 40
9.0
 40
9.0
 10
286.5463927612291
 20
585.5746852071388
 30
0.0
 10
286.674292757998
 20
585.4467852103699
 30
0.0
 10
286.7538927559872
 20
585.2700000000004
 30
0.0
 10
286.7538927559872
 20
585.0746852197699
 30
0.0
 10
286.7538927559872
 20
584.8788852247162
 30
0.0
 10
286.674292757998
 20
584.7011852292053
 30
0.0
 10
286.5463927612291
 20
584.5731852324388
 30
0.0
 10
286.4184927644601
 20
584.4452852356699
 30
0.0
 10
286.2416927689264
 20
584.3666852376555
 30
0.0
 10
286.0463927738601
 20
584.3666852376555
 30
0.0
 10
285.8505927788065
 20
584.3666852376555
 30
0.0
 10
285.6737927832728
 20
584.4452852356699
 30
0.0
 10
285.5458927865038
 20
584.5731852324388
 30
0.0
 10
285.4170000000004
 20
584.7011852292053
 30
0.0
 10
285.3383927917457
 20
584.8788852247162
 30
0.0
 10
285.3383927917457
 20
585.0746852197699
 30
0.0
 10
285.3383927917457
 20
585.2700000000004
 30
0.0
 10
285.4170000000004
 20
585.4467852103699
 30
0.0
 10
285.5458927865038
 20
585.5746852071388
 30
0.0
 10
285.6737927832728
 20
585.7025852039078
 30
0.0
 10
285.8505927788065
 20
585.7821852018969
 30
0.0
 10
286.0463927738601
 20
585.7821852018969
 30
0.0
 10
286.2416927689264
 20
585.7821852018969
 30
0.0
 10
286.4184927644601
 20
585.7025852039078
 30
0.0
 10
286.5463927612291
 20
585.5746852071388
 30
0.0
 10
286.5463927612291
 20
585.5746852071388
 30
0.0
 10
286.5463927612291
 20
585.5746852071388
 30
0.0
 10
286.5463927612291
 20
585.5746852071388
 30
0.0
  0
SPLINE
  5
8D
330
14
100
AcDbEntity
  8
Layer 1
370
     0
100
AcDbSpline
210
0.0
220
0.0
230
1.0
 70
    11
 71
     3
 72
    32
 73
    28
 74
     0
 42
0.000000001
 43
0.0000000001
 40
0.0
 40
0.0
 40
0.0
 40
0.0
 40
1.0
 40
1.0
 40
1.0
 40
2.0
 40
2.0
 40
2.0
 40
3.0
 40
3.0
 40
3.0
 40
4.0
 40
4.0
 40
4.0
 40
5.0
 40
5.0
 40
5.0
 40
6.0
 40
6.0
 40
6.0
 40
7.0
 40
7.0
 40
7.0
 40
8.0
 40
8.0
 40
8.0
 40
9.0
 40
9.0
 40
9.0
 40
9.0
 10
288.6332927085095
 20
588.6527851293795
 30
0.0
 10
288.6942927069686
 20
588.5912851309331
 30
0.0
 10
288.7318927060187
 20
588.5072851330551
 30
0.0
 10
288.7318927060187
 20
588.4135851354222
 30
0.0
 10
288.7318927060187
 20
588.3207851377665
 30
0.0
 10
288.6942927069686
 20
588.2362851399012
 30
0.0
 10
288.6332927085095
 20
588.1752851414421
 30
0.0
 10
288.5727927100379
 20
588.1142851429831
 30
0.0
 10
288.4872927121978
 20
588.0761851439456
 30
0.0
 10
288.3944927145421
 20
588.0761851439456
 30
0.0
 10
288.3012927168966
 20
588.0761851439456
 30
0.0
 10
288.2167927190312
 20
588.1142851429831
 30
0.0
 10
288.1557927205722
 20
588.1752851414421
 30
0.0
 10
288.0956927220905
 20
588.2362851399012
 30
0.0
 10
288.0575927230529
 20
588.3207851377665
 30
0.0
 10
288.0575927230529
 20
588.4135851354222
 30
0.0
 10
288.0575927230529
 20
588.5072851330551
 30
0.0
 10
288.0956927220905
 20
588.5912851309331
 30
0.0
 10
288.1557927205722
 20
588.6527851293795
 30
0.0
 10
288.2167927190312
 20
588.713885127836
 30
0.0
 10
288.3012927168966
 20
588.7504851269114
 30
0.0
 10
288.3944927145421
 20
588.7504851269114
 30
0.0
 10
288.4872927121978
 20
588.7504851269114
 30
0.0
 10
288.5727927100379
 20
588.713885127836
 30
0.0
 10
288.6332927085095
 20
588.6527851293795
 30
0.0
 10
288.6332927085095
 20
588.6527851293795
 30
0.0
 10
288.6332927085095
 20
588.6527851293795
 30
0.0
 10
288.6332927085095
 20
588.6527851293795
 30
0.0
  0
HATCH
  5
8E
330
14
100
AcDbEntity
  8
Layer 1
 62
     7
100
AcDbHatch
 10
0.0
 20
0.0
 30
0.0
210
0.0
220
0.0
230
1.0
  2
SOLID
 70
     1
 71
     0
 91
       22
 92
        1
 93
        1
 72
     4
 94
        3
 73
     0
 74
     1
 95
      140
 96
      136
 40
0.0
 40
0.0
 40
0.0
 40
0.0
 40
1.0
 40
1.0
 40
1.0
 40
2.0
 40
2.0
 40
2.0
 40
3.0
 40
3.0
 40
3.0
 40
4.0
 40
4.0
 40
4.0
 40
5.0
 40
5.0
 40
5.0
 40
6.0
 40
6.0
 40
6.0
 40
7.0
 40
7.0
 40
7.0
 40
8.0
 40
8.0
 40
8.0
 40
9.0
 40
9.0
 40
9.0
 40
10.0
 40
10.0
 40
10.0
 40
11.0
 40
11.0
 40
11.0
 40
12.0
 40
12.0
 40
12.0
 40
13.0
 40
13.0
 40
13.0
 40
14.0
 40
14.0
 40
14.0
 40
15.0
 40
15.0
 40
15.0
 40
16.0
 40
16.0
 40
16.0
 40
17.0
 40
17.0
 40
17.0
 40
18.0
 40
18.0
 40
18.0
 40
19.0
 40
19.0
 40
19.0
 40
20.0
 40
20.0
 40
20.0
 40
21.0
 40
21.0
 40
21.0
 40
22.0
 40
22.0
 40
22.0
 40
23.0
 40
23.0
 40
23.0
 40
24.0
 40
24.0
 40
24.0
 40
25.0
 40
25.0
 40
25.0
 40
26.0
 40
26.0
 40
26.0
 40
27.0
 40
27.0
 40
27.0
 40
28.0
 40
28.0
 40
28.0
 40
29.0
 40
29.0
 40
29.0
 40
30.0
 40
30.0
 40
30.0
 40
31.0
 40
31.0
 40
31.0
 40
32.0
 40
32.0
 40
32.0
 40
33.0
 40
33.0
 40
33.0
 40
34.0
 40
34.0
 40
34.0
 40
35.0
 40
35.0
 40
35.0
 40
36.0
 40
36.0
 40
36.0
 40
37.0
 40
37.0
 40
37.0
 40
38.0
 40
38.0
 40
38.0
 40
39.0
 40
39.0
 40
39.0
 40
40.0
 40
40.0
 40
40.0
 40
41.0
 40
41.0
 40
41.0
 40
42.0
 40
42.0
 40
42.0
 40
43.0
 40
43.0
 40
43.0
 40
44.0
 40
44.0
 40
44.0
 40
45.0
 40
45.0
 40
45.0
 40
45.0
 10
307.6181922289106
 20
591.6239999999998
 10
307.6181922289106
 20
591.6239999999998
 10
303.7520000000004
 20
591.6239999999998
 10
303.7520000000004
 20
591.6239999999998
 10
303.7520000000004
 20
591.6239999999998
 10
303.7520000000004
 20
597.1928849136384
 10
303.7520000000004
 20
597.1928849136384
 10
303.7520000000004
 20
597.1928849136384
 10
302.7694923513991
 20
597.1928849136384
 10
302.7694923513991
 20
597.1928849136384
 10
302.7694923513991
 20
597.1928849136384
 10
302.7694923513991
 20
604.2152847362377
 10
302.7694923513991
 20
604.2152847362377
 10
302.7694923513991
 20
604.2152847362377
 10
303.2636923389146
 20
604.2152847362377
 10
303.2636923389146
 20
604.2152847362377
 10
303.2636923389146
 20
604.2152847362377
 10
303.2636923389146
 20
606.5497846772632
 10
303.2636923389146
 20
606.5497846772632
 10
303.2636923389146
 20
606.5497846772632
 10
294.1444925692849
 20
606.5497846772632
 10
294.1444925692849
 20
606.5497846772632
 10
294.1444925692849
 20
606.5497846772632
 10
290.2460926677668
 20
605.4262847056452
 10
290.2460926677668
 20
605.4262847056452
 10
290.2460926677668
 20
605.4262847056452
 10
290.2460926677668
 20
604.2152847362377
 10
290.2460926677668
 20
604.2152847362377
 10
290.2460926677668
 20
604.2152847362377
 10
290.9780000000001
 20
604.2152847362377
 10
290.9780000000001
 20
604.2152847362377
 10
290.9780000000001
 20
604.2152847362377
 10
291.5410000000002
 20
598.0058848931003
 10
291.5410000000002
 20
598.0058848931003
 10
291.5410000000002
 20
598.0058848931003
 10
285.1205927972478
 20
598.0058848931003
 10
285.1205927972478
 20
598.0058848931003
 10
285.1205927972478
 20
598.0058848931003
 10
285.1205927972478
 20
600.1317848393956
 10
285.1205927972478
 20
600.1317848393956
 10
285.1205927972478
 20
600.1317848393956
 10
284.6044928102856
 20
600.1317848393956
 10
284.6044928102856
 20
600.1317848393956
 10
284.6044928102856
 20
600.1317848393956
 10
284.6044928102856
 20
602.5927847772255
 10
284.6044928102856
 20
602.5927847772255
 10
284.6044928102856
 20
602.5927847772255
 10
286.0630000000001
 20
603.5292847535675
 10
286.0630000000001
 20
603.5292847535675
 10
286.0630000000001
 20
603.5292847535675
 10
285.4896927879236
 20
604.4228847309932
 10
285.4896927879236
 20
604.4228847309932
 10
285.4896927879236
 20
604.4228847309932
 10
283.7860928309601
 20
603.3285847586376
 10
283.7860928309601
 20
603.3285847586376
 10
283.7860928309601
 20
603.3285847586376
 10
283.5420000000004
 20
603.1708847626214
 10
283.5420000000004
 20
603.1708847626214
 10
283.5420000000004
 20
603.1708847626214
 10
283.5420000000004
 20
602.8817847699247
 10
283.5420000000004
 20
602.8817847699247
 10
283.5420000000004
 20
602.8817847699247
 10
283.5420000000004
 20
600.1317848393956
 10
283.5420000000004
 20
600.1317848393956
 10
283.5420000000004
 20
600.1317848393956
 10
283.025392850177
 20
600.1317848393956
 10
283.025392850177
 20
600.1317848393956
 10
283.025392850177
 20
600.1317848393956
 10
283.025392850177
 20
598.0058848931003
 10
283.025392850177
 20
598.0058848931003
 10
283.025392850177
 20
598.0058848931003
 10
282.0575928746257
 20
598.0058848931003
 10
282.0575928746257
 20
598.0058848931003
 10
282.0575928746257
 20
598.0058848931003
 10
278.1820929725291
 20
597.2973849109985
 10
278.1820929725291
 20
597.2973849109985
 10
278.1820929725291
 20
597.2973849109985
 10
278.1820929725291
 20
589.2538851141944
 10
278.1820929725291
 20
589.2538851141944
 10
278.1820929725291
 20
589.2538851141944
 10
276.744093008856
 20
589.2538851141944
 10
276.744093008856
 20
589.2538851141944
 10
276.744093008856
 20
589.2538851141944
 10
276.744093008856
 20
586.6908851789412
 10
276.744093008856
 20
586.6908851789412
 10
276.744093008856
 20
586.6908851789412
 10
278.9315929535951
 20
585.274385214725
 10
278.9315929535951
 20
585.274385214725
 10
278.9315929535951
 20
585.274385214725
 10
281.3441928926477
 20
585.274385214725
 10
281.3441928926477
 20
585.274385214725
 10
281.3441928926477
 20
585.274385214725
 10
281.3134928934232
 20
585.3119999999999
 10
281.3134928934232
 20
585.3119999999999
 10
281.3134928934232
 20
585.3119999999999
 10
281.3061928936077
 20
585.3207852135529
 10
281.3061928936077
 20
585.3207852135529
 10
280.9047929037479
 20
585.8320000000003
 10
280.6127929111244
 20
586.4242851856761
 10
280.4853929143428
 20
587.0640000000003
 10
280.3710929172303
 20
587.6288851552454
 10
280.3905929167377
 20
588.2172851403811
 10
280.5658929123092
 20
588.7680851264668
 10
280.7445929077949
 20
589.3310851122442
 10
281.0770928993952
 20
589.8285850996763
 10
281.5424928876382
 20
590.1923850904859
 10
281.8925928787939
 20
590.4677850835287
 10
282.3002928684946
 20
590.651885078878
 10
282.7367928574677
 20
590.7387850766827
 10
282.7367928574677
 20
590.7387850766827
 10
282.8812928538173
 20
590.7685850759299
 10
282.8812928538173
 20
590.7685850759299
 10
282.8812928538173
 20
590.7685850759299
 10
303.7343923270237
 20
590.7685850759299
 10
303.7343923270237
 20
590.7685850759299
 10
303.7343923270237
 20
590.7685850759299
 10
303.8349999999991
 20
590.754885076276
 10
303.8349999999991
 20
590.754885076276
 10
304.5351923067938
 20
590.6620850786203
 10
305.1874922903153
 20
590.365685086108
 10
305.6815922778333
 20
589.8540000000003
 10
305.9853922701586
 20
589.539585106977
 10
306.210892264462
 20
589.1601851165615
 10
306.3417922611552
 20
588.7426851271084
 10
306.3866922600209
 20
588.5966851307967
 10
306.420892259157
 20
588.4486851345355
 10
306.4423922586138
 20
588.2992851383096
 10
306.4423922586138
 20
588.2992851383096
 10
307.6181922289106
 20
589.0609999999997
 10
307.6181922289106
 20
589.0609999999997
 10
307.6181922289106
 20
589.0609999999997
 10
307.6181922289106
 20
591.6239999999998
 10
307.6181922289106
 20
591.6239999999998
 10
307.6181922289106
 20
591.6239999999998
 10
307.6181922289106
 20
591.6239999999998
 10
307.6181922289106
 20
591.6239999999998
 97
        0
 92
        1
 93
        1
 72
     4
 94
        3
 73
     0
 74
     1
 95
       74
 96
       70
 40
0.0
 40
0.0
 40
0.0
 40
0.0
 40
1.0
 40
1.0
 40
1.0
 40
2.0
 40
2.0
 40
2.0
 40
3.0
 40
3.0
 40
3.0
 40
4.0
 40
4.0
 40
4.0
 40
5.0
 40
5.0
 40
5.0
 40
6.0
 40
6.0
 40
6.0
 40
7.0
 40
7.0
 40
7.0
 40
8.0
 40
8.0
 40
8.0
 40
9.0
 40
9.0
 40
9.0
 40
10.0
 40
10.0
 40
10.0
 40
11.0
 40
11.0
 40
11.0
 40
12.0
 40
12.0
 40
12.0
 40
13.0
 40
13.0
 40
13.0
 40
14.0
 40
14.0
 40
14.0
 40
15.0
 40
15.0
 40
15.0
 40
16.0
 40
16.0
 40
16.0
 40
17.0
 40
17.0
 40
17.0
 40
18.0
 40
18.0
 40
18.0
 40
19.0
 40
19.0
 40
19.0
 40
20.0
 40
20.0
 40
20.0
 40
21.0
 40
21.0
 40
21.0
 40
22.0
 40
22.0
 40
22.0
 40
23.0
 40
23.0
 40
23.0
 40
23.0
 10
283.0145928504498
 20
589.7045851028088
 10
283.0145928504498
 20
589.7045851028088
 10
303.6503923291457
 20
589.7045851028088
 10
303.6503923291457
 20
589.7045851028088
 10
303.6503923291457
 20
589.7045851028088
 10
303.6640923287996
 20
589.7045851028088
 10
303.6640923287996
 20
589.7045851028088
 10
303.6640923287996
 20
589.7045851028088
 10
303.6962923279862
 20
589.701685102882
 10
303.6962923279862
 20
589.701685102882
 10
304.2070000000003
 20
589.6337851045973
 10
304.6210923046237
 20
589.421385109963
 10
304.9159999999993
 20
589.1166851176604
 10
305.1054922923868
 20
588.9184851226673
 10
305.2460922888349
 20
588.683085128614
 10
305.3280922867634
 20
588.4237851351645
 10
305.4071922847652
 20
588.1688851416038
 10
305.4296922841968
 20
587.8910851486216
 10
305.3935922851088
 20
587.6024851559123
 10
305.3241922868619
 20
587.081085169084
 10
305.0497922937939
 20
586.5287851830362
 10
304.536092306771
 20
586.0331851955561
 10
304.536092306771
 20
586.0331851955561
 10
302.5907923559134
 20
584.0966852444762
 10
302.5907923559134
 20
584.0966852444762
 10
302.2323923649674
 20
583.7401852534822
 10
301.8925923735515
 20
583.5429999999997
 10
301.5097923832218
 20
583.4325852612528
 10
301.1415923925233
 20
583.3261852639407
 10
300.7587924021936
 20
583.3075852644106
 10
300.2890924140593
 20
583.3075852644106
 10
300.2890924140593
 20
583.3075852644106
 10
286.1815927704447
 20
583.3075852644106
 10
286.1815927704447
 20
583.3075852644106
 10
286.1815927704447
 20
583.3075852644106
 10
286.0829999999996
 20
583.3075852644106
 10
286.0829999999996
 20
583.3075852644106
 10
286.0829999999996
 20
583.3075852644106
 10
286.0829999999996
 20
583.3090852643727
 10
286.0829999999996
 20
583.3090852643727
 10
284.8002928053393
 20
583.3085852643853
 10
284.4823928133701
 20
583.3085852643853
 10
283.8178928301568
 20
584.0663852452417
 10
283.8178928301568
 20
584.0663852452417
 10
282.155792872145
 20
585.9608851973826
 10
282.155792872145
 20
585.9608851973826
 10
282.155792872145
 20
585.9608851973826
 10
282.1425928724784
 20
585.9770851969733
 10
282.1425928724784
 20
585.9770851969733
 10
281.8130000000001
 20
586.3983851863304
 10
281.613792885837
 20
586.8432851750913
 10
281.5272928880222
 20
587.2728851642387
 10
281.4433928901417
 20
587.6898851537044
 10
281.4662928895632
 20
588.0917851435515
 10
281.579592886701
 20
588.4472851345708
 10
281.6947928837908
 20
588.8140000000003
 10
281.9086928783872
 20
589.1288851173522
 10
282.1981928710738
 20
589.3559999999998
 10
282.4096928657309
 20
589.5219999999999
 10
282.6605928593926
 20
589.6400851044382
 10
282.9462928521752
 20
589.6967851030058
 10
282.9462928521752
 20
589.6967851030058
 10
282.9867928511521
 20
589.7045851028088
 10
282.9867928511521
 20
589.7045851028088
 10
282.9867928511521
 20
589.7045851028088
 10
283.0145928504498
 20
589.7045851028088
 10
283.0145928504498
 20
589.7045851028088
 10
283.0145928504498
 20
589.7045851028088
 10
283.0145928504498
 20
589.7045851028088
 10
283.0145928504498
 20
589.7045851028088
 97
        0
 92
        1
 93
        1
 72
     4
 94
        3
 73
     0
 74
     1
 95
       23
 96
       19
 40
0.0
 40
0.0
 40
0.0
 40
0.0
 40
1.0
 40
1.0
 40
1.0
 40
2.0
 40
2.0
 40
2.0
 40
3.0
 40
3.0
 40
3.0
 40
4.0
 40
4.0
 40
4.0
 40
5.0
 40
5.0
 40
5.0
 40
6.0
 40
6.0
 40
6.0
 40
6.0
 10
303.1317923422466
 20
585.6322852056837
 10
303.1317923422466
 20
585.6322852056837
 10
302.125
 20
584.6303852309939
 10
302.125
 20
584.6303852309939
 10
302.170892366521
 20
584.7700000000004
 10
302.1962923658793
 20
584.9188852237057
 10
302.1962923658793
 20
585.0746852197699
 10
302.1962923658793
 20
585.433085210716
 10
302.0614923692847
 20
585.7616852024148
 10
301.8417923748348
 20
586.0111851961119
 10
302.1679999999997
 20
585.7709999999997
 10
302.5702923564313
 20
585.6283852057823
 10
303.0028923455029
 20
585.6283852057823
 10
303.0468923443914
 20
585.6283852057823
 10
303.0897923433076
 20
585.6303852057317
 10
303.1317923422466
 20
585.6322852056837
 10
303.1317923422466
 20
585.6322852056837
 10
303.1317923422466
 20
585.6322852056837
 10
303.1317923422466
 20
585.6322852056837
 97
        0
 92
        1
 93
        1
 72
     4
 94
        3
 73
     0
 74
     1
 95
      251
 96
      247
 40
0.0
 40
0.0
 40
0.0
 40
0.0
 40
1.0
 40
1.0
 40
1.0
 40
2.0
 40
2.0
 40
2.0
 40
3.0
 40
3.0
 40
3.0
 40
4.0
 40
4.0
 40
4.0
 40
5.0
 40
5.0
 40
5.0
 40
6.0
 40
6.0
 40
6.0
 40
7.0
 40
7.0
 40
7.0
 40
8.0
 40
8.0
 40
8.0
 40
9.0
 40
9.0
 40
9.0
 40
10.0
 40
10.0
 40
10.0
 40
11.0
 40
11.0
 40
11.0
 40
12.0
 40
12.0
 40
12.0
 40
13.0
 40
13.0
 40
13.0
 40
14.0
 40
14.0
 40
14.0
 40
15.0
 40
15.0
 40
15.0
 40
16.0
 40
16.0
 40
16.0
 40
17.0
 40
17.0
 40
17.0
 40
18.0
 40
18.0
 40
18.0
 40
19.0
 40
19.0
 40
19.0
 40
20.0
 40
20.0
 40
20.0
 40
21.0
 40
21.0
 40
21.0
 40
22.0
 40
22.0
 40
22.0
 40
23.0
 40
23.0
 40
23.0
 40
24.0
 40
24.0
 40
24.0
 40
25.0
 40
25.0
 40
25.0
 40
26.0
 40
26.0
 40
26.0
 40
27.0
 40
27.0
 40
27.0
 40
28.0
 40
28.0
 40
28.0
 40
29.0
 40
29.0
 40
29.0
 40
30.0
 40
30.0
 40
30.0
 40
31.0
 40
31.0
 40
31.0
 40
32.0
 40
32.0
 40
32.0
 40
33.0
 40
33.0
 40
33.0
 40
34.0
 40
34.0
 40
34.0
 40
35.0
 40
35.0
 40
35.0
 40
36.0
 40
36.0
 40
36.0
 40
37.0
 40
37.0
 40
37.0
 40
38.0
 40
38.0
 40
38.0
 40
39.0
 40
39.0
 40
39.0
 40
40.0
 40
40.0
 40
40.0
 40
41.0
 40
41.0
 40
41.0
 40
42.0
 40
42.0
 40
42.0
 40
43.0
 40
43.0
 40
43.0
 40
44.0
 40
44.0
 40
44.0
 40
45.0
 40
45.0
 40
45.0
 40
46.0
 40
46.0
 40
46.0
 40
47.0
 40
47.0
 40
47.0
 40
48.0
 40
48.0
 40
48.0
 40
49.0
 40
49.0
 40
49.0
 40
50.0
 40
50.0
 40
50.0
 40
51.0
 40
51.0
 40
51.0
 40
52.0
 40
52.0
 40
52.0
 40
53.0
 40
53.0
 40
53.0
 40
54.0
 40
54.0
 40
54.0
 40
55.0
 40
55.0
 40
55.0
 40
56.0
 40
56.0
 40
56.0
 40
57.0
 40
57.0
 40
57.0
 40
58.0
 40
58.0
 40
58.0
 40
59.0
 40
59.0
 40
59.0
 40
60.0
 40
60.0
 40
60.0
 40
61.0
 40
61.0
 40
61.0
 40
62.0
 40
62.0
 40
62.0
 40
63.0
 40
63.0
 40
63.0
 40
64.0
 40
64.0
 40
64.0
 40
65.0
 40
65.0
 40
65.0
 40
66.0
 40
66.0
 40
66.0
 40
67.0
 40
67.0
 40
67.0
 40
68.0
 40
68.0
 40
68.0
 40
69.0
 40
69.0
 40
69.0
 40
70.0
 40
70.0
 40
70.0
 40
71.0
 40
71.0
 40
71.0
 40
72.0
 40
72.0
 40
72.0
 40
73.0
 40
73.0
 40
73.0
 40
74.0
 40
74.0
 40
74.0
 40
75.0
 40
75.0
 40
75.0
 40
76.0
 40
76.0
 40
76.0
 40
77.0
 40
77.0
 40
77.0
 40
78.0
 40
78.0
 40
78.0
 40
79.0
 40
79.0
 40
79.0
 40
80.0
 40
80.0
 40
80.0
 40
81.0
 40
81.0
 40
81.0
 40
82.0
 40
82.0
 40
82.0
 40
82.0
 10
301.5780923814964
 20
586.2436851902385
 10
301.3515923872183
 20
586.3993851863052
 10
301.0761923941755
 20
586.4906851839987
 10
300.7792924016758
 20
586.4906851839987
 10
300.3886924115432
 20
586.4906851839987
 10
300.0331924205238
 20
586.3314851880205
 10
299.7772924269884
 20
586.0756851944825
 10
299.5214924334505
 20
585.8192852009597
 10
299.3632924374469
 20
585.4652852099025
 10
299.3632924374469
 20
585.0746852197699
 10
299.3632924374469
 20
584.6825852296752
 10
299.5214924334505
 20
584.328585238618
 10
299.7772924269884
 20
584.0722852450926
 10
299.7968924264933
 20
584.0531852455752
 10
299.8163924260007
 20
584.0346852460425
 10
299.8358924255081
 20
584.0160852465124
 10
299.8358924255081
 20
584.0160852465124
 10
298.8788924496839
 20
584.0160852465124
 10
298.8788924496839
 20
584.0160852465124
 10
298.8983924491913
 20
584.0346852460425
 10
298.9179999999997
 20
584.0531852455752
 10
298.9364924482288
 20
584.0722852450926
 10
299.193392441739
 20
584.328585238618
 10
299.3515924377425
 20
584.6825852296752
 10
299.3515924377425
 20
585.0746852197699
 10
299.3515924377425
 20
585.4652852099025
 10
299.193392441739
 20
585.8192852009597
 10
298.9364924482288
 20
586.0756851944825
 10
298.6796924547161
 20
586.3314851880205
 10
298.3261924636463
 20
586.4906851839987
 10
297.9354924735162
 20
586.4906851839987
 10
297.5438924834089
 20
586.4906851839987
 10
297.1890000000003
 20
586.3314851880205
 10
296.9335924988263
 20
586.0756851944825
 10
296.6767925053136
 20
585.8192852009597
 10
296.5185925093101
 20
585.4652852099025
 10
296.5185925093101
 20
585.0746852197699
 10
296.5185925093101
 20
584.6825852296752
 10
296.6767925053136
 20
584.328585238618
 10
296.9335924988263
 20
584.0722852450926
 10
296.9516924983691
 20
584.0531852455752
 10
296.9721924978512
 20
584.0346852460425
 10
296.9916924973586
 20
584.0160852465124
 10
296.9916924973586
 20
584.0160852465124
 10
295.9550925235453
 20
584.0160852465124
 10
295.9550925235453
 20
584.0160852465124
 10
295.9755925230274
 20
584.0346852460425
 10
295.9945925225475
 20
584.0531852455752
 10
296.0145925220422
 20
584.0722852450926
 10
296.2709999999997
 20
584.328585238618
 10
296.4296925115559
 20
584.6825852296752
 10
296.4296925115559
 20
585.0746852197699
 10
296.4296925115559
 20
585.4652852099025
 10
296.2709999999997
 20
585.8192852009597
 10
296.0145925220422
 20
586.0756851944825
 10
295.7577925285295
 20
586.3314851880205
 10
295.4037925374723
 20
586.4906851839987
 10
295.0126925473523
 20
586.4906851839987
 10
294.621092557245
 20
586.4906851839987
 10
294.2670925661878
 20
586.3314851880205
 10
294.0111925726524
 20
586.0756851944825
 10
293.754892579127
 20
585.8192852009597
 10
293.5961925831361
 20
585.4652852099025
 10
293.5961925831361
 20
585.0746852197699
 10
293.5961925831361
 20
584.6825852296752
 10
293.754892579127
 20
584.328585238618
 10
294.0111925726524
 20
584.0722852450926
 10
294.0297925721825
 20
584.0531852455752
 10
294.0502925716646
 20
584.0346852460425
 10
294.069792571172
 20
584.0160852465124
 10
294.069792571172
 20
584.0160852465124
 10
292.9745925988391
 20
584.0160852465124
 10
292.9745925988391
 20
584.0160852465124
 10
292.9950925983212
 20
584.0346852460425
 10
293.0141925978387
 20
584.0531852455752
 10
293.0326925973714
 20
584.0722852450926
 10
293.2895925908815
 20
584.328585238618
 10
293.447792586885
 20
584.6825852296752
 10
293.447792586885
 20
585.0746852197699
 10
293.447792586885
 20
585.4652852099025
 10
293.2895925908815
 20
585.8192852009597
 10
293.0326925973714
 20
586.0756851944825
 10
292.7772926038233
 20
586.3314851880205
 10
292.4232926127661
 20
586.4906851839987
 10
292.0312926226688
 20
586.4906851839987
 10
291.6400926325514
 20
586.4906851839987
 10
291.2860926414942
 20
586.3314851880205
 10
291.0297926479689
 20
586.0756851944825
 10
290.7738926544334
 20
585.8192852009597
 10
290.6142926584653
 20
585.4652852099025
 10
290.6142926584653
 20
585.0746852197699
 10
290.6142926584653
 20
584.6825852296752
 10
290.7738926544334
 20
584.328585238618
 10
291.0297926479689
 20
584.0722852450926
 10
291.0492926474762
 20
584.0531852455752
 10
291.0683926469937
 20
584.0346852460425
 10
291.0888926464759
 20
584.0160852465124
 10
291.0888926464759
 20
584.0160852465124
 10
290.0033926738979
 20
584.0160852465124
 10
290.0033926738979
 20
584.0160852465124
 10
290.0233926733927
 20
584.0346852460425
 10
290.0429999999997
 20
584.0531852455752
 10
290.0624926724049
 20
584.0722852450926
 10
290.3183926659403
 20
584.328585238618
 10
290.4774926619211
 20
584.6825852296752
 10
290.4774926619211
 20
585.0746852197699
 10
290.4774926619211
 20
585.4652852099025
 10
290.3183926659403
 20
585.8192852009597
 10
290.0624926724049
 20
586.0756851944825
 10
289.8056926788922
 20
586.3314851880205
 10
289.451692687835
 20
586.4906851839987
 10
289.0600926977277
 20
586.4906851839987
 10
288.6688927076102
 20
586.4906851839987
 10
288.3153927165404
 20
586.3314851880205
 10
288.0585927230277
 20
586.0756851944825
 10
287.8026927294923
 20
585.8192852009597
 10
287.6435927335115
 20
585.4652852099025
 10
287.6435927335115
 20
585.0746852197699
 10
287.6435927335115
 20
584.6825852296752
 10
287.8026927294923
 20
584.328585238618
 10
288.0585927230277
 20
584.0722852450926
 10
288.0780927225351
 20
584.0531852455752
 10
288.0971927220526
 20
584.0346852460425
 10
288.1176927215347
 20
584.0160852465124
 10
288.1176927215347
 20
584.0160852465124
 10
286.9882927500657
 20
584.0160852465124
 10
286.9882927500657
 20
584.0160852465124
 10
287.0087927495479
 20
584.0346852460425
 10
287.0277927490679
 20
584.0531852455752
 10
287.0478927485601
 20
584.0722852450926
 10
287.3046927420728
 20
584.328585238618
 10
287.4628927380763
 20
584.6825852296752
 10
287.4628927380763
 20
585.0746852197699
 10
287.4628927380763
 20
585.4652852099025
 10
287.3046927420728
 20
585.8192852009597
 10
287.0478927485601
 20
586.0756851944825
 10
286.7910000000002
 20
586.3314851880205
 10
286.4369999999999
 20
586.4906851839987
 10
286.0463927738601
 20
586.4906851839987
 10
285.6547927837528
 20
586.4906851839987
 10
285.3002927927082
 20
586.3314851880205
 10
285.0443927991728
 20
586.0756851944825
 10
284.7880928056475
 20
585.8192852009597
 10
284.6293928096566
 20
585.4652852099025
 10
284.6293928096566
 20
585.0746852197699
 10
284.6293928096566
 20
584.6825852296752
 10
284.7880928056475
 20
584.328585238618
 10
285.0443927991728
 20
584.0722852450926
 10
285.0443927991728
 20
584.0722852450926
 10
285.0482927990743
 20
584.0678852452038
 10
285.0482927990743
 20
584.0678852452038
 10
284.7738928060062
 20
584.1283852436754
 10
284.5893928106671
 20
584.2572852404192
 10
284.3495928167249
 20
584.5312852334973
 10
284.3495928167249
 20
584.5312852334973
 10
283.3729999999996
 20
585.6440000000002
 10
283.3729999999996
 20
585.6440000000002
 10
283.4555928393092
 20
585.6342852056332
 10
283.5390928371999
 20
585.6283852057823
 10
283.625
 20
585.6283852057823
 10
284.1635928214237
 20
585.6283852057823
 10
284.6532928090528
 20
585.8480852002322
 10
285.0092928000595
 20
586.2030851912641
 10
285.0092928000595
 20
586.2030851912641
 10
285.0102928000342
 20
586.2035851912515
 10
285.0102928000342
 20
586.2035851912515
 10
285.0102928000342
 20
586.2035851912515
 10
285.0106928000241
 20
586.2045851912262
 10
285.0106928000241
 20
586.2045851912262
 10
285.3671927910182
 20
586.5614851822102
 10
285.5863927854807
 20
587.0507851698494
 10
285.5863927854807
 20
587.5897851562331
 10
285.5863927854807
 20
588.1288851426143
 10
285.3671927910182
 20
588.6181851302536
 10
285.0106928000241
 20
588.9740851212628
 10
285.0106928000241
 20
588.9740851212628
 10
285.0102928000342
 20
588.9755851212249
 10
285.0102928000342
 20
588.9755851212249
 10
285.0102928000342
 20
588.9755851212249
 10
285.0092928000595
 20
588.977085121187
 10
285.0092928000595
 20
588.977085121187
 10
285.0092928000595
 20
588.977085121187
 10
284.9892928005647
 20
588.996085120707
 10
284.9892928005647
 20
588.996085120707
 10
284.9892928005647
 20
588.996085120707
 10
287.5253927364975
 20
588.996085120707
 10
287.5253927364975
 20
588.996085120707
 10
287.4135927393218
 20
588.8295851249131
 10
287.3490927409512
 20
588.6293851299706
 10
287.3490927409512
 20
588.4135851354222
 10
287.3490927409512
 20
588.1254851427002
 10
287.4652927380157
 20
587.8632851493239
 10
287.6552927332159
 20
587.6742851540985
 10
287.8441927284439
 20
587.4853851588705
 10
288.1059999999998
 20
587.3671851618565
 10
288.3944927145421
 20
587.3671851618565
 10
288.6830927072515
 20
587.3671851618565
 10
288.9452927006278
 20
587.4853851588705
 10
289.1337926958658
 20
587.6742851540985
 10
289.3231926910812
 20
587.8632851493239
 10
289.4408926881079
 20
588.1254851427002
 10
289.4408926881079
 20
588.4135851354222
 10
289.4408926881079
 20
588.6293851299706
 10
289.375
 20
588.8295851249131
 10
289.2641926925717
 20
588.996085120707
 10
289.2641926925717
 20
588.996085120707
 10
296.9647924980382
 20
588.996085120707
 10
296.9647924980382
 20
588.996085120707
 10
296.8530000000001
 20
588.8295851249131
 10
296.788092502502
 20
588.6293851299706
 10
296.788092502502
 20
588.4135851354222
 10
296.788092502502
 20
588.1254851427002
 10
296.9047924995539
 20
587.8632851493239
 10
297.0937924947793
 20
587.6742851540985
 10
297.2836924899821
 20
587.4853851588705
 10
297.5448924833836
 20
587.3671851618565
 10
297.8340000000007
 20
587.3671851618565
 10
298.1220924688023
 20
587.3671851618565
 10
298.3847924621659
 20
587.4853851588705
 10
298.5741924573813
 20
587.6742851540985
 10
298.7616924526446
 20
587.8632851493239
 10
298.8798924496587
 20
588.1254851427002
 10
298.8798924496587
 20
588.4135851354222
 10
298.8798924496587
 20
588.6293851299706
 10
298.8144924513108
 20
588.8295851249131
 10
298.703092454125
 20
588.996085120707
 10
298.703092454125
 20
588.996085120707
 10
301.6386923799655
 20
588.996085120707
 10
301.6386923799655
 20
588.996085120707
 10
301.6386923799655
 20
588.996085120707
 10
301.6190923804606
 20
588.977085121187
 10
301.6190923804606
 20
588.977085121187
 10
301.6190923804606
 20
588.977085121187
 10
301.6171923805086
 20
588.9755851212249
 10
301.6171923805086
 20
588.9755851212249
 10
301.6171923805086
 20
588.9755851212249
 10
301.6151923805592
 20
588.9740851212628
 10
301.6151923805592
 20
588.9740851212628
 10
301.2616923894893
 20
588.6181851302536
 10
301.0409999999993
 20
588.1288851426143
 10
301.0409999999993
 20
587.5897851562331
 10
301.0409999999993
 20
587.0697851693694
 10
301.2460923898834
 20
586.5956851813462
 10
301.5780923814964
 20
586.2436851902385
 10
301.5780923814964
 20
586.2436851902385
 10
301.5780923814964
 20
586.2436851902385
 10
301.5780923814964
 20
586.2436851902385
 97
        0
 92
        1
 93
        1
 72
     4
 94
        3
 73
     0
 74
     1
 95
       44
 96
       40
 40
0.0
 40
0.0
 40
0.0
 40
0.0
 40
1.0
 40
1.0
 40
1.0
 40
2.0
 40
2.0
 40
2.0
 40
3.0
 40
3.0
 40
3.0
 40
4.0
 40
4.0
 40
4.0
 40
5.0
 40
5.0
 40
5.0
 40
6.0
 40
6.0
 40
6.0
 40
7.0
 40
7.0
 40
7.0
 40
8.0
 40
8.0
 40
8.0
 40
9.0
 40
9.0
 40
9.0
 40
10.0
 40
10.0
 40
10.0
 40
11.0
 40
11.0
 40
11.0
 40
12.0
 40
12.0
 40
12.0
 40
13.0
 40
13.0
 40
13.0
 40
13.0
 10
303.6386923294413
 20
588.2274851401235
 10
303.6386923294413
 20
588.2274851401235
 10
303.6405923293933
 20
588.2245851401967
 10
303.6405923293933
 20
588.2245851401967
 10
303.801792325321
 20
588.0640000000003
 10
303.9022923227822
 20
587.8393851499277
 10
303.9022923227822
 20
587.5897851562331
 10
303.9022923227822
 20
587.340285162536
 10
303.801792325321
 20
587.1151851682225
 10
303.6405923293933
 20
586.9545851722796
 10
303.6405923293933
 20
586.9545851722796
 10
303.6386923294413
 20
586.9525851723301
 10
303.6386923294413
 20
586.9525851723301
 10
303.4765923335362
 20
586.7914851763999
 10
303.2520000000004
 20
586.6908851789412
 10
303.0028923455029
 20
586.6908851789412
 10
302.7538923517932
 20
586.6908851789412
 10
302.5292923574671
 20
586.7914851763999
 10
302.3681923615368
 20
586.9525851723301
 10
302.3681923615368
 20
586.9525851723301
 10
302.3651923616126
 20
586.9545851722796
 10
302.3651923616126
 20
586.9545851722796
 10
302.205092365657
 20
587.1151851682225
 10
302.1054923681731
 20
587.340285162536
 10
302.1054923681731
 20
587.5897851562331
 10
302.1054923681731
 20
587.8393851499277
 10
302.205092365657
 20
588.0640000000003
 10
302.3651923616126
 20
588.2245851401967
 10
302.3651923616126
 20
588.2245851401967
 10
302.3681923615368
 20
588.2274851401235
 10
302.3681923615368
 20
588.2274851401235
 10
302.5292923574671
 20
588.3886851360512
 10
302.7538923517932
 20
588.4877851335477
 10
303.0028923455029
 20
588.4877851335477
 10
303.2520000000004
 20
588.4877851335477
 10
303.4765923335362
 20
588.3886851360512
 10
303.6386923294413
 20
588.2274851401235
 10
303.6386923294413
 20
588.2274851401235
 10
303.6386923294413
 20
588.2274851401235
 10
303.6386923294413
 20
588.2274851401235
 97
        0
 92
        1
 93
        1
 72
     4
 94
        3
 73
     0
 74
     1
 95
       32
 96
       28
 40
0.0
 40
0.0
 40
0.0
 40
0.0
 40
1.0
 40
1.0
 40
1.0
 40
2.0
 40
2.0
 40
2.0
 40
3.0
 40
3.0
 40
3.0
 40
4.0
 40
4.0
 40
4.0
 40
5.0
 40
5.0
 40
5.0
 40
6.0
 40
6.0
 40
6.0
 40
7.0
 40
7.0
 40
7.0
 40
8.0
 40
8.0
 40
8.0
 40
9.0
 40
9.0
 40
9.0
 40
9.0
 10
298.0722924700603
 20
588.6527851293795
 10
298.132792468532
 20
588.5912851309331
 10
298.1718924675442
 20
588.5072851330551
 10
298.1718924675442
 20
588.4135851354222
 10
298.1718924675442
 20
588.3207851377665
 10
298.132792468532
 20
588.2362851399012
 10
298.0722924700603
 20
588.1752851414421
 10
298.0106924716165
 20
588.1142851429831
 10
297.926792473736
 20
588.0761851439456
 10
297.8340000000007
 20
588.0761851439456
 10
297.7401924784499
 20
588.0761851439456
 10
297.6562924805694
 20
588.1142851429831
 10
297.5956924821003
 20
588.1752851414421
 10
297.5351924836286
 20
588.2362851399012
 10
297.4965924846038
 20
588.3207851377665
 10
297.4965924846038
 20
588.4135851354222
 10
297.4965924846038
 20
588.5072851330551
 10
297.5351924836286
 20
588.5912851309331
 10
297.5956924821003
 20
588.6527851293795
 10
297.6562924805694
 20
588.713885127836
 10
297.7401924784499
 20
588.7504851269114
 10
297.8340000000007
 20
588.7504851269114
 10
297.926792473736
 20
588.7504851269114
 10
298.0106924716165
 20
588.713885127836
 10
298.0722924700603
 20
588.6527851293795
 10
298.0722924700603
 20
588.6527851293795
 10
298.0722924700603
 20
588.6527851293795
 10
298.0722924700603
 20
588.6527851293795
 97
        0
 92
        1
 93
        1
 72
     4
 94
        3
 73
     0
 74
     1
 95
       32
 96
       28
 40
0.0
 40
0.0
 40
0.0
 40
0.0
 40
1.0
 40
1.0
 40
1.0
 40
2.0
 40
2.0
 40
2.0
 40
3.0
 40
3.0
 40
3.0
 40
4.0
 40
4.0
 40
4.0
 40
5.0
 40
5.0
 40
5.0
 40
6.0
 40
6.0
 40
6.0
 40
7.0
 40
7.0
 40
7.0
 40
8.0
 40
8.0
 40
8.0
 40
9.0
 40
9.0
 40
9.0
 40
9.0
 10
288.6332927085095
 20
588.6527851293795
 10
288.6942927069686
 20
588.5912851309331
 10
288.7318927060187
 20
588.5072851330551
 10
288.7318927060187
 20
588.4135851354222
 10
288.7318927060187
 20
588.3207851377665
 10
288.6942927069686
 20
588.2362851399012
 10
288.6332927085095
 20
588.1752851414421
 10
288.5727927100379
 20
588.1142851429831
 10
288.4872927121978
 20
588.0761851439456
 10
288.3944927145421
 20
588.0761851439456
 10
288.3012927168966
 20
588.0761851439456
 10
288.2167927190312
 20
588.1142851429831
 10
288.1557927205722
 20
588.1752851414421
 10
288.0956927220905
 20
588.2362851399012
 10
288.0575927230529
 20
588.3207851377665
 10
288.0575927230529
 20
588.4135851354222
 10
288.0575927230529
 20
588.5072851330551
 10
288.0956927220905
 20
588.5912851309331
 10
288.1557927205722
 20
588.6527851293795
 10
288.2167927190312
 20
588.713885127836
 10
288.3012927168966
 20
588.7504851269114
 10
288.3944927145421
 20
588.7504851269114
 10
288.4872927121978
 20
588.7504851269114
 10
288.5727927100379
 20
588.713885127836
 10
288.6332927085095
 20
588.6527851293795
 10
288.6332927085095
 20
588.6527851293795
 10
288.6332927085095
 20
588.6527851293795
 10
288.6332927085095
 20
588.6527851293795
 97
        0
 92
        1
 93
        1
 72
     4
 94
        3
 73
     0
 74
     1
 95
       32
 96
       28
 40
0.0
 40
0.0
 40
0.0
 40
0.0
 40
1.0
 40
1.0
 40
1.0
 40
2.0
 40
2.0
 40
2.0
 40
3.0
 40
3.0
 40
3.0
 40
4.0
 40
4.0
 40
4.0
 40
5.0
 40
5.0
 40
5.0
 40
6.0
 40
6.0
 40
6.0
 40
7.0
 40
7.0
 40
7.0
 40
8.0
 40
8.0
 40
8.0
 40
9.0
 40
9.0
 40
9.0
 40
9.0
 10
286.5463927612291
 20
585.5746852071388
 10
286.674292757998
 20
585.4467852103699
 10
286.7538927559872
 20
585.2700000000004
 10
286.7538927559872
 20
585.0746852197699
 10
286.7538927559872
 20
584.8788852247162
 10
286.674292757998
 20
584.7011852292053
 10
286.5463927612291
 20
584.5731852324388
 10
286.4184927644601
 20
584.4452852356699
 10
286.2416927689264
 20
584.3666852376555
 10
286.0463927738601
 20
584.3666852376555
 10
285.8505927788065
 20
584.3666852376555
 10
285.6737927832728
 20
584.4452852356699
 10
285.5458927865038
 20
584.5731852324388
 10
285.4170000000004
 20
584.7011852292053
 10
285.3383927917457
 20
584.8788852247162
 10
285.3383927917457
 20
585.0746852197699
 10
285.3383927917457
 20
585.2700000000004
 10
285.4170000000004
 20
585.4467852103699
 10
285.5458927865038
 20
585.5746852071388
 10
285.6737927832728
 20
585.7025852039078
 10
285.8505927788065
 20
585.7821852018969
 10
286.0463927738601
 20
585.7821852018969
 10
286.2416927689264
 20
585.7821852018969
 10
286.4184927644601
 20
585.7025852039078
 10
286.5463927612291
 20
585.5746852071388
 10
286.5463927612291
 20
585.5746852071388
 10
286.5463927612291
 20
585.5746852071388
 10
286.5463927612291
 20
585.5746852071388
 97
        0
 92
        1
 93
        1
 72
     4
 94
        3
 73
     0
 74
     1
 95
       32
 96
       28
 40
0.0
 40
0.0
 40
0.0
 40
0.0
 40
1.0
 40
1.0
 40
1.0
 40
2.0
 40
2.0
 40
2.0
 40
3.0
 40
3.0
 40
3.0
 40
4.0
 40
4.0
 40
4.0
 40
5.0
 40
5.0
 40
5.0
 40
6.0
 40
6.0
 40
6.0
 40
7.0
 40
7.0
 40
7.0
 40
8.0
 40
8.0
 40
8.0
 40
9.0
 40
9.0
 40
9.0
 40
9.0
 10
301.2792923890447
 20
585.5746852071388
 10
301.4071923858137
 20
585.4467852103699
 10
301.4872923837902
 20
585.2700000000004
 10
301.4872923837902
 20
585.0746852197699
 10
301.4872923837902
 20
584.8788852247162
 10
301.4071923858137
 20
584.7011852292053
 10
301.2792923890447
 20
584.5731852324388
 10
301.152292392253
 20
584.4452852356699
 10
300.9745923967421
 20
584.3666852376555
 10
300.7792924016758
 20
584.3666852376555
 10
300.5840000000007
 20
584.3666852376555
 10
300.4071924110758
 20
584.4452852356699
 10
300.2792924143068
 20
584.5731852324388
 10
300.1503924175631
 20
584.7011852292053
 10
300.0722924195361
 20
584.8788852247162
 10
300.0722924195361
 20
585.0746852197699
 10
300.0722924195361
 20
585.2700000000004
 10
300.1503924175631
 20
585.4467852103699
 10
300.2792924143068
 20
585.5746852071388
 10
300.4071924110758
 20
585.7025852039078
 10
300.5840000000007
 20
585.7821852018969
 10
300.7792924016758
 20
585.7821852018969
 10
300.9745923967421
 20
585.7821852018969
 10
301.152292392253
 20
585.7025852039078
 10
301.2792923890447
 20
585.5746852071388
 10
301.2792923890447
 20
585.5746852071388
 10
301.2792923890447
 20
585.5746852071388
 10
301.2792923890447
 20
585.5746852071388
 97
        0
 92
        1
 93
        1
 72
     4
 94
        3
 73
     0
 74
     1
 95
       32
 96
       28
 40
0.0
 40
0.0
 40
0.0
 40
0.0
 40
1.0
 40
1.0
 40
1.0
 40
2.0
 40
2.0
 40
2.0
 40
3.0
 40
3.0
 40
3.0
 40
4.0
 40
4.0
 40
4.0
 40
5.0
 40
5.0
 40
5.0
 40
6.0
 40
6.0
 40
6.0
 40
7.0
 40
7.0
 40
7.0
 40
8.0
 40
8.0
 40
8.0
 40
9.0
 40
9.0
 40
9.0
 40
9.0
 10
298.4354924608851
 20
585.5746852071388
 10
298.5634924576516
 20
585.4467852103699
 10
298.6425924556534
 20
585.2700000000004
 10
298.6425924556534
 20
585.0746852197699
 10
298.6425924556534
 20
584.8788852247162
 10
298.5634924576516
 20
584.7011852292053
 10
298.4354924608851
 20
584.5731852324388
 10
298.3075924641162
 20
584.4452852356699
 10
298.13089246858
 20
584.3666852376555
 10
297.9354924735162
 20
584.3666852376555
 10
297.7401924784499
 20
584.3666852376555
 10
297.562492482939
 20
584.4452852356699
 10
297.43459248617
 20
584.5731852324388
 10
297.3061924894137
 20
584.7011852292053
 10
297.2270924914119
 20
584.8788852247162
 10
297.2270924914119
 20
585.0746852197699
 10
297.2270924914119
 20
585.2700000000004
 10
297.3061924894137
 20
585.4467852103699
 10
297.43459248617
 20
585.5746852071388
 10
297.562492482939
 20
585.7025852039078
 10
297.7401924784499
 20
585.7821852018969
 10
297.9354924735162
 20
585.7821852018969
 10
298.13089246858
 20
585.7821852018969
 10
298.3075924641162
 20
585.7025852039078
 10
298.4354924608851
 20
585.5746852071388
 10
298.4354924608851
 20
585.5746852071388
 10
298.4354924608851
 20
585.5746852071388
 10
298.4354924608851
 20
585.5746852071388
 97
        0
 92
        1
 93
        1
 72
     4
 94
        3
 73
     0
 74
     1
 95
       32
 96
       28
 40
0.0
 40
0.0
 40
0.0
 40
0.0
 40
1.0
 40
1.0
 40
1.0
 40
2.0
 40
2.0
 40
2.0
 40
3.0
 40
3.0
 40
3.0
 40
4.0
 40
4.0
 40
4.0
 40
5.0
 40
5.0
 40
5.0
 40
6.0
 40
6.0
 40
6.0
 40
7.0
 40
7.0
 40
7.0
 40
8.0
 40
8.0
 40
8.0
 40
9.0
 40
9.0
 40
9.0
 40
9.0
 10
295.5131925347087
 20
585.5746852071388
 10
295.6410925314776
 20
585.4467852103699
 10
295.7206925294668
 20
585.2700000000004
 10
295.7206925294668
 20
585.0746852197699
 10
295.7206925294668
 20
584.8788852247162
 10
295.6410925314776
 20
584.7011852292053
 10
295.5131925347087
 20
584.5731852324388
 10
295.3852925379397
 20
584.4452852356699
 10
295.208492542406
 20
584.3666852376555
 10
295.0126925473523
 20
584.3666852376555
 10
294.817392552286
 20
584.3666852376555
 10
294.640092556765
 20
584.4452852356699
 10
294.512192559996
 20
584.5731852324388
 10
294.3837925632397
 20
584.7011852292053
 10
294.3046925652379
 20
584.8788852247162
 10
294.3046925652379
 20
585.0746852197699
 10
294.3046925652379
 20
585.2700000000004
 10
294.3837925632397
 20
585.4467852103699
 10
294.512192559996
 20
585.5746852071388
 10
294.640092556765
 20
585.7025852039078
 10
294.817392552286
 20
585.7821852018969
 10
295.0126925473523
 20
585.7821852018969
 10
295.208492542406
 20
585.7821852018969
 10
295.3852925379397
 20
585.7025852039078
 10
295.5131925347087
 20
585.5746852071388
 10
295.5131925347087
 20
585.5746852071388
 10
295.5131925347087
 20
585.5746852071388
 10
295.5131925347087
 20
585.5746852071388
 97
        0
 92
        1
 93
        1
 72
     4
 94
        3
 73
     0
 74
     1
 95
       32
 96
       28
 40
0.0
 40
0.0
 40
0.0
 40
0.0
 40
1.0
 40
1.0
 40
1.0
 40
2.0
 40
2.0
 40
2.0
 40
3.0
 40
3.0
 40
3.0
 40
4.0
 40
4.0
 40
4.0
 40
5.0
 40
5.0
 40
5.0
 40
6.0
 40
6.0
 40
6.0
 40
7.0
 40
7.0
 40
7.0
 40
8.0
 40
8.0
 40
8.0
 40
9.0
 40
9.0
 40
9.0
 40
9.0
 10
292.532192610015
 20
585.5746852071388
 10
292.6605926067714
 20
585.4467852103699
 10
292.7392926047833
 20
585.2700000000004
 10
292.7392926047833
 20
585.0746852197699
 10
292.7392926047833
 20
584.8788852247162
 10
292.6605926067714
 20
584.7011852292053
 10
292.532192610015
 20
584.5731852324388
 10
292.4047926132334
 20
584.4452852356699
 10
292.2270926177225
 20
584.3666852376555
 10
292.0312926226688
 20
584.3666852376555
 10
291.8358926276051
 20
584.3666852376555
 10
291.6586926320815
 20
584.4452852356699
 10
291.5312926352999
 20
584.5731852324388
 10
291.4027926385461
 20
584.7011852292053
 10
291.323192640557
 20
584.8788852247162
 10
291.323192640557
 20
585.0746852197699
 10
291.323192640557
 20
585.2700000000004
 10
291.4027926385461
 20
585.4467852103699
 10
291.5312926352999
 20
585.5746852071388
 10
291.6586926320815
 20
585.7025852039078
 10
291.8358926276051
 20
585.7821852018969
 10
292.0312926226688
 20
585.7821852018969
 10
292.2270926177225
 20
585.7821852018969
 10
292.4047926132334
 20
585.7025852039078
 10
292.532192610015
 20
585.5746852071388
 10
292.532192610015
 20
585.5746852071388
 10
292.532192610015
 20
585.5746852071388
 10
292.532192610015
 20
585.5746852071388
 97
        0
 92
        1
 93
        1
 72
     4
 94
        3
 73
     0
 74
     1
 95
       32
 96
       28
 40
0.0
 40
0.0
 40
0.0
 40
0.0
 40
1.0
 40
1.0
 40
1.0
 40
2.0
 40
2.0
 40
2.0
 40
3.0
 40
3.0
 40
3.0
 40
4.0
 40
4.0
 40
4.0
 40
5.0
 40
5.0
 40
5.0
 40
6.0
 40
6.0
 40
6.0
 40
7.0
 40
7.0
 40
7.0
 40
8.0
 40
8.0
 40
8.0
 40
9.0
 40
9.0
 40
9.0
 40
9.0
 10
289.5614926850612
 20
585.5746852071388
 10
289.6894926818277
 20
585.4467852103699
 10
289.7690000000002
 20
585.2700000000004
 10
289.7690000000002
 20
585.0746852197699
 10
289.7690000000002
 20
584.8788852247162
 10
289.6894926818277
 20
584.7011852292053
 10
289.5614926850612
 20
584.5731852324388
 10
289.4335926882923
 20
584.4452852356699
 10
289.255392692794
 20
584.3666852376555
 10
289.0600926977277
 20
584.3666852376555
 10
288.8656927026386
 20
584.3666852376555
 10
288.6880000000001
 20
584.4452852356699
 10
288.5595927103714
 20
584.5731852324388
 10
288.4320927135923
 20
584.7011852292053
 10
288.3520927156133
 20
584.8788852247162
 10
288.3520927156133
 20
585.0746852197699
 10
288.3520927156133
 20
585.2700000000004
 10
288.4320927135923
 20
585.4467852103699
 10
288.5595927103714
 20
585.5746852071388
 10
288.6880000000001
 20
585.7025852039078
 10
288.8656927026386
 20
585.7821852018969
 10
289.0600926977277
 20
585.7821852018969
 10
289.255392692794
 20
585.7821852018969
 10
289.4335926882923
 20
585.7025852039078
 10
289.5614926850612
 20
585.5746852071388
 10
289.5614926850612
 20
585.5746852071388
 10
289.5614926850612
 20
585.5746852071388
 10
289.5614926850612
 20
585.5746852071388
 97
        0
 92
        1
 93
        1
 72
     4
 94
        3
 73
     0
 74
     1
 95
       44
 96
       40
 40
0.0
 40
0.0
 40
0.0
 40
0.0
 40
1.0
 40
1.0
 40
1.0
 40
2.0
 40
2.0
 40
2.0
 40
3.0
 40
3.0
 40
3.0
 40
4.0
 40
4.0
 40
4.0
 40
5.0
 40
5.0
 40
5.0
 40
6.0
 40
6.0
 40
6.0
 40
7.0
 40
7.0
 40
7.0
 40
8.0
 40
8.0
 40
8.0
 40
9.0
 40
9.0
 40
9.0
 40
10.0
 40
10.0
 40
10.0
 40
11.0
 40
11.0
 40
11.0
 40
12.0
 40
12.0
 40
12.0
 40
13.0
 40
13.0
 40
13.0
 40
13.0
 10
284.2597928189934
 20
588.2274851401235
 10
284.2597928189934
 20
588.2274851401235
 10
284.2616928189454
 20
588.2245851401967
 10
284.2616928189454
 20
588.2245851401967
 10
284.4228928148732
 20
588.0640000000003
 10
284.522892812347
 20
587.8393851499277
 10
284.522892812347
 20
587.5897851562331
 10
284.522892812347
 20
587.340285162536
 10
284.4228928148732
 20
587.1151851682225
 10
284.2616928189454
 20
586.9545851722796
 10
284.2616928189454
 20
586.9545851722796
 10
284.2597928189934
 20
586.9525851723301
 10
284.2597928189934
 20
586.9525851723301
 10
284.0985928230657
 20
586.7914851763999
 10
283.8744928287269
 20
586.6908851789412
 10
283.625
 20
586.6908851789412
 10
283.374492841358
 20
586.6908851789412
 10
283.1503928470192
 20
586.7914851763999
 10
282.9896928510789
 20
586.9525851723301
 10
282.9896928510789
 20
586.9525851723301
 10
282.9877928511269
 20
586.9545851722796
 10
282.9877928511269
 20
586.9545851722796
 10
282.8266928551966
 20
587.1151851682225
 10
282.7265928577253
 20
587.340285162536
 10
282.7265928577253
 20
587.5897851562331
 10
282.7265928577253
 20
587.8393851499277
 10
282.8266928551966
 20
588.0640000000003
 10
282.9877928511269
 20
588.2245851401967
 10
282.9877928511269
 20
588.2245851401967
 10
282.9896928510789
 20
588.2274851401235
 10
282.9896928510789
 20
588.2274851401235
 10
283.1503928470192
 20
588.3886851360512
 10
283.374492841358
 20
588.4877851335477
 10
283.625
 20
588.4877851335477
 10
283.8744928287269
 20
588.4877851335477
 10
284.0985928230657
 20
588.3886851360512
 10
284.2597928189934
 20
588.2274851401235
 10
284.2597928189934
 20
588.2274851401235
 10
284.2597928189934
 20
588.2274851401235
 10
284.2597928189934
 20
588.2274851401235
 97
        0
 92
        1
 93
        4
 72
     1
 10
287.4721927378414
 20
597.5453849047335
 11
289.5341926857509
 21
597.5453849047335
 72
     1
 10
289.5341926857509
 20
597.5453849047335
 11
289.5341926857509
 21
597.2792849114558
 72
     1
 10
289.5341926857509
 20
597.2792849114558
 11
287.4721927378414
 21
597.2792849114558
 72
     1
 10
287.4721927378414
 20
597.2792849114558
 11
287.4721927378414
 21
597.5453849047335
 97
        0
 92
        1
 93
        4
 72
     1
 10
287.4721927378414
 20
595.4354849580341
 11
289.5341926857509
 21
595.4354849580341
 72
     1
 10
289.5341926857509
 20
595.4354849580341
 11
289.5341926857509
 21
595.1698849647437
 72
     1
 10
289.5341926857509
 20
595.1698849647437
 11
287.4721927378414
 21
595.1698849647437
 72
     1
 10
287.4721927378414
 20
595.1698849647437
 11
287.4721927378414
 21
595.4354849580341
 97
        0
 92
        1
 93
        4
 72
     1
 10
287.4721927378414
 20
595.9433849452034
 11
289.5341926857509
 21
595.9433849452034
 72
     1
 10
289.5341926857509
 20
595.9433849452034
 11
289.5341926857509
 21
595.6771849519282
 72
     1
 10
289.5341926857509
 20
595.6771849519282
 11
287.4721927378414
 21
595.6771849519282
 72
     1
 10
287.4721927378414
 20
595.6771849519282
 11
287.4721927378414
 21
595.9433849452034
 97
        0
 92
        1
 93
        4
 72
     1
 10
287.4721927378414
 20
596.4750849317716
 11
289.5341926857509
 21
596.4750849317716
 72
     1
 10
289.5341926857509
 20
596.4750849317716
 11
289.5341926857509
 21
596.2094849384812
 72
     1
 10
289.5341926857509
 20
596.2094849384812
 11
287.4721927378414
 21
596.2094849384812
 72
     1
 10
287.4721927378414
 20
596.2094849384812
 11
287.4721927378414
 21
596.4750849317716
 97
        0
 92
        1
 93
        4
 72
     1
 10
287.4721927378414
 20
597.0141849181528
 11
289.5341926857509
 21
597.0141849181528
 72
     1
 10
289.5341926857509
 20
597.0141849181528
 11
289.5341926857509
 21
596.7484849248649
 72
     1
 10
289.5341926857509
 20
596.7484849248649
 11
287.4721927378414
 21
596.7484849248649
 72
     1
 10
287.4721927378414
 20
596.7484849248649
 11
287.4721927378414
 21
597.0141849181528
 97
        0
 92
        1
 93
        4
 72
     1
 10
296.2152925169721
 20
597.9018848957276
 11
296.2152925169721
 21
603.8612847451805
 72
     1
 10
296.2152925169721
 20
603.8612847451805
 11
301.3515923872183
 21
603.8612847451805
 72
     1
 10
301.3515923872183
 20
603.8612847451805
 11
301.3515923872183
 21
597.9018848957276
 72
     1
 10
301.3515923872183
 20
597.9018848957276
 11
296.2152925169721
 21
597.9018848957276
 97
        0
 92
        1
 93
        4
 72
     1
 10
295.0277925469709
 20
603.8612847451805
 11
295.0277925469709
 21
598.0058848931003
 72
     1
 10
295.0277925469709
 20
598.0058848931003
 11
292.9594925992205
 21
598.0058848931003
 72
     1
 10
292.9594925992205
 20
598.0058848931003
 11
292.4276926126549
 21
603.8612847451805
 72
     1
 10
292.4276926126549
 20
603.8612847451805
 11
295.0277925469709
 21
603.8612847451805
 97
        0
 92
        1
 93
        4
 72
     1
 10
291.7470926298483
 20
594.9428849704782
 11
291.7470926298483
 21
593.4428850083714
 72
     1
 10
291.7470926298483
 20
593.4428850083714
 11
282.558092861982
 21
593.4428850083714
 72
     1
 10
282.558092861982
 20
593.4428850083714
 11
282.558092861982
 21
594.9428849704782
 72
     1
 10
282.558092861982
 20
594.9428849704782
 11
291.7470926298483
 21
594.9428849704782
 97
        0
 75
     0
 76
     1
 98
        0
  0
POLYLINE
  5
8F
330
14
100
AcDbEntity
  8
Layer 1
370
     0
100
AcDb2dPolyline
 66
     1
 10
0.0
 20
0.0
 30
0.0
  0
VERTEX
  5
90
330
8F
100
AcDbEntity
  8
Layer 1
370
     0
100
AcDbVertex
100
AcDb2dVertex
 10
296.2152925169721
 20
597.9018848957276
 30
0.0
  0
VERTEX
  5
91
330
8F
100
AcDbEntity
  8
Layer 1
370
     0
100
AcDbVertex
100
AcDb2dVertex
 10
296.2152925169721
 20
603.8612847451805
 30
0.0
  0
VERTEX
  5
92
330
8F
100
AcDbEntity
  8
Layer 1
370
     0
100
AcDbVertex
100
AcDb2dVertex
 10
301.3515923872183
 20
603.8612847451805
 30
0.0
  0
VERTEX
  5
93
330
8F
100
AcDbEntity
  8
Layer 1
370
     0
100
AcDbVertex
100
AcDb2dVertex
 10
301.3515923872183
 20
597.9018848957276
 30
0.0
  0
VERTEX
  5
94
330
8F
100
AcDbEntity
  8
Layer 1
370
     0
100
AcDbVertex
100
AcDb2dVertex
 10
296.2152925169721
 20
597.9018848957276
 30
0.0
  0
VERTEX
  5
95
330
8F
100
AcDbEntity
  8
Layer 1
370
     0
100
AcDbVertex
100
AcDb2dVertex
 10
296.2152925169721
 20
597.9018848957276
 30
0.0
  0
SEQEND
  5
96
330
8F
100
AcDbEntity
  8
Layer 1
370
     0
  0
SPLINE
  5
97
330
14
100
AcDbEntity
  8
Layer 1
370
     0
100
AcDbSpline
210
0.0
220
0.0
230
1.0
 70
    11
 71
     3
 72
    32
 73
    28
 74
     0
 42
0.000000001
 43
0.0000000001
 40
0.0
 40
0.0
 40
0.0
 40
0.0
 40
1.0
 40
1.0
 40
1.0
 40
2.0
 40
2.0
 40
2.0
 40
3.0
 40
3.0
 40
3.0
 40
4.0
 40
4.0
 40
4.0
 40
5.0
 40
5.0
 40
5.0
 40
6.0
 40
6.0
 40
6.0
 40
7.0
 40
7.0
 40
7.0
 40
8.0
 40
8.0
 40
8.0
 40
9.0
 40
9.0
 40
9.0
 40
9.0
 10
298.4354924608851
 20
585.5746852071388
 30
0.0
 10
298.5634924576516
 20
585.4467852103699
 30
0.0
 10
298.6425924556534
 20
585.2700000000004
 30
0.0
 10
298.6425924556534
 20
585.0746852197699
 30
0.0
 10
298.6425924556534
 20
584.8788852247162
 30
0.0
 10
298.5634924576516
 20
584.7011852292053
 30
0.0
 10
298.4354924608851
 20
584.5731852324388
 30
0.0
 10
298.3075924641162
 20
584.4452852356699
 30
0.0
 10
298.13089246858
 20
584.3666852376555
 30
0.0
 10
297.9354924735162
 20
584.3666852376555
 30
0.0
 10
297.7401924784499
 20
584.3666852376555
 30
0.0
 10
297.562492482939
 20
584.4452852356699
 30
0.0
 10
297.43459248617
 20
584.5731852324388
 30
0.0
 10
297.3061924894137
 20
584.7011852292053
 30
0.0
 10
297.2270924914119
 20
584.8788852247162
 30
0.0
 10
297.2270924914119
 20
585.0746852197699
 30
0.0
 10
297.2270924914119
 20
585.2700000000004
 30
0.0
 10
297.3061924894137
 20
585.4467852103699
 30
0.0
 10
297.43459248617
 20
585.5746852071388
 30
0.0
 10
297.562492482939
 20
585.7025852039078
 30
0.0
 10
297.7401924784499
 20
585.7821852018969
 30
0.0
 10
297.9354924735162
 20
585.7821852018969
 30
0.0
 10
298.13089246858
 20
585.7821852018969
 30
0.0
 10
298.3075924641162
 20
585.7025852039078
 30
0.0
 10
298.4354924608851
 20
585.5746852071388
 30
0.0
 10
298.4354924608851
 20
585.5746852071388
 30
0.0
 10
298.4354924608851
 20
585.5746852071388
 30
0.0
 10
298.4354924608851
 20
585.5746852071388
 30
0.0
  0
SPLINE
  5
98
330
14
100
AcDbEntity
  8
Layer 1
370
     0
100
AcDbSpline
210
0.0
220
0.0
230
1.0
 70
    11
 71
     3
 72
    32
 73
    28
 74
     0
 42
0.000000001
 43
0.0000000001
 40
0.0
 40
0.0
 40
0.0
 40
0.0
 40
1.0
 40
1.0
 40
1.0
 40
2.0
 40
2.0
 40
2.0
 40
3.0
 40
3.0
 40
3.0
 40
4.0
 40
4.0
 40
4.0
 40
5.0
 40
5.0
 40
5.0
 40
6.0
 40
6.0
 40
6.0
 40
7.0
 40
7.0
 40
7.0
 40
8.0
 40
8.0
 40
8.0
 40
9.0
 40
9.0
 40
9.0
 40
9.0
 10
298.0722924700603
 20
588.6527851293795
 30
0.0
 10
298.132792468532
 20
588.5912851309331
 30
0.0
 10
298.1718924675442
 20
588.5072851330551
 30
0.0
 10
298.1718924675442
 20
588.4135851354222
 30
0.0
 10
298.1718924675442
 20
588.3207851377665
 30
0.0
 10
298.132792468532
 20
588.2362851399012
 30
0.0
 10
298.0722924700603
 20
588.1752851414421
 30
0.0
 10
298.0106924716165
 20
588.1142851429831
 30
0.0
 10
297.926792473736
 20
588.0761851439456
 30
0.0
 10
297.8340000000007
 20
588.0761851439456
 30
0.0
 10
297.7401924784499
 20
588.0761851439456
 30
0.0
 10
297.6562924805694
 20
588.1142851429831
 30
0.0
 10
297.5956924821003
 20
588.1752851414421
 30
0.0
 10
297.5351924836286
 20
588.2362851399012
 30
0.0
 10
297.4965924846038
 20
588.3207851377665
 30
0.0
 10
297.4965924846038
 20
588.4135851354222
 30
0.0
 10
297.4965924846038
 20
588.5072851330551
 30
0.0
 10
297.5351924836286
 20
588.5912851309331
 30
0.0
 10
297.5956924821003
 20
588.6527851293795
 30
0.0
 10
297.6562924805694
 20
588.713885127836
 30
0.0
 10
297.7401924784499
 20
588.7504851269114
 30
0.0
 10
297.8340000000007
 20
588.7504851269114
 30
0.0
 10
297.926792473736
 20
588.7504851269114
 30
0.0
 10
298.0106924716165
 20
588.713885127836
 30
0.0
 10
298.0722924700603
 20
588.6527851293795
 30
0.0
 10
298.0722924700603
 20
588.6527851293795
 30
0.0
 10
298.0722924700603
 20
588.6527851293795
 30
0.0
 10
298.0722924700603
 20
588.6527851293795
 30
0.0
  0
SPLINE
  5
99
330
14
100
AcDbEntity
  8
Layer 1
370
     0
100
AcDbSpline
210
0.0
220
0.0
230
1.0
 70
    11
 71
     3
 72
   251
 73
   247
 74
     0
 42
0.000000001
 43
0.0000000001
 40
0.0
 40
0.0
 40
0.0
 40
0.0
 40
1.0
 40
1.0
 40
1.0
 40
2.0
 40
2.0
 40
2.0
 40
3.0
 40
3.0
 40
3.0
 40
4.0
 40
4.0
 40
4.0
 40
5.0
 40
5.0
 40
5.0
 40
6.0
 40
6.0
 40
6.0
 40
7.0
 40
7.0
 40
7.0
 40
8.0
 40
8.0
 40
8.0
 40
9.0
 40
9.0
 40
9.0
 40
10.0
 40
10.0
 40
10.0
 40
11.0
 40
11.0
 40
11.0
 40
12.0
 40
12.0
 40
12.0
 40
13.0
 40
13.0
 40
13.0
 40
14.0
 40
14.0
 40
14.0
 40
15.0
 40
15.0
 40
15.0
 40
16.0
 40
16.0
 40
16.0
 40
17.0
 40
17.0
 40
17.0
 40
18.0
 40
18.0
 40
18.0
 40
19.0
 40
19.0
 40
19.0
 40
20.0
 40
20.0
 40
20.0
 40
21.0
 40
21.0
 40
21.0
 40
22.0
 40
22.0
 40
22.0
 40
23.0
 40
23.0
 40
23.0
 40
24.0
 40
24.0
 40
24.0
 40
25.0
 40
25.0
 40
25.0
 40
26.0
 40
26.0
 40
26.0
 40
27.0
 40
27.0
 40
27.0
 40
28.0
 40
28.0
 40
28.0
 40
29.0
 40
29.0
 40
29.0
 40
30.0
 40
30.0
 40
30.0
 40
31.0
 40
31.0
 40
31.0
 40
32.0
 40
32.0
 40
32.0
 40
33.0
 40
33.0
 40
33.0
 40
34.0
 40
34.0
 40
34.0
 40
35.0
 40
35.0
 40
35.0
 40
36.0
 40
36.0
 40
36.0
 40
37.0
 40
37.0
 40
37.0
 40
38.0
 40
38.0
 40
38.0
 40
39.0
 40
39.0
 40
39.0
 40
40.0
 40
40.0
 40
40.0
 40
41.0
 40
41.0
 40
41.0
 40
42.0
 40
42.0
 40
42.0
 40
43.0
 40
43.0
 40
43.0
 40
44.0
 40
44.0
 40
44.0
 40
45.0
 40
45.0
 40
45.0
 40
46.0
 40
46.0
 40
46.0
 40
47.0
 40
47.0
 40
47.0
 40
48.0
 40
48.0
 40
48.0
 40
49.0
 40
49.0
 40
49.0
 40
50.0
 40
50.0
 40
50.0
 40
51.0
 40
51.0
 40
51.0
 40
52.0
 40
52.0
 40
52.0
 40
53.0
 40
53.0
 40
53.0
 40
54.0
 40
54.0
 40
54.0
 40
55.0
 40
55.0
 40
55.0
 40
56.0
 40
56.0
 40
56.0
 40
57.0
 40
57.0
 40
57.0
 40
58.0
 40
58.0
 40
58.0
 40
59.0
 40
59.0
 40
59.0
 40
60.0
 40
60.0
 40
60.0
 40
61.0
 40
61.0
 40
61.0
 40
62.0
 40
62.0
 40
62.0
 40
63.0
 40
63.0
 40
63.0
 40
64.0
 40
64.0
 40
64.0
 40
65.0
 40
65.0
 40
65.0
 40
66.0
 40
66.0
 40
66.0
 40
67.0
 40
67.0
 40
67.0
 40
68.0
 40
68.0
 40
68.0
 40
69.0
 40
69.0
 40
69.0
 40
70.0
 40
70.0
 40
70.0
 40
71.0
 40
71.0
 40
71.0
 40
72.0
 40
72.0
 40
72.0
 40
73.0
 40
73.0
 40
73.0
 40
74.0
 40
74.0
 40
74.0
 40
75.0
 40
75.0
 40
75.0
 40
76.0
 40
76.0
 40
76.0
 40
77.0
 40
77.0
 40
77.0
 40
78.0
 40
78.0
 40
78.0
 40
79.0
 40
79.0
 40
79.0
 40
80.0
 40
80.0
 40
80.0
 40
81.0
 40
81.0
 40
81.0
 40
82.0
 40
82.0
 40
82.0
 40
82.0
 10
301.5780923814964
 20
586.2436851902385
 30
0.0
 10
301.3515923872183
 20
586.3993851863052
 30
0.0
 10
301.0761923941755
 20
586.4906851839987
 30
0.0
 10
300.7792924016758
 20
586.4906851839987
 30
0.0
 10
300.3886924115432
 20
586.4906851839987
 30
0.0
 10
300.0331924205238
 20
586.3314851880205
 30
0.0
 10
299.7772924269884
 20
586.0756851944825
 30
0.0
 10
299.5214924334505
 20
585.8192852009597
 30
0.0
 10
299.3632924374469
 20
585.4652852099025
 30
0.0
 10
299.3632924374469
 20
585.0746852197699
 30
0.0
 10
299.3632924374469
 20
584.6825852296752
 30
0.0
 10
299.5214924334505
 20
584.328585238618
 30
0.0
 10
299.7772924269884
 20
584.0722852450926
 30
0.0
 10
299.7968924264933
 20
584.0531852455752
 30
0.0
 10
299.8163924260007
 20
584.0346852460425
 30
0.0
 10
299.8358924255081
 20
584.0160852465124
 30
0.0
 10
299.8358924255081
 20
584.0160852465124
 30
0.0
 10
298.8788924496839
 20
584.0160852465124
 30
0.0
 10
298.8788924496839
 20
584.0160852465124
 30
0.0
 10
298.8983924491913
 20
584.0346852460425
 30
0.0
 10
298.9179999999997
 20
584.0531852455752
 30
0.0
 10
298.9364924482288
 20
584.0722852450926
 30
0.0
 10
299.193392441739
 20
584.328585238618
 30
0.0
 10
299.3515924377425
 20
584.6825852296752
 30
0.0
 10
299.3515924377425
 20
585.0746852197699
 30
0.0
 10
299.3515924377425
 20
585.4652852099025
 30
0.0
 10
299.193392441739
 20
585.8192852009597
 30
0.0
 10
298.9364924482288
 20
586.0756851944825
 30
0.0
 10
298.6796924547161
 20
586.3314851880205
 30
0.0
 10
298.3261924636463
 20
586.4906851839987
 30
0.0
 10
297.9354924735162
 20
586.4906851839987
 30
0.0
 10
297.5438924834089
 20
586.4906851839987
 30
0.0
 10
297.1890000000003
 20
586.3314851880205
 30
0.0
 10
296.9335924988263
 20
586.0756851944825
 30
0.0
 10
296.6767925053136
 20
585.8192852009597
 30
0.0
 10
296.5185925093101
 20
585.4652852099025
 30
0.0
 10
296.5185925093101
 20
585.0746852197699
 30
0.0
 10
296.5185925093101
 20
584.6825852296752
 30
0.0
 10
296.6767925053136
 20
584.328585238618
 30
0.0
 10
296.9335924988263
 20
584.0722852450926
 30
0.0
 10
296.9516924983691
 20
584.0531852455752
 30
0.0
 10
296.9721924978512
 20
584.0346852460425
 30
0.0
 10
296.9916924973586
 20
584.0160852465124
 30
0.0
 10
296.9916924973586
 20
584.0160852465124
 30
0.0
 10
295.9550925235453
 20
584.0160852465124
 30
0.0
 10
295.9550925235453
 20
584.0160852465124
 30
0.0
 10
295.9755925230274
 20
584.0346852460425
 30
0.0
 10
295.9945925225475
 20
584.0531852455752
 30
0.0
 10
296.0145925220422
 20
584.0722852450926
 30
0.0
 10
296.2709999999997
 20
584.328585238618
 30
0.0
 10
296.4296925115559
 20
584.6825852296752
 30
0.0
 10
296.4296925115559
 20
585.0746852197699
 30
0.0
 10
296.4296925115559
 20
585.4652852099025
 30
0.0
 10
296.2709999999997
 20
585.8192852009597
 30
0.0
 10
296.0145925220422
 20
586.0756851944825
 30
0.0
 10
295.7577925285295
 20
586.3314851880205
 30
0.0
 10
295.4037925374723
 20
586.4906851839987
 30
0.0
 10
295.0126925473523
 20
586.4906851839987
 30
0.0
 10
294.621092557245
 20
586.4906851839987
 30
0.0
 10
294.2670925661878
 20
586.3314851880205
 30
0.0
 10
294.0111925726524
 20
586.0756851944825
 30
0.0
 10
293.754892579127
 20
585.8192852009597
 30
0.0
 10
293.5961925831361
 20
585.4652852099025
 30
0.0
 10
293.5961925831361
 20
585.0746852197699
 30
0.0
 10
293.5961925831361
 20
584.6825852296752
 30
0.0
 10
293.754892579127
 20
584.328585238618
 30
0.0
 10
294.0111925726524
 20
584.0722852450926
 30
0.0
 10
294.0297925721825
 20
584.0531852455752
 30
0.0
 10
294.0502925716646
 20
584.0346852460425
 30
0.0
 10
294.069792571172
 20
584.0160852465124
 30
0.0
 10
294.069792571172
 20
584.0160852465124
 30
0.0
 10
292.9745925988391
 20
584.0160852465124
 30
0.0
 10
292.9745925988391
 20
584.0160852465124
 30
0.0
 10
292.9950925983212
 20
584.0346852460425
 30
0.0
 10
293.0141925978387
 20
584.0531852455752
 30
0.0
 10
293.0326925973714
 20
584.0722852450926
 30
0.0
 10
293.2895925908815
 20
584.328585238618
 30
0.0
 10
293.447792586885
 20
584.6825852296752
 30
0.0
 10
293.447792586885
 20
585.0746852197699
 30
0.0
 10
293.447792586885
 20
585.4652852099025
 30
0.0
 10
293.2895925908815
 20
585.8192852009597
 30
0.0
 10
293.0326925973714
 20
586.0756851944825
 30
0.0
 10
292.7772926038233
 20
586.3314851880205
 30
0.0
 10
292.4232926127661
 20
586.4906851839987
 30
0.0
 10
292.0312926226688
 20
586.4906851839987
 30
0.0
 10
291.6400926325514
 20
586.4906851839987
 30
0.0
 10
291.2860926414942
 20
586.3314851880205
 30
0.0
 10
291.0297926479689
 20
586.0756851944825
 30
0.0
 10
290.7738926544334
 20
585.8192852009597
 30
0.0
 10
290.6142926584653
 20
585.4652852099025
 30
0.0
 10
290.6142926584653
 20
585.0746852197699
 30
0.0
 10
290.6142926584653
 20
584.6825852296752
 30
0.0
 10
290.7738926544334
 20
584.328585238618
 30
0.0
 10
291.0297926479689
 20
584.0722852450926
 30
0.0
 10
291.0492926474762
 20
584.0531852455752
 30
0.0
 10
291.0683926469937
 20
584.0346852460425
 30
0.0
 10
291.0888926464759
 20
584.0160852465124
 30
0.0
 10
291.0888926464759
 20
584.0160852465124
 30
0.0
 10
290.0033926738979
 20
584.0160852465124
 30
0.0
 10
290.0033926738979
 20
584.0160852465124
 30
0.0
 10
290.0233926733927
 20
584.0346852460425
 30
0.0
 10
290.0429999999997
 20
584.0531852455752
 30
0.0
 10
290.0624926724049
 20
584.0722852450926
 30
0.0
 10
290.3183926659403
 20
584.328585238618
 30
0.0
 10
290.4774926619211
 20
584.6825852296752
 30
0.0
 10
290.4774926619211
 20
585.0746852197699
 30
0.0
 10
290.4774926619211
 20
585.4652852099025
 30
0.0
 10
290.3183926659403
 20
585.8192852009597
 30
0.0
 10
290.0624926724049
 20
586.0756851944825
 30
0.0
 10
289.8056926788922
 20
586.3314851880205
 30
0.0
 10
289.451692687835
 20
586.4906851839987
 30
0.0
 10
289.0600926977277
 20
586.4906851839987
 30
0.0
 10
288.6688927076102
 20
586.4906851839987
 30
0.0
 10
288.3153927165404
 20
586.3314851880205
 30
0.0
 10
288.0585927230277
 20
586.0756851944825
 30
0.0
 10
287.8026927294923
 20
585.8192852009597
 30
0.0
 10
287.6435927335115
 20
585.4652852099025
 30
0.0
 10
287.6435927335115
 20
585.0746852197699
 30
0.0
 10
287.6435927335115
 20
584.6825852296752
 30
0.0
 10
287.8026927294923
 20
584.328585238618
 30
0.0
 10
288.0585927230277
 20
584.0722852450926
 30
0.0
 10
288.0780927225351
 20
584.0531852455752
 30
0.0
 10
288.0971927220526
 20
584.0346852460425
 30
0.0
 10
288.1176927215347
 20
584.0160852465124
 30
0.0
 10
288.1176927215347
 20
584.0160852465124
 30
0.0
 10
286.9882927500657
 20
584.0160852465124
 30
0.0
 10
286.9882927500657
 20
584.0160852465124
 30
0.0
 10
287.0087927495479
 20
584.0346852460425
 30
0.0
 10
287.0277927490679
 20
584.0531852455752
 30
0.0
 10
287.0478927485601
 20
584.0722852450926
 30
0.0
 10
287.3046927420728
 20
584.328585238618
 30
0.0
 10
287.4628927380763
 20
584.6825852296752
 30
0.0
 10
287.4628927380763
 20
585.0746852197699
 30
0.0
 10
287.4628927380763
 20
585.4652852099025
 30
0.0
 10
287.3046927420728
 20
585.8192852009597
 30
0.0
 10
287.0478927485601
 20
586.0756851944825
 30
0.0
 10
286.7910000000002
 20
586.3314851880205
 30
0.0
 10
286.4369999999999
 20
586.4906851839987
 30
0.0
 10
286.0463927738601
 20
586.4906851839987
 30
0.0
 10
285.6547927837528
 20
586.4906851839987
 30
0.0
 10
285.3002927927082
 20
586.3314851880205
 30
0.0
 10
285.0443927991728
 20
586.0756851944825
 30
0.0
 10
284.7880928056475
 20
585.8192852009597
 30
0.0
 10
284.6293928096566
 20
585.4652852099025
 30
0.0
 10
284.6293928096566
 20
585.0746852197699
 30
0.0
 10
284.6293928096566
 20
584.6825852296752
 30
0.0
 10
284.7880928056475
 20
584.328585238618
 30
0.0
 10
285.0443927991728
 20
584.0722852450926
 30
0.0
 10
285.0443927991728
 20
584.0722852450926
 30
0.0
 10
285.0482927990743
 20
584.0678852452038
 30
0.0
 10
285.0482927990743
 20
584.0678852452038
 30
0.0
 10
284.7738928060062
 20
584.1283852436754
 30
0.0
 10
284.5893928106671
 20
584.2572852404192
 30
0.0
 10
284.3495928167249
 20
584.5312852334973
 30
0.0
 10
284.3495928167249
 20
584.5312852334973
 30
0.0
 10
283.3729999999996
 20
585.6440000000002
 30
0.0
 10
283.3729999999996
 20
585.6440000000002
 30
0.0
 10
283.4555928393092
 20
585.6342852056332
 30
0.0
 10
283.5390928371999
 20
585.6283852057823
 30
0.0
 10
283.625
 20
585.6283852057823
 30
0.0
 10
284.1635928214237
 20
585.6283852057823
 30
0.0
 10
284.6532928090528
 20
585.8480852002322
 30
0.0
 10
285.0092928000595
 20
586.2030851912641
 30
0.0
 10
285.0092928000595
 20
586.2030851912641
 30
0.0
 10
285.0102928000342
 20
586.2035851912515
 30
0.0
 10
285.0102928000342
 20
586.2035851912515
 30
0.0
 10
285.0102928000342
 20
586.2035851912515
 30
0.0
 10
285.0106928000241
 20
586.2045851912262
 30
0.0
 10
285.0106928000241
 20
586.2045851912262
 30
0.0
 10
285.3671927910182
 20
586.5614851822102
 30
0.0
 10
285.5863927854807
 20
587.0507851698494
 30
0.0
 10
285.5863927854807
 20
587.5897851562331
 30
0.0
 10
285.5863927854807
 20
588.1288851426143
 30
0.0
 10
285.3671927910182
 20
588.6181851302536
 30
0.0
 10
285.0106928000241
 20
588.9740851212628
 30
0.0
 10
285.0106928000241
 20
588.9740851212628
 30
0.0
 10
285.0102928000342
 20
588.9755851212249
 30
0.0
 10
285.0102928000342
 20
588.9755851212249
 30
0.0
 10
285.0102928000342
 20
588.9755851212249
 30
0.0
 10
285.0092928000595
 20
588.977085121187
 30
0.0
 10
285.0092928000595
 20
588.977085121187
 30
0.0
 10
285.0092928000595
 20
588.977085121187
 30
0.0
 10
284.9892928005647
 20
588.996085120707
 30
0.0
 10
284.9892928005647
 20
588.996085120707
 30
0.0
 10
284.9892928005647
 20
588.996085120707
 30
0.0
 10
287.5253927364975
 20
588.996085120707
 30
0.0
 10
287.5253927364975
 20
588.996085120707
 30
0.0
 10
287.4135927393218
 20
588.8295851249131
 30
0.0
 10
287.3490927409512
 20
588.6293851299706
 30
0.0
 10
287.3490927409512
 20
588.4135851354222
 30
0.0
 10
287.3490927409512
 20
588.1254851427002
 30
0.0
 10
287.4652927380157
 20
587.8632851493239
 30
0.0
 10
287.6552927332159
 20
587.6742851540985
 30
0.0
 10
287.8441927284439
 20
587.4853851588705
 30
0.0
 10
288.1059999999998
 20
587.3671851618565
 30
0.0
 10
288.3944927145421
 20
587.3671851618565
 30
0.0
 10
288.6830927072515
 20
587.3671851618565
 30
0.0
 10
288.9452927006278
 20
587.4853851588705
 30
0.0
 10
289.1337926958658
 20
587.6742851540985
 30
0.0
 10
289.3231926910812
 20
587.8632851493239
 30
0.0
 10
289.4408926881079
 20
588.1254851427002
 30
0.0
 10
289.4408926881079
 20
588.4135851354222
 30
0.0
 10
289.4408926881079
 20
588.6293851299706
 30
0.0
 10
289.375
 20
588.8295851249131
 30
0.0
 10
289.2641926925717
 20
588.996085120707
 30
0.0
 10
289.2641926925717
 20
588.996085120707
 30
0.0
 10
296.9647924980382
 20
588.996085120707
 30
0.0
 10
296.9647924980382
 20
588.996085120707
 30
0.0
 10
296.8530000000001
 20
588.8295851249131
 30
0.0
 10
296.788092502502
 20
588.6293851299706
 30
0.0
 10
296.788092502502
 20
588.4135851354222
 30
0.0
 10
296.788092502502
 20
588.1254851427002
 30
0.0
 10
296.9047924995539
 20
587.8632851493239
 30
0.0
 10
297.0937924947793
 20
587.6742851540985
 30
0.0
 10
297.2836924899821
 20
587.4853851588705
 30
0.0
 10
297.5448924833836
 20
587.3671851618565
 30
0.0
 10
297.8340000000007
 20
587.3671851618565
 30
0.0
 10
298.1220924688023
 20
587.3671851618565
 30
0.0
 10
298.3847924621659
 20
587.4853851588705
 30
0.0
 10
298.5741924573813
 20
587.6742851540985
 30
0.0
 10
298.7616924526446
 20
587.8632851493239
 30
0.0
 10
298.8798924496587
 20
588.1254851427002
 30
0.0
 10
298.8798924496587
 20
588.4135851354222
 30
0.0
 10
298.8798924496587
 20
588.6293851299706
 30
0.0
 10
298.8144924513108
 20
588.8295851249131
 30
0.0
 10
298.703092454125
 20
588.996085120707
 30
0.0
 10
298.703092454125
 20
588.996085120707
 30
0.0
 10
301.6386923799655
 20
588.996085120707
 30
0.0
 10
301.6386923799655
 20
588.996085120707
 30
0.0
 10
301.6386923799655
 20
588.996085120707
 30
0.0
 10
301.6190923804606
 20
588.977085121187
 30
0.0
 10
301.6190923804606
 20
588.977085121187
 30
0.0
 10
301.6190923804606
 20
588.977085121187
 30
0.0
 10
301.6171923805086
 20
588.9755851212249
 30
0.0
 10
301.6171923805086
 20
588.9755851212249
 30
0.0
 10
301.6171923805086
 20
588.9755851212249
 30
0.0
 10
301.6151923805592
 20
588.9740851212628
 30
0.0
 10
301.6151923805592
 20
588.9740851212628
 30
0.0
 10
301.2616923894893
 20
588.6181851302536
 30
0.0
 10
301.0409999999993
 20
588.1288851426143
 30
0.0
 10
301.0409999999993
 20
587.5897851562331
 30
0.0
 10
301.0409999999993
 20
587.0697851693694
 30
0.0
 10
301.2460923898834
 20
586.5956851813462
 30
0.0
 10
301.5780923814964
 20
586.2436851902385
 30
0.0
 10
301.5780923814964
 20
586.2436851902385
 30
0.0
 10
301.5780923814964
 20
586.2436851902385
 30
0.0
 10
301.5780923814964
 20
586.2436851902385
 30
0.0
  0
SPLINE
  5
9A
330
14
100
AcDbEntity
  8
Layer 1
370
     0
100
AcDbSpline
210
0.0
220
0.0
230
1.0
 70
    11
 71
     3
 72
    74
 73
    70
 74
     0
 42
0.000000001
 43
0.0000000001
 40
0.0
 40
0.0
 40
0.0
 40
0.0
 40
1.0
 40
1.0
 40
1.0
 40
2.0
 40
2.0
 40
2.0
 40
3.0
 40
3.0
 40
3.0
 40
4.0
 40
4.0
 40
4.0
 40
5.0
 40
5.0
 40
5.0
 40
6.0
 40
6.0
 40
6.0
 40
7.0
 40
7.0
 40
7.0
 40
8.0
 40
8.0
 40
8.0
 40
9.0
 40
9.0
 40
9.0
 40
10.0
 40
10.0
 40
10.0
 40
11.0
 40
11.0
 40
11.0
 40
12.0
 40
12.0
 40
12.0
 40
13.0
 40
13.0
 40
13.0
 40
14.0
 40
14.0
 40
14.0
 40
15.0
 40
15.0
 40
15.0
 40
16.0
 40
16.0
 40
16.0
 40
17.0
 40
17.0
 40
17.0
 40
18.0
 40
18.0
 40
18.0
 40
19.0
 40
19.0
 40
19.0
 40
20.0
 40
20.0
 40
20.0
 40
21.0
 40
21.0
 40
21.0
 40
22.0
 40
22.0
 40
22.0
 40
23.0
 40
23.0
 40
23.0
 40
23.0
 10
283.0145928504498
 20
589.7045851028088
 30
0.0
 10
283.0145928504498
 20
589.7045851028088
 30
0.0
 10
303.6503923291457
 20
589.7045851028088
 30
0.0
 10
303.6503923291457
 20
589.7045851028088
 30
0.0
 10
303.6503923291457
 20
589.7045851028088
 30
0.0
 10
303.6640923287996
 20
589.7045851028088
 30
0.0
 10
303.6640923287996
 20
589.7045851028088
 30
0.0
 10
303.6640923287996
 20
589.7045851028088
 30
0.0
 10
303.6962923279862
 20
589.701685102882
 30
0.0
 10
303.6962923279862
 20
589.701685102882
 30
0.0
 10
304.2070000000003
 20
589.6337851045973
 30
0.0
 10
304.6210923046237
 20
589.421385109963
 30
0.0
 10
304.9159999999993
 20
589.1166851176604
 30
0.0
 10
305.1054922923868
 20
588.9184851226673
 30
0.0
 10
305.2460922888349
 20
588.683085128614
 30
0.0
 10
305.3280922867634
 20
588.4237851351645
 30
0.0
 10
305.4071922847652
 20
588.1688851416038
 30
0.0
 10
305.4296922841968
 20
587.8910851486216
 30
0.0
 10
305.3935922851088
 20
587.6024851559123
 30
0.0
 10
305.3241922868619
 20
587.081085169084
 30
0.0
 10
305.0497922937939
 20
586.5287851830362
 30
0.0
 10
304.536092306771
 20
586.0331851955561
 30
0.0
 10
304.536092306771
 20
586.0331851955561
 30
0.0
 10
302.5907923559134
 20
584.0966852444762
 30
0.0
 10
302.5907923559134
 20
584.0966852444762
 30
0.0
 10
302.2323923649674
 20
583.7401852534822
 30
0.0
 10
301.8925923735515
 20
583.5429999999997
 30
0.0
 10
301.5097923832218
 20
583.4325852612528
 30
0.0
 10
301.1415923925233
 20
583.3261852639407
 30
0.0
 10
300.7587924021936
 20
583.3075852644106
 30
0.0
 10
300.2890924140593
 20
583.3075852644106
 30
0.0
 10
300.2890924140593
 20
583.3075852644106
 30
0.0
 10
286.1815927704447
 20
583.3075852644106
 30
0.0
 10
286.1815927704447
 20
583.3075852644106
 30
0.0
 10
286.1815927704447
 20
583.3075852644106
 30
0.0
 10
286.0829999999996
 20
583.3075852644106
 30
0.0
 10
286.0829999999996
 20
583.3075852644106
 30
0.0
 10
286.0829999999996
 20
583.3075852644106
 30
0.0
 10
286.0829999999996
 20
583.3090852643727
 30
0.0
 10
286.0829999999996
 20
583.3090852643727
 30
0.0
 10
284.8002928053393
 20
583.3085852643853
 30
0.0
 10
284.4823928133701
 20
583.3085852643853
 30
0.0
 10
283.8178928301568
 20
584.0663852452417
 30
0.0
 10
283.8178928301568
 20
584.0663852452417
 30
0.0
 10
282.155792872145
 20
585.9608851973826
 30
0.0
 10
282.155792872145
 20
585.9608851973826
 30
0.0
 10
282.155792872145
 20
585.9608851973826
 30
0.0
 10
282.1425928724784
 20
585.9770851969733
 30
0.0
 10
282.1425928724784
 20
585.9770851969733
 30
0.0
 10
281.8130000000001
 20
586.3983851863304
 30
0.0
 10
281.613792885837
 20
586.8432851750913
 30
0.0
 10
281.5272928880222
 20
587.2728851642387
 30
0.0
 10
281.4433928901417
 20
587.6898851537044
 30
0.0
 10
281.4662928895632
 20
588.0917851435515
 30
0.0
 10
281.579592886701
 20
588.4472851345708
 30
0.0
 10
281.6947928837908
 20
588.8140000000003
 30
0.0
 10
281.9086928783872
 20
589.1288851173522
 30
0.0
 10
282.1981928710738
 20
589.3559999999998
 30
0.0
 10
282.4096928657309
 20
589.5219999999999
 30
0.0
 10
282.6605928593926
 20
589.6400851044382
 30
0.0
 10
282.9462928521752
 20
589.6967851030058
 30
0.0
 10
282.9462928521752
 20
589.6967851030058
 30
0.0
 10
282.9867928511521
 20
589.7045851028088
 30
0.0
 10
282.9867928511521
 20
589.7045851028088
 30
0.0
 10
282.9867928511521
 20
589.7045851028088
 30
0.0
 10
283.0145928504498
 20
589.7045851028088
 30
0.0
 10
283.0145928504498
 20
589.7045851028088
 30
0.0
 10
283.0145928504498
 20
589.7045851028088
 30
0.0
 10
283.0145928504498
 20
589.7045851028088
 30
0.0
 10
283.0145928504498
 20
589.7045851028088
 30
0.0
  0
SPLINE
  5
9B
330
14
100
AcDbEntity
  8
Layer 1
370
     0
100
AcDbSpline
210
0.0
220
0.0
230
1.0
 70
    11
 71
     3
 72
   140
 73
   136
 74
     0
 42
0.000000001
 43
0.0000000001
 40
0.0
 40
0.0
 40
0.0
 40
0.0
 40
1.0
 40
1.0
 40
1.0
 40
2.0
 40
2.0
 40
2.0
 40
3.0
 40
3.0
 40
3.0
 40
4.0
 40
4.0
 40
4.0
 40
5.0
 40
5.0
 40
5.0
 40
6.0
 40
6.0
 40
6.0
 40
7.0
 40
7.0
 40
7.0
 40
8.0
 40
8.0
 40
8.0
 40
9.0
 40
9.0
 40
9.0
 40
10.0
 40
10.0
 40
10.0
 40
11.0
 40
11.0
 40
11.0
 40
12.0
 40
12.0
 40
12.0
 40
13.0
 40
13.0
 40
13.0
 40
14.0
 40
14.0
 40
14.0
 40
15.0
 40
15.0
 40
15.0
 40
16.0
 40
16.0
 40
16.0
 40
17.0
 40
17.0
 40
17.0
 40
18.0
 40
18.0
 40
18.0
 40
19.0
 40
19.0
 40
19.0
 40
20.0
 40
20.0
 40
20.0
 40
21.0
 40
21.0
 40
21.0
 40
22.0
 40
22.0
 40
22.0
 40
23.0
 40
23.0
 40
23.0
 40
24.0
 40
24.0
 40
24.0
 40
25.0
 40
25.0
 40
25.0
 40
26.0
 40
26.0
 40
26.0
 40
27.0
 40
27.0
 40
27.0
 40
28.0
 40
28.0
 40
28.0
 40
29.0
 40
29.0
 40
29.0
 40
30.0
 40
30.0
 40
30.0
 40
31.0
 40
31.0
 40
31.0
 40
32.0
 40
32.0
 40
32.0
 40
33.0
 40
33.0
 40
33.0
 40
34.0
 40
34.0
 40
34.0
 40
35.0
 40
35.0
 40
35.0
 40
36.0
 40
36.0
 40
36.0
 40
37.0
 40
37.0
 40
37.0
 40
38.0
 40
38.0
 40
38.0
 40
39.0
 40
39.0
 40
39.0
 40
40.0
 40
40.0
 40
40.0
 40
41.0
 40
41.0
 40
41.0
 40
42.0
 40
42.0
 40
42.0
 40
43.0
 40
43.0
 40
43.0
 40
44.0
 40
44.0
 40
44.0
 40
45.0
 40
45.0
 40
45.0
 40
45.0
 10
307.6181922289106
 20
591.6239999999998
 30
0.0
 10
307.6181922289106
 20
591.6239999999998
 30
0.0
 10
303.7520000000004
 20
591.6239999999998
 30
0.0
 10
303.7520000000004
 20
591.6239999999998
 30
0.0
 10
303.7520000000004
 20
591.6239999999998
 30
0.0
 10
303.7520000000004
 20
597.1928849136384
 30
0.0
 10
303.7520000000004
 20
597.1928849136384
 30
0.0
 10
303.7520000000004
 20
597.1928849136384
 30
0.0
 10
302.7694923513991
 20
597.1928849136384
 30
0.0
 10
302.7694923513991
 20
597.1928849136384
 30
0.0
 10
302.7694923513991
 20
597.1928849136384
 30
0.0
 10
302.7694923513991
 20
604.2152847362377
 30
0.0
 10
302.7694923513991
 20
604.2152847362377
 30
0.0
 10
302.7694923513991
 20
604.2152847362377
 30
0.0
 10
303.2636923389146
 20
604.2152847362377
 30
0.0
 10
303.2636923389146
 20
604.2152847362377
 30
0.0
 10
303.2636923389146
 20
604.2152847362377
 30
0.0
 10
303.2636923389146
 20
606.5497846772632
 30
0.0
 10
303.2636923389146
 20
606.5497846772632
 30
0.0
 10
303.2636923389146
 20
606.5497846772632
 30
0.0
 10
294.1444925692849
 20
606.5497846772632
 30
0.0
 10
294.1444925692849
 20
606.5497846772632
 30
0.0
 10
294.1444925692849
 20
606.5497846772632
 30
0.0
 10
290.2460926677668
 20
605.4262847056452
 30
0.0
 10
290.2460926677668
 20
605.4262847056452
 30
0.0
 10
290.2460926677668
 20
605.4262847056452
 30
0.0
 10
290.2460926677668
 20
604.2152847362377
 30
0.0
 10
290.2460926677668
 20
604.2152847362377
 30
0.0
 10
290.2460926677668
 20
604.2152847362377
 30
0.0
 10
290.9780000000001
 20
604.2152847362377
 30
0.0
 10
290.9780000000001
 20
604.2152847362377
 30
0.0
 10
290.9780000000001
 20
604.2152847362377
 30
0.0
 10
291.5410000000002
 20
598.0058848931003
 30
0.0
 10
291.5410000000002
 20
598.0058848931003
 30
0.0
 10
291.5410000000002
 20
598.0058848931003
 30
0.0
 10
285.1205927972478
 20
598.0058848931003
 30
0.0
 10
285.1205927972478
 20
598.0058848931003
 30
0.0
 10
285.1205927972478
 20
598.0058848931003
 30
0.0
 10
285.1205927972478
 20
600.1317848393956
 30
0.0
 10
285.1205927972478
 20
600.1317848393956
 30
0.0
 10
285.1205927972478
 20
600.1317848393956
 30
0.0
 10
284.6044928102856
 20
600.1317848393956
 30
0.0
 10
284.6044928102856
 20
600.1317848393956
 30
0.0
 10
284.6044928102856
 20
600.1317848393956
 30
0.0
 10
284.6044928102856
 20
602.5927847772255
 30
0.0
 10
284.6044928102856
 20
602.5927847772255
 30
0.0
 10
284.6044928102856
 20
602.5927847772255
 30
0.0
 10
286.0630000000001
 20
603.5292847535675
 30
0.0
 10
286.0630000000001
 20
603.5292847535675
 30
0.0
 10
286.0630000000001
 20
603.5292847535675
 30
0.0
 10
285.4896927879236
 20
604.4228847309932
 30
0.0
 10
285.4896927879236
 20
604.4228847309932
 30
0.0
 10
285.4896927879236
 20
604.4228847309932
 30
0.0
 10
283.7860928309601
 20
603.3285847586376
 30
0.0
 10
283.7860928309601
 20
603.3285847586376
 30
0.0
 10
283.7860928309601
 20
603.3285847586376
 30
0.0
 10
283.5420000000004
 20
603.1708847626214
 30
0.0
 10
283.5420000000004
 20
603.1708847626214
 30
0.0
 10
283.5420000000004
 20
603.1708847626214
 30
0.0
 10
283.5420000000004
 20
602.8817847699247
 30
0.0
 10
283.5420000000004
 20
602.8817847699247
 30
0.0
 10
283.5420000000004
 20
602.8817847699247
 30
0.0
 10
283.5420000000004
 20
600.1317848393956
 30
0.0
 10
283.5420000000004
 20
600.1317848393956
 30
0.0
 10
283.5420000000004
 20
600.1317848393956
 30
0.0
 10
283.025392850177
 20
600.1317848393956
 30
0.0
 10
283.025392850177
 20
600.1317848393956
 30
0.0
 10
283.025392850177
 20
600.1317848393956
 30
0.0
 10
283.025392850177
 20
598.0058848931003
 30
0.0
 10
283.025392850177
 20
598.0058848931003
 30
0.0
 10
283.025392850177
 20
598.0058848931003
 30
0.0
 10
282.0575928746257
 20
598.0058848931003
 30
0.0
 10
282.0575928746257
 20
598.0058848931003
 30
0.0
 10
282.0575928746257
 20
598.0058848931003
 30
0.0
 10
278.1820929725291
 20
597.2973849109985
 30
0.0
 10
278.1820929725291
 20
597.2973849109985
 30
0.0
 10
278.1820929725291
 20
597.2973849109985
 30
0.0
 10
278.1820929725291
 20
589.2538851141944
 30
0.0
 10
278.1820929725291
 20
589.2538851141944
 30
0.0
 10
278.1820929725291
 20
589.2538851141944
 30
0.0
 10
276.744093008856
 20
589.2538851141944
 30
0.0
 10
276.744093008856
 20
589.2538851141944
 30
0.0
 10
276.744093008856
 20
589.2538851141944
 30
0.0
 10
276.744093008856
 20
586.6908851789412
 30
0.0
 10
276.744093008856
 20
586.6908851789412
 30
0.0
 10
276.744093008856
 20
586.6908851789412
 30
0.0
 10
278.9315929535951
 20
585.274385214725
 30
0.0
 10
278.9315929535951
 20
585.274385214725
 30
0.0
 10
278.9315929535951
 20
585.274385214725
 30
0.0
 10
281.3441928926477
 20
585.274385214725
 30
0.0
 10
281.3441928926477
 20
585.274385214725
 30
0.0
 10
281.3441928926477
 20
585.274385214725
 30
0.0
 10
281.3134928934232
 20
585.3119999999999
 30
0.0
 10
281.3134928934232
 20
585.3119999999999
 30
0.0
 10
281.3134928934232
 20
585.3119999999999
 30
0.0
 10
281.3061928936077
 20
585.3207852135529
 30
0.0
 10
281.3061928936077
 20
585.3207852135529
 30
0.0
 10
280.9047929037479
 20
585.8320000000003
 30
0.0
 10
280.6127929111244
 20
586.4242851856761
 30
0.0
 10
280.4853929143428
 20
587.0640000000003
 30
0.0
 10
280.3710929172303
 20
587.6288851552454
 30
0.0
 10
280.3905929167377
 20
588.2172851403811
 30
0.0
 10
280.5658929123092
 20
588.7680851264668
 30
0.0
 10
280.7445929077949
 20
589.3310851122442
 30
0.0
 10
281.0770928993952
 20
589.8285850996763
 30
0.0
 10
281.5424928876382
 20
590.1923850904859
 30
0.0
 10
281.8925928787939
 20
590.4677850835287
 30
0.0
 10
282.3002928684946
 20
590.651885078878
 30
0.0
 10
282.7367928574677
 20
590.7387850766827
 30
0.0
 10
282.7367928574677
 20
590.7387850766827
 30
0.0
 10
282.8812928538173
 20
590.7685850759299
 30
0.0
 10
282.8812928538173
 20
590.7685850759299
 30
0.0
 10
282.8812928538173
 20
590.7685850759299
 30
0.0
 10
303.7343923270237
 20
590.7685850759299
 30
0.0
 10
303.7343923270237
 20
590.7685850759299
 30
0.0
 10
303.7343923270237
 20
590.7685850759299
 30
0.0
 10
303.8349999999991
 20
590.754885076276
 30
0.0
 10
303.8349999999991
 20
590.754885076276
 30
0.0
 10
304.5351923067938
 20
590.6620850786203
 30
0.0
 10
305.1874922903153
 20
590.365685086108
 30
0.0
 10
305.6815922778333
 20
589.8540000000003
 30
0.0
 10
305.9853922701586
 20
589.539585106977
 30
0.0
 10
306.210892264462
 20
589.1601851165615
 30
0.0
 10
306.3417922611552
 20
588.7426851271084
 30
0.0
 10
306.3866922600209
 20
588.5966851307967
 30
0.0
 10
306.420892259157
 20
588.4486851345355
 30
0.0
 10
306.4423922586138
 20
588.2992851383096
 30
0.0
 10
306.4423922586138
 20
588.2992851383096
 30
0.0
 10
307.6181922289106
 20
589.0609999999997
 30
0.0
 10
307.6181922289106
 20
589.0609999999997
 30
0.0
 10
307.6181922289106
 20
589.0609999999997
 30
0.0
 10
307.6181922289106
 20
591.6239999999998
 30
0.0
 10
307.6181922289106
 20
591.6239999999998
 30
0.0
 10
307.6181922289106
 20
591.6239999999998
 30
0.0
 10
307.6181922289106
 20
591.6239999999998
 30
0.0
 10
307.6181922289106
 20
591.6239999999998
 30
0.0
  0
ENDSEC
  0
SECTION
  2
OBJECTS
  0
DICTIONARY
  5
5
330
0
100
AcDbDictionary
281
     1
  3
ACAD_GROUP
350
21
  3
ACAD_LAYOUT
350
18
  3
ACAD_MATERIAL
350
7
  3
ACAD_MLEADERSTYLE
350
9F
  3
ACAD_MLINESTYLE
350
12
  3
ACAD_PLOTSETTINGS
350
22
  3
ACAD_PLOTSTYLENAME
350
4
  3
ACAD_SCALELIST
350
29
  3
ACAD_TABLESTYLE
350
9E
  3
ACAD_VISUALSTYLE
350
23
  3
AcDbVariableDictionary
350
9C
  0
DICTIONARY
  5
BF
330
1F
100
AcDbDictionary
280
     1
281
     1
  3
ACAD_XREC_ROUNDTRIP
360
C0
  0
DICTIONARY
  5
21
102
{ACAD_REACTORS
330
5
102
}
330
5
100
AcDbDictionary
281
     1
  0
DICTIONARY
  5
18
102
{ACAD_REACTORS
330
5
102
}
330
5
100
AcDbDictionary
281
     1
  3
Layout1
350
1C
  3
Model
350
17
  0
DICTIONARY
  5
7
102
{ACAD_REACTORS
330
5
102
}
330
5
100
AcDbDictionary
281
     1
  3
ByBlock
350
4C
  3
ByLayer
350
E
  3
Global
350
6
  0
DICTIONARY
  5
9F
102
{ACAD_REACTORS
330
5
102
}
330
5
100
AcDbDictionary
281
     1
  3
Standard
350
A2
  0
DICTIONARY
  5
12
102
{ACAD_REACTORS
330
5
102
}
330
5
100
AcDbDictionary
281
     1
  3
Standard
350
11
  0
DICTIONARY
  5
22
102
{ACAD_REACTORS
330
5
102
}
330
5
100
AcDbDictionary
281
     1
  0
ACDBDICTIONARYWDFLT
  5
4
102
{ACAD_REACTORS
330
5
102
}
330
5
100
AcDbDictionary
281
     1
  3
Normal
350
3
100
AcDbDictionaryWithDefault
340
3
  0
DICTIONARY
  5
29
102
{ACAD_REACTORS
330
5
102
}
330
5
100
AcDbDictionary
281
     1
  3
*A1
350
4B
  0
DICTIONARY
  5
9E
102
{ACAD_REACTORS
330
5
102
}
330
5
100
AcDbDictionary
281
     1
  3
Standard
350
BA
  0
DICTIONARY
  5
23
102
{ACAD_REACTORS
330
5
102
}
330
5
100
AcDbDictionary
281
     1
  3
2dWireframe
350
26
  3
Basic
350
A9
  3
Brighten
350
AD
  3
ColorChange
350
B1
  3
Conceptual
350
AB
  3
Dim
350
AC
  3
EdgeColorOff
350
B4
  3
Facepattern
350
B0
  3
Flat
350
A3
  3
FlatWithEdges
350
A4
  3
Gouraud
350
A5
  3
GouraudWithEdges
350
A6
  3
Hidden
350
A8
  3
JitterOff
350
B2
  3
Linepattern
350
AF
  3
OverhangOff
350
B3
  3
Realistic
350
AA
  3
Shaded
350
B9
  3
Shaded with edges
350
B8
  3
Shades of Gray
350
B5
  3
Sketchy
350
B6
  3
Thicken
350
AE
  3
Wireframe
350
A7
  3
X-Ray
350
B7
  0
DICTIONARY
  5
9C
102
{ACAD_REACTORS
330
5
102
}
330
5
100
AcDbDictionary
281
     1
  3
CANNOSCALE
350
9D
  3
CMLEADERSTYLE
350
BC
  3
CTABLESTYLE
350
BB
  3
DIMASSOC
350
BD
  3
HIDETEXT
350
BE
  3
MSLTSCALE
350
C1
  0
XRECORD
  5
C0
102
{ACAD_REACTORS
330
BF
102
}
330
BF
100
AcDbXrecord
280
     1
102
VTR_0.000_0.000_1.000_1.000_VISUALSTYLE
340
26
102
VTR_0.000_0.000_1.000_1.000_GRIDDISPLAY
 70
     3
102
VTR_0.000_0.000_1.000_1.000_GRIDMAJOR
 70
     5
102
VTR_0.000_0.000_1.000_1.000_DEFAULTLIGHTING
280
     1
102
VTR_0.000_0.000_1.000_1.000_DEFAULTLIGHTINGTYPE
 70
     1
102
VTR_0.000_0.000_1.000_1.000_BRIGHTNESS
141
0.0
102
VTR_0.000_0.000_1.000_1.000_CONTRAST
142
0.0
  0
LAYOUT
  5
1C
102
{ACAD_REACTORS
330
18
102
}
330
18
100
AcDbPlotSettings
  1

  2
none_device
  4
Letter_(8.50_x_11.00_Inches)
  6

 40
6.35
 41
6.35
 42
6.35001
 43
6.35001
 44
215.9
 45
279.4
 46
0.0
 47
0.0
 48
0.0
 49
0.0
140
0.0
141
0.0
142
1.0
143
1.0
 70
   688
 72
     0
 73
     1
 74
     5
  7

 75
    16
147
1.0
148
0.0
149
0.0
100
AcDbLayout
  1
Layout1
 70
     1
 71
     1
 10
0.0
 20
0.0
 11
12.0
 21
9.0
 12
0.0
 22
0.0
 32
0.0
 14
1.000000000000000E+20
 24
1.000000000000000E+20
 34
1.000000000000000E+20
 15
-1.000000000000000E+20
 25
-1.000000000000000E+20
 35
-1.000000000000000E+20
146
0.0
 13
0.0
 23
0.0
 33
0.0
 16
1.0
 26
0.0
 36
0.0
 17
0.0
 27
1.0
 37
0.0
 76
     0
330
19
  0
LAYOUT
  5
17
102
{ACAD_REACTORS
330
18
102
}
330
18
100
AcDbPlotSettings
  1

  2
none_device
  4

  6

 40
0.0
 41
0.0
 42
0.0
 43
0.0
 44
0.0
 45
0.0
 46
0.0
 47
0.0
 48
0.0
 49
0.0
140
0.0
141
0.0
142
1.0
143
1.0
 70
  1712
 72
     0
 73
     0
 74
     0
  7

 75
     0
147
1.0
148
0.0
149
0.0
100
AcDbLayout
  1
Model
 70
     1
 71
     0
 10
0.0
 20
0.0
 11
12.0
 21
9.0
 12
0.0
 22
0.0
 32
0.0
 14
276.744093008856
 24
583.3075852644105
 34
0.0
 15
307.6181922289107
 25
606.5497846772633
 35
0.0
146
0.0
 13
0.0
 23
0.0
 33
0.0
 16
1.0
 26
0.0
 36
0.0
 17
0.0
 27
1.0
 37
0.0
 76
     0
330
14
331
25
  0
MATERIAL
  5
4C
102
{ACAD_REACTORS
330
7
102
}
102
{ACAD_XDICTIONARY
360
C6
102
}
330
7
100
AcDbMaterial
  1
ByBlock
  0
MATERIAL
  5
E
102
{ACAD_REACTORS
330
7
102
}
102
{ACAD_XDICTIONARY
360
C2
102
}
330
7
100
AcDbMaterial
  1
ByLayer
  0
MATERIAL
  5
6
102
{ACAD_REACTORS
330
7
102
}
102
{ACAD_XDICTIONARY
360
C4
102
}
330
7
100
AcDbMaterial
  1
Global
  0
MLEADERSTYLE
  5
A2
102
{ACAD_REACTORS
330
9F
102
}
102
{ACAD_XDICTIONARY
360
F9
102
}
330
9F
100
AcDbMLeaderStyle
170
     2
171
     1
172
     0
 90
        2
 40
0.0
 41
0.0
173
     1
 91
-1056964608
340
A
 92
       -2
290
     1
 42
0.09
291
     1
 43
0.36
  3
Standard
341
0
 44
0.18
300

342
C
174
     1
178
     6
175
     1
176
     0
 93
-1056964608
 45
0.18
292
     0
297
     0
 46
0.18
343
0
 94
-1056964608
 47
1.0
 49
1.0
140
1.0
293
     1
141
0.0
294
     1
177
     0
142
1.0
295
     0
296
     0
143
0.125
1001
ACAD_MLEADERVER
1070
     2
  0
MLINESTYLE
  5
11
102
{ACAD_REACTORS
330
12
102
}
330
12
100
AcDbMlineStyle
  2
Standard
 70
     0
  3

 62
   256
 51
90.0
 52
90.0
 71
     2
 49
0.5
 62
   256
  6
BYLAYER
 49
-0.5
 62
   256
  6
BYLAYER
  0
ACDBPLACEHOLDER
  5
3
102
{ACAD_REACTORS
330
4
102
}
330
4
  0
SCALE
  5
4B
102
{ACAD_REACTORS
330
29
102
}
330
29
100
AcDbScale
 70
     0
300
1:1
140
1.0
141
1.0
290
     1
  0
TABLESTYLE
  5
BA
102
{ACAD_REACTORS
330
9E
102
}
330
9E
100
AcDbTableStyle
  3
Standard
 70
     0
 71
     0
 40
0.06
 41
0.06
280
     0
281
     0
  7
Standard
140
0.18
170
     2
 62
     0
 63
   257
283
     0
274
    -2
284
     1
 64
     0
275
    -2
285
     1
 65
     0
276
    -2
286
     1
 66
     0
277
    -2
287
     1
 67
     0
278
    -2
288
     1
 68
     0
279
    -2
289
     1
 69
     0
  7
Standard
140
0.25
170
     5
 62
     0
 63
   257
283
     0
274
    -2
284
     1
 64
     0
275
    -2
285
     1
 65
     0
276
    -2
286
     1
 66
     0
277
    -2
287
     1
 67
     0
278
    -2
288
     1
 68
     0
279
    -2
289
     1
 69
     0
  7
Standard
140
0.18
170
     5
 62
     0
 63
   257
283
     0
274
    -2
284
     1
 64
     0
275
    -2
285
     1
 65
     0
276
    -2
286
     1
 66
     0
277
    -2
287
     1
 67
     0
278
    -2
288
     1
 68
     0
279
    -2
289
     1
 69
     0
  0
VISUALSTYLE
  5
26
102
{ACAD_REACTORS
330
23
102
}
102
{ACAD_XDICTIONARY
360
C8
102
}
330
23
100
AcDbVisualStyle
  2
2dWireframe
 70
     4
 71
     0
 72
     2
 73
     0
 90
        0
 40
-0.6
 41
-30.0
 62
     5
 63
     7
 74
     1
 91
        4
 64
     7
 65
   257
 75
     1
175
     1
 42
1.0
 92
        0
 66
   257
 43
1.0
 76
     1
 77
     6
 78
     2
 67
     7
 79
     5
170
     0
171
     0
290
     0
174
     0
 93
        1
 44
0.0
173
     0
291
     0
 45
0.0
1001
ACAD
1000
AcDbSavedByObjectVersion
1070
     0
  0
VISUALSTYLE
  5
A9
102
{ACAD_REACTORS
330
23
102
}
102
{ACAD_XDICTIONARY
360
D6
102
}
330
23
100
AcDbVisualStyle
  2
Basic
 70
     7
 71
     1
 72
     0
 73
     1
 90
        0
 40
0.6
 41
30.0
 62
     5
 63
     7
 74
     0
 91
        4
 64
     7
 65
   257
 75
     1
175
     1
 42
1.0
 92
        8
 66
     7
 43
1.0
 76
     1
 77
     6
 78
     2
 67
     7
 79
     5
170
     0
171
     0
290
     0
174
     0
 93
        1
 44
0.0
173
     0
291
     1
 45
0.0
1001
ACAD
1000
AcDbSavedByObjectVersion
1070
     0
  0
VISUALSTYLE
  5
AD
102
{ACAD_REACTORS
330
23
102
}
102
{ACAD_XDICTIONARY
360
DE
102
}
330
23
100
AcDbVisualStyle
  2
Brighten
 70
    12
 71
     2
 72
     2
 73
     0
 90
        0
 40
0.6
 41
30.0
 62
     5
 63
     7
 74
     1
 91
        4
 64
     7
 65
   257
 75
     1
175
     1
 42
1.0
 92
        8
 66
     7
 43
1.0
 76
     1
 77
     6
 78
     2
 67
     7
 79
     5
170
     0
171
     0
290
     0
174
     0
 93
        1
 44
50.0
173
     0
291
     1
 45
0.0
1001
ACAD
1000
AcDbSavedByObjectVersion
1070
     0
  0
VISUALSTYLE
  5
B1
102
{ACAD_REACTORS
330
23
102
}
102
{ACAD_XDICTIONARY
360
E6
102
}
330
23
100
AcDbVisualStyle
  2
ColorChange
 70
    16
 71
     2
 72
     2
 73
     3
 90
        0
 40
0.6
 41
30.0
 62
     5
 63
     8
 74
     1
 91
        4
 64
     7
 65
   257
 75
     1
175
     1
 42
1.0
 92
        8
 66
     8
 43
1.0
 76
     1
 77
     6
 78
     2
 67
     7
 79
     5
170
     0
171
     0
290
     0
174
     0
 93
        1
 44
0.0
173
     0
291
     1
 45
0.0
1001
ACAD
1000
AcDbSavedByObjectVersion
1070
     0
  0
VISUALSTYLE
  5
AB
102
{ACAD_REACTORS
330
23
102
}
102
{ACAD_XDICTIONARY
360
DA
102
}
330
23
100
AcDbVisualStyle
  2
Conceptual
 70
     9
 71
     3
 72
     2
 73
     0
 90
        0
 40
0.6
 41
30.0
 62
     5
 63
     7
 74
     2
 91
        2
 64
     7
 65
   257
 75
     1
175
     1
 42
179.0
 92
        8
 66
     7
 43
1.0
 76
     1
 77
     6
 78
     2
 67
     7
 79
     3
170
     0
171
     0
290
     0
174
     0
 93
        1
 44
0.0
173
     0
291
     0
 45
0.0
1001
ACAD
1000
AcDbSavedByObjectVersion
1070
     0
  0
VISUALSTYLE
  5
AC
102
{ACAD_REACTORS
330
23
102
}
102
{ACAD_XDICTIONARY
360
DC
102
}
330
23
100
AcDbVisualStyle
  2
Dim
 70
    11
 71
     2
 72
     2
 73
     0
 90
        0
 40
0.6
 41
30.0
 62
     5
 63
     7
 74
     1
 91
        4
 64
     7
 65
   257
 75
     1
175
     1
 42
1.0
 92
        8
 66
     7
 43
1.0
 76
     1
 77
     6
 78
     2
 67
     7
 79
     5
170
     0
171
     0
290
     0
174
     0
 93
        1
 44
-50.0
173
     0
291
     1
 45
0.0
1001
ACAD
1000
AcDbSavedByObjectVersion
1070
     0
  0
VISUALSTYLE
  5
B4
102
{ACAD_REACTORS
330
23
102
}
102
{ACAD_XDICTIONARY
360
EC
102
}
330
23
100
AcDbVisualStyle
  2
EdgeColorOff
 70
    22
 71
     2
 72
     2
 73
     0
 90
        0
 40
0.6
 41
30.0
 62
     5
 63
     7
 74
     1
 91
        4
 64
     7
 65
   257
 75
     1
175
     1
 42
1.0
 92
        8
 66
     7
 43
1.0
 76
     1
 77
     6
 78
     2
 67
     7
 79
     5
170
     0
171
     0
290
     0
174
     0
 93
        1
 44
0.0
173
     0
291
     1
 45
0.0
1001
ACAD
1000
AcDbSavedByObjectVersion
1070
     0
  0
VISUALSTYLE
  5
B0
102
{ACAD_REACTORS
330
23
102
}
102
{ACAD_XDICTIONARY
360
E4
102
}
330
23
100
AcDbVisualStyle
  2
Facepattern
 70
    15
 71
     2
 72
     2
 73
     0
 90
        0
 40
0.6
 41
30.0
 62
     5
 63
     7
 74
     1
 91
        4
 64
     7
 65
   257
 75
     1
175
     1
 42
1.0
 92
        8
 66
     7
 43
1.0
 76
     1
 77
     6
 78
     2
 67
     7
 79
     5
170
     0
171
     0
290
     0
174
     0
 93
        1
 44
0.0
173
     0
291
     1
 45
0.0
1001
ACAD
1000
AcDbSavedByObjectVersion
1070
     0
  0
VISUALSTYLE
  5
A3
102
{ACAD_REACTORS
330
23
102
}
102
{ACAD_XDICTIONARY
360
CA
102
}
330
23
100
AcDbVisualStyle
  2
Flat
 70
     0
 71
     2
 72
     1
 73
     1
 90
        2
 40
0.6
 41
30.0
 62
     5
 63
     7
 74
     0
 91
        0
 64
     7
 65
   257
 75
     1
175
     1
 42
1.0
 92
        8
 66
     7
 43
1.0
 76
     1
 77
     6
 78
     2
 67
     7
 79
     5
170
     0
171
     0
290
     0
174
     0
 93
       13
 44
0.0
173
     0
291
     1
 45
0.0
1001
ACAD
1000
AcDbSavedByObjectVersion
1070
     0
  0
VISUALSTYLE
  5
A4
102
{ACAD_REACTORS
330
23
102
}
102
{ACAD_XDICTIONARY
360
CC
102
}
330
23
100
AcDbVisualStyle
  2
FlatWithEdges
 70
     1
 71
     2
 72
     1
 73
     1
 90
        2
 40
0.6
 41
30.0
 62
     5
 63
     7
 74
     1
 91
        0
 64
     7
 65
   257
 75
     1
175
     1
 42
1.0
 92
        0
 66
   257
 43
1.0
 76
     1
 77
     6
 78
     2
 67
     7
 79
     5
170
     0
171
     0
290
     0
174
     0
 93
       13
 44
0.0
173
     0
291
     1
 45
0.0
1001
ACAD
1000
AcDbSavedByObjectVersion
1070
     0
  0
VISUALSTYLE
  5
A5
102
{ACAD_REACTORS
330
23
102
}
102
{ACAD_XDICTIONARY
360
CE
102
}
330
23
100
AcDbVisualStyle
  2
Gouraud
 70
     2
 71
     2
 72
     2
 73
     1
 90
        2
 40
0.6
 41
30.0
 62
     5
 63
     7
 74
     0
 91
        0
 64
     7
 65
   257
 75
     1
175
     1
 42
1.0
 92
        0
 66
     7
 43
1.0
 76
     1
 77
     6
 78
     2
 67
     7
 79
     5
170
     0
171
     0
290
     0
174
     0
 93
       13
 44
0.0
173
     0
291
     1
 45
0.0
1001
ACAD
1000
AcDbSavedByObjectVersion
1070
     0
  0
VISUALSTYLE
  5
A6
102
{ACAD_REACTORS
330
23
102
}
102
{ACAD_XDICTIONARY
360
D0
102
}
330
23
100
AcDbVisualStyle
  2
GouraudWithEdges
 70
     3
 71
     2
 72
     2
 73
     1
 90
        2
 40
0.6
 41
30.0
 62
     5
 63
     7
 74
     1
 91
        0
 64
     7
 65
   257
 75
     1
175
     1
 42
1.0
 92
        0
 66
   257
 43
1.0
 76
     1
 77
     6
 78
     2
 67
     7
 79
     5
170
     0
171
     0
290
     0
174
     0
 93
       13
 44
0.0
173
     0
291
     1
 45
0.0
1001
ACAD
1000
AcDbSavedByObjectVersion
1070
     0
  0
VISUALSTYLE
  5
A8
102
{ACAD_REACTORS
330
23
102
}
102
{ACAD_XDICTIONARY
360
D4
102
}
330
23
100
AcDbVisualStyle
  2
Hidden
 70
     6
 71
     1
 72
     2
 73
     2
 90
        0
 40
0.6
 41
30.0
 62
     5
 63
     7
 74
     2
 91
        2
 64
     7
 65
   257
 75
     2
175
     1
 42
40.0
 92
        0
 66
   257
 43
1.0
 76
     1
 77
     6
 78
     2
 67
     7
 79
     3
170
     0
171
     0
290
     0
174
     0
 93
        1
 44
0.0
173
     0
291
     0
 45
0.0
1001
ACAD
1000
AcDbSavedByObjectVersion
1070
     0
  0
VISUALSTYLE
  5
B2
102
{ACAD_REACTORS
330
23
102
}
102
{ACAD_XDICTIONARY
360
E8
102
}
330
23
100
AcDbVisualStyle
  2
JitterOff
 70
    20
 71
     2
 72
     2
 73
     0
 90
        0
 40
0.6
 41
30.0
 62
     5
 63
     7
 74
     1
 91
        4
 64
     7
 65
   257
 75
     1
175
     1
 42
1.0
 92
       10
 66
     7
 43
1.0
 76
     1
 77
     6
 78
     2
 67
     7
 79
     5
170
     0
171
     0
290
     0
174
     0
 93
        1
 44
0.0
173
     0
291
     1
 45
0.0
1001
ACAD
1000
AcDbSavedByObjectVersion
1070
     0
  0
VISUALSTYLE
  5
AF
102
{ACAD_REACTORS
330
23
102
}
102
{ACAD_XDICTIONARY
360
E2
102
}
330
23
100
AcDbVisualStyle
  2
Linepattern
 70
    14
 71
     2
 72
     2
 73
     0
 90
        0
 40
0.6
 41
30.0
 62
     5
 63
     7
 74
     1
 91
        4
 64
     7
 65
   257
 75
     7
175
     7
 42
1.0
 92
        8
 66
     7
 43
1.0
 76
     1
 77
     6
 78
     2
 67
     7
 79
     5
170
     0
171
     0
290
     0
174
     0
 93
        1
 44
0.0
173
     0
291
     1
 45
0.0
1001
ACAD
1000
AcDbSavedByObjectVersion
1070
     0
  0
VISUALSTYLE
  5
B3
102
{ACAD_REACTORS
330
23
102
}
102
{ACAD_XDICTIONARY
360
EA
102
}
330
23
100
AcDbVisualStyle
  2
OverhangOff
 70
    21
 71
     2
 72
     2
 73
     0
 90
        0
 40
0.6
 41
30.0
 62
     5
 63
     7
 74
     1
 91
        4
 64
     7
 65
   257
 75
     1
175
     1
 42
1.0
 92
        9
 66
     7
 43
1.0
 76
     1
 77
     6
 78
     2
 67
     7
 79
     5
170
     0
171
     0
290
     0
174
     0
 93
        1
 44
0.0
173
     0
291
     1
 45
0.0
1001
ACAD
1000
AcDbSavedByObjectVersion
1070
     0
  0
VISUALSTYLE
  5
AA
102
{ACAD_REACTORS
330
23
102
}
102
{ACAD_XDICTIONARY
360
D8
102
}
330
23
100
AcDbVisualStyle
  2
Realistic
 70
     8
 71
     2
 72
     3
 73
     0
 90
        2
 40
0.6
 41
30.0
 62
     5
 63
     7
 74
     0
 91
        0
 64
     7
 65
   257
 75
     1
175
     1
 42
1.0
 92
        8
 66
   257
 43
1.0
 76
     1
 77
     6
 78
     2
 67
     7
 79
     3
170
     0
171
     0
290
     0
174
     0
 93
       13
 44
0.0
173
     0
291
     0
 45
0.0
1001
ACAD
1000
AcDbSavedByObjectVersion
1070
     0
  0
VISUALSTYLE
  5
B9
102
{ACAD_REACTORS
330
23
102
}
102
{ACAD_XDICTIONARY
360
F6
102
}
330
23
100
AcDbVisualStyle
  2
Shaded
 70
    27
 71
     2
 72
     2
 73
     1
 90
        2
 40
0.6
 41
30.0
 62
     5
 63
     7
 74
     0
 91
        4
 64
     7
 65
   257
 75
     1
175
     1
 42
1.0
 92
        8
 66
   257
 43
1.0
 76
     1
 77
     6
 78
     2
 67
     8
 79
     3
170
     0
171
     0
290
     0
174
     0
 93
        5
 44
0.0
173
     0
291
     0
 45
0.0
1001
ACAD
1000
AcDbSavedByObjectVersion
1070
     0
  0
VISUALSTYLE
  5
B8
102
{ACAD_REACTORS
330
23
102
}
102
{ACAD_XDICTIONARY
360
F4
102
}
330
23
100
AcDbVisualStyle
  2
Shaded with edges
 70
    26
 71
     2
 72
     2
 73
     1
 90
        2
 40
0.6
 41
30.0
 62
     5
 63
     7
 74
     1
 91
       10
 64
     7
 65
   257
 75
     2
175
     1
 42
1.0
 92
        8
 66
   257
 43
1.0
 76
     1
 77
     6
 78
     2
 67
     7
 79
     3
170
     0
171
     0
290
     0
174
     0
 93
        5
 44
0.0
173
     0
291
     0
 45
0.0
1001
ACAD
1000
AcDbSavedByObjectVersion
1070
     0
  0
VISUALSTYLE
  5
B5
102
{ACAD_REACTORS
330
23
102
}
102
{ACAD_XDICTIONARY
360
EE
102
}
330
23
100
AcDbVisualStyle
  2
Shades of Gray
 70
    23
 71
     2
 72
     2
 73
     3
 90
        0
 40
0.6
 41
30.0
 62
     5
 63
     7
 74
     2
 91
        2
 64
     7
 65
     7
 75
     1
175
     1
 42
40.0
 92
        8
 66
     7
 43
1.0
 76
     1
 77
     6
 78
     2
 67
     7
 79
     3
170
     0
171
     0
290
     0
174
     0
 93
        1
 44
0.0
173
     0
291
     0
 45
0.0
1001
ACAD
1000
AcDbSavedByObjectVersion
1070
     0
  0
VISUALSTYLE
  5
B6
102
{ACAD_REACTORS
330
23
102
}
102
{ACAD_XDICTIONARY
360
F0
102
}
330
23
100
AcDbVisualStyle
  2
Sketchy
 70
    24
 71
     1
 72
     2
 73
     2
 90
        0
 40
0.6
 41
30.0
 62
     5
 63
     7
 74
     2
 91
        2
 64
     7
 65
     7
 75
     1
175
     1
 42
40.0
 92
       11
 66
     7
 43
1.0
 76
     1
 77
     6
 78
     2
 67
     7
 79
     6
170
     0
171
     0
290
     0
174
     0
 93
        1
 44
0.0
173
     0
291
     0
 45
0.0
1001
ACAD
1000
AcDbSavedByObjectVersion
1070
     0
  0
VISUALSTYLE
  5
AE
102
{ACAD_REACTORS
330
23
102
}
102
{ACAD_XDICTIONARY
360
E0
102
}
330
23
100
AcDbVisualStyle
  2
Thicken
 70
    13
 71
     2
 72
     2
 73
     0
 90
        0
 40
0.6
 41
30.0
 62
     5
 63
     7
 74
     1
 91
        4
 64
     7
 65
   257
 75
     1
175
     1
 42
1.0
 92
       12
 66
     7
 43
1.0
 76
     1
 77
     6
 78
     2
 67
     7
 79
     5
170
     0
171
     0
290
     0
174
     0
 93
        1
 44
0.0
173
     0
291
     1
 45
0.0
1001
ACAD
1000
AcDbSavedByObjectVersion
1070
     0
  0
VISUALSTYLE
  5
A7
102
{ACAD_REACTORS
330
23
102
}
102
{ACAD_XDICTIONARY
360
D2
102
}
330
23
100
AcDbVisualStyle
  2
Wireframe
 70
     5
 71
     0
 72
     2
 73
     0
 90
        0
 40
0.6
 41
30.0
 62
     5
 63
     7
 74
     1
 91
        4
 64
     7
 65
   257
 75
     1
175
     1
 42
1.0
 92
        0
 66
   257
 43
1.0
 76
     1
 77
     6
 78
     2
 67
     7
 79
     3
170
     0
171
     0
290
     0
174
     0
 93
        1
 44
0.0
173
     0
291
     0
 45
0.0
1001
ACAD
1000
AcDbSavedByObjectVersion
1070
     0
  0
VISUALSTYLE
  5
B7
102
{ACAD_REACTORS
330
23
102
}
102
{ACAD_XDICTIONARY
360
F2
102
}
330
23
100
AcDbVisualStyle
  2
X-Ray
 70
    25
 71
     2
 72
     2
 73
     1
 90
        1
 40
0.5
 41
30.0
 62
     5
 63
     7
 74
     1
 91
        0
 64
     7
 65
   257
 75
     1
175
     1
 42
1.0
 92
        8
 66
     7
 43
1.0
 76
     1
 77
     6
 78
     2
 67
     7
 79
     3
170
     0
171
     0
290
     0
174
     0
 93
       13
 44
0.0
173
     0
291
     0
 45
0.0
1001
ACAD
1000
AcDbSavedByObjectVersion
1070
     0
  0
DICTIONARYVAR
  5
9D
102
{ACAD_REACTORS
330
9C
102
}
330
9C
100
DictionaryVariables
280
     0
  1
1:1
  0
DICTIONARYVAR
  5
BC
102
{ACAD_REACTORS
330
9C
102
}
330
9C
100
DictionaryVariables
280
     0
  1
Standard
  0
DICTIONARYVAR
  5
BB
102
{ACAD_REACTORS
330
9C
102
}
330
9C
100
DictionaryVariables
280
     0
  1
Standard
  0
DICTIONARYVAR
  5
BD
102
{ACAD_REACTORS
330
9C
102
}
330
9C
100
DictionaryVariables
280
     0
  1
2
  0
DICTIONARYVAR
  5
BE
102
{ACAD_REACTORS
330
9C
102
}
330
9C
100
DictionaryVariables
280
     0
  1
1
  0
DICTIONARYVAR
  5
C1
102
{ACAD_REACTORS
330
9C
102
}
330
9C
100
DictionaryVariables
280
     0
  1
1
  0
DICTIONARY
  5
C6
330
4C
100
AcDbDictionary
280
     1
281
     1
  3
ACAD_XREC_ROUNDTRIP
360
C7
  0
DICTIONARY
  5
C2
330
E
100
AcDbDictionary
280
     1
281
     1
  3
ACAD_XREC_ROUNDTRIP
360
C3
  0
DICTIONARY
  5
C4
330
6
100
AcDbDictionary
280
     1
281
     1
  3
ACAD_XREC_ROUNDTRIP
360
C5
  0
DICTIONARY
  5
F9
330
A2
100
AcDbDictionary
280
     1
281
     1
  3
ACAD_XREC_ROUNDTRIP
360
FA
  0
DICTIONARY
  5
C8
330
26
100
AcDbDictionary
280
     1
281
     1
  3
ACAD_XREC_ROUNDTRIP
360
C9
  0
DICTIONARY
  5
D6
330
A9
100
AcDbDictionary
280
     1
281
     1
  3
ACAD_XREC_ROUNDTRIP
360
D7
  0
DICTIONARY
  5
DE
330
AD
100
AcDbDictionary
280
     1
281
     1
  3
ACAD_XREC_ROUNDTRIP
360
DF
  0
DICTIONARY
  5
E6
330
B1
100
AcDbDictionary
280
     1
281
     1
  3
ACAD_XREC_ROUNDTRIP
360
E7
  0
DICTIONARY
  5
DA
330
AB
100
AcDbDictionary
280
     1
281
     1
  3
ACAD_XREC_ROUNDTRIP
360
DB
  0
DICTIONARY
  5
DC
330
AC
100
AcDbDictionary
280
     1
281
     1
  3
ACAD_XREC_ROUNDTRIP
360
DD
  0
DICTIONARY
  5
EC
330
B4
100
AcDbDictionary
280
     1
281
     1
  3
ACAD_XREC_ROUNDTRIP
360
ED
  0
DICTIONARY
  5
E4
330
B0
100
AcDbDictionary
280
     1
281
     1
  3
ACAD_XREC_ROUNDTRIP
360
E5
  0
DICTIONARY
  5
CA
330
A3
100
AcDbDictionary
280
     1
281
     1
  3
ACAD_XREC_ROUNDTRIP
360
CB
  0
DICTIONARY
  5
CC
330
A4
100
AcDbDictionary
280
     1
281
     1
  3
ACAD_XREC_ROUNDTRIP
360
CD
  0
DICTIONARY
  5
CE
330
A5
100
AcDbDictionary
280
     1
281
     1
  3
ACAD_XREC_ROUNDTRIP
360
CF
  0
DICTIONARY
  5
D0
330
A6
100
AcDbDictionary
280
     1
281
     1
  3
ACAD_XREC_ROUNDTRIP
360
D1
  0
DICTIONARY
  5
D4
330
A8
100
AcDbDictionary
280
     1
281
     1
  3
ACAD_XREC_ROUNDTRIP
360
D5
  0
DICTIONARY
  5
E8
330
B2
100
AcDbDictionary
280
     1
281
     1
  3
ACAD_XREC_ROUNDTRIP
360
E9
  0
DICTIONARY
  5
E2
330
AF
100
AcDbDictionary
280
     1
281
     1
  3
ACAD_XREC_ROUNDTRIP
360
E3
  0
DICTIONARY
  5
EA
330
B3
100
AcDbDictionary
280
     1
281
     1
  3
ACAD_XREC_ROUNDTRIP
360
EB
  0
DICTIONARY
  5
D8
330
AA
100
AcDbDictionary
280
     1
281
     1
  3
ACAD_XREC_ROUNDTRIP
360
D9
  0
DICTIONARY
  5
F6
330
B9
100
AcDbDictionary
280
     1
281
     1
  3
ACAD_XREC_ROUNDTRIP
360
F7
  0
DICTIONARY
  5
F4
330
B8
100
AcDbDictionary
280
     1
281
     1
  3
ACAD_XREC_ROUNDTRIP
360
F5
  0
DICTIONARY
  5
EE
330
B5
100
AcDbDictionary
280
     1
281
     1
  3
ACAD_XREC_ROUNDTRIP
360
EF
  0
DICTIONARY
  5
F0
330
B6
100
AcDbDictionary
280
     1
281
     1
  3
ACAD_XREC_ROUNDTRIP
360
F1
  0
DICTIONARY
  5
E0
330
AE
100
AcDbDictionary
280
     1
281
     1
  3
ACAD_XREC_ROUNDTRIP
360
E1
  0
DICTIONARY
  5
D2
330
A7
100
AcDbDictionary
280
     1
281
     1
  3
ACAD_XREC_ROUNDTRIP
360
D3
  0
DICTIONARY
  5
F2
330
B7
100
AcDbDictionary
280
     1
281
     1
  3
ACAD_XREC_ROUNDTRIP
360
F3
  0
XRECORD
  5
C7
102
{ACAD_REACTORS
330
C6
102
}
330
C6
100
AcDbXrecord
280
     1
102
MATERIAL
148
0.0
149
0.0
149
0.0
 93
        0
 94
      127
282
     0
 72
     1
 77
     1
171
     1
175
     1
179
     1
273
     0
  0
XRECORD
  5
C3
102
{ACAD_REACTORS
330
C2
102
}
330
C2
100
AcDbXrecord
280
     1
102
MATERIAL
148
0.0
149
0.0
149
0.0
 93
        0
 94
      127
282
     0
 72
     1
 77
     1
171
     1
175
     1
179
     1
273
     0
  0
XRECORD
  5
C5
102
{ACAD_REACTORS
330
C4
102
}
330
C4
100
AcDbXrecord
280
     1
102
MATERIAL
148
0.0
149
0.0
149
0.0
 93
        0
 94
      127
282
     0
 72
     1
 77
     1
171
     1
175
     1
179
     1
273
     0
  0
XRECORD
  5
FA
102
{ACAD_REACTORS
330
F9
102
}
330
F9
100
AcDbXrecord
280
     1
102
ACAD_ROUNDTRIP_2010_MLEADER_STYLE
  0
XRECORD
  5
C9
102
{ACAD_REACTORS
330
C8
102
}
330
C8
100
AcDbXrecord
280
     1
102
RTVSPropertyOp0
 70
     1
102
RTVSPropertyOp1
 70
     1
102
RTVSPropertyOp2
 70
     1
102
RTVSPropertyOp3
 70
     1
102
RTVSPropertyOp4
 70
     1
102
RTVSPropertyOp5
 70
     1
102
RTVSPropertyOp6
 70
     1
102
RTVSPropertyOp7
 70
     1
102
RTVSPropertyOp8
 70
     1
102
RTVSPropertyOp9
 70
     1
102
RTVSPropertyOp10
 70
     1
102
RTVSPropertyOp11
 70
     1
102
RTVSPropertyOp12
 70
     1
102
RTVSPropertyOp13
 70
     1
102
RTVSPropertyOp14
 70
     1
102
RTVSPropertyOp15
 70
     1
102
RTVSPropertyOp16
 70
     1
102
RTVSPropertyOp17
 70
     1
102
RTVSPropertyOp18
 70
     1
102
RTVSPropertyOp19
 70
     1
102
RTVSPropertyOp20
 70
     1
102
RTVSPropertyOp21
 70
     1
102
RTVSPropertyOp22
 70
     1
102
RTVSPropertyOp23
 70
     1
102
RTVSPropertyOp24
 70
     1
102
RTVSPropertyOp25
 70
     1
102
RTVSPropertyOp26
 70
     1
102
RTVSPropertyOp27
 70
     1
102
RTVSPropertyOp28
 70
     1
102
RTVSPropertyOp29
 70
     1
102
RTVSPropertyOp30
 70
     1
102
RTVSPropertyOp31
 70
     1
102
RTVSPropertyOp32
 70
     1
102
RTVSPropertyOp33
 70
     1
102
RTVSPropertyOp34
 70
     1
102
RTVSPropertyOp35
 70
     1
102
RTVSPropertyOp36
 70
     1
102
RTVSPropertyOp37
 70
     1
102
RTVSPropertyOp38
 70
     1
102
RTVSPropertyOp39
 70
     1
102
RTVSPropertyOp40
 70
     1
102
RTVSPropertyOp41
 70
     1
102
RTVSPropertyOp42
 70
     1
102
RTVSPropertyOp43
 70
     1
102
RTVSPropertyOp44
 70
     1
102
RTVSPropertyOp45
 70
     1
102
RTVSPropertyOp46
 70
     1
102
RTVSPropertyOp47
 70
     1
102
RTVSPropertyOp48
 70
     1
102
RTVSPropertyOp49
 70
     1
102
RTVSPropertyOp50
 70
     1
102
RTVSPropertyOp51
 70
     0
102
RTVSPropertyOp52
 70
     0
102
RTVSPropertyOp53
 70
     1
102
RTVSPropertyOp54
 70
     1
102
RTVSPropertyOp55
 70
     1
102
RTVSPropertyOp56
 70
     1
102
RTVSPropertyOp57
 70
     1
102
RTVSPost2010Prop28
280
     1
102
RTVSPost2010PropOp28
 70
     1
102
RTVSPost2010Prop29
280
     1
102
RTVSPost2010PropOp29
 70
     1
102
RTVSPost2010Prop30
280
     0
102
RTVSPost2010PropOp30
 70
     1
102
RTVSPost2010Prop31
280
     0
102
RTVSPost2010PropOp31
 70
     1
102
RTVSPost2010Prop32
280
     0
102
RTVSPost2010PropOp32
 70
     1
102
RTVSPost2010Prop33
280
     0
102
RTVSPost2010PropOp33
 70
     1
102
RTVSPost2010Prop34
280
     0
102
RTVSPost2010PropOp34
 70
     1
102
RTVSPost2010Prop35
280
     0
102
RTVSPost2010PropOp35
 70
     1
102
RTVSPost2010Prop36
280
     0
102
RTVSPost2010PropOp36
 70
     1
102
RTVSPost2010Prop37
 90
       50
102
RTVSPost2010PropOp37
 70
     1
102
RTVSPost2010Prop38
140
0.0
102
RTVSPost2010PropOp38
 70
     1
102
RTVSPost2010Prop39
140
1.0
102
RTVSPost2010PropOp39
 70
     1
102
RTVSPost2010Prop40
 90
        0
102
RTVSPost2010PropOp40
 70
     1
102
RTVSPost2010Prop41ColorIndex
 90
       18
102
RTVSPost2010Prop41ColorRGB
 90
        0
102
RTVSPost2010PropOp41
 70
     1
102
RTVSPost2010Prop42
 90
       50
102
RTVSPost2010PropOp42
 70
     1
102
RTVSPost2010Prop43
 90
        3
102
RTVSPost2010PropOp43
 70
     1
102
RTVSPost2010Prop44ColorIndex
 90
        5
102
RTVSPost2010Prop44ColorRGB
 90
      255
102
RTVSPost2010PropOp44
 70
     1
102
RTVSPost2010Prop45
280
     0
102
RTVSPost2010PropOp45
 70
     1
102
RTVSPost2010Prop46
 90
       50
102
RTVSPost2010PropOp46
 70
     1
102
RTVSPost2010Prop47
 90
       50
102
RTVSPost2010PropOp47
 70
     1
102
RTVSPost2010Prop48
 90
       50
102
RTVSPost2010PropOp48
 70
     1
102
RTVSPost2010Prop49
280
     0
102
RTVSPost2010PropOp49
 70
     1
102
RTVSPost2010Prop50
 90
       50
102
RTVSPost2010PropOp50
 70
     1
102
RTVSPost2010Prop51ColorIndex
 90
      256
102
RTVSPost2010Prop51ColorRGB
 90
-16777216
102
RTVSPost2010PropOp51
 70
     0
102
RTVSPost2010Prop52
140
1.0
102
RTVSPost2010PropOp52
 70
     0
102
RTVSPost2010Prop53
 90
        2
102
RTVSPost2010PropOp53
 70
     1
102
RTVSPost2010Prop54
  1
strokes_ogs.tif
102
RTVSPost2010PropOp54
 70
     1
102
RTVSPost2010Prop55
280
     0
102
RTVSPost2010PropOp55
 70
     1
102
RTVSPost2010Prop56
140
1.0
102
RTVSPost2010PropOp56
 70
     1
102
RTVSPost2010Prop57
140
1.0
102
RTVSPost2010PropOp57
 70
     1
  0
XRECORD
  5
D7
102
{ACAD_REACTORS
330
D6
102
}
330
D6
100
AcDbXrecord
280
     1
102
RTVSPropertyOp0
 70
     1
102
RTVSPropertyOp1
 70
     1
102
RTVSPropertyOp2
 70
     1
102
RTVSPropertyOp3
 70
     1
102
RTVSPropertyOp4
 70
     1
102
RTVSPropertyOp5
 70
     1
102
RTVSPropertyOp6
 70
     1
102
RTVSPropertyOp7
 70
     1
102
RTVSPropertyOp8
 70
     1
102
RTVSPropertyOp9
 70
     1
102
RTVSPropertyOp10
 70
     1
102
RTVSPropertyOp11
 70
     1
102
RTVSPropertyOp12
 70
     1
102
RTVSPropertyOp13
 70
     1
102
RTVSPropertyOp14
 70
     1
102
RTVSPropertyOp15
 70
     1
102
RTVSPropertyOp16
 70
     1
102
RTVSPropertyOp17
 70
     1
102
RTVSPropertyOp18
 70
     1
102
RTVSPropertyOp19
 70
     1
102
RTVSPropertyOp20
 70
     1
102
RTVSPropertyOp21
 70
     1
102
RTVSPropertyOp22
 70
     1
102
RTVSPropertyOp23
 70
     1
102
RTVSPropertyOp24
 70
     1
102
RTVSPropertyOp25
 70
     1
102
RTVSPropertyOp26
 70
     1
102
RTVSPropertyOp27
 70
     1
102
RTVSPropertyOp28
 70
     1
102
RTVSPropertyOp29
 70
     1
102
RTVSPropertyOp30
 70
     1
102
RTVSPropertyOp31
 70
     1
102
RTVSPropertyOp32
 70
     1
102
RTVSPropertyOp33
 70
     1
102
RTVSPropertyOp34
 70
     1
102
RTVSPropertyOp35
 70
     1
102
RTVSPropertyOp36
 70
     1
102
RTVSPropertyOp37
 70
     1
102
RTVSPropertyOp38
 70
     1
102
RTVSPropertyOp39
 70
     1
102
RTVSPropertyOp40
 70
     1
102
RTVSPropertyOp41
 70
     1
102
RTVSPropertyOp42
 70
     1
102
RTVSPropertyOp43
 70
     1
102
RTVSPropertyOp44
 70
     1
102
RTVSPropertyOp45
 70
     1
102
RTVSPropertyOp46
 70
     1
102
RTVSPropertyOp47
 70
     1
102
RTVSPropertyOp48
 70
     1
102
RTVSPropertyOp49
 70
     1
102
RTVSPropertyOp50
 70
     1
102
RTVSPropertyOp51
 70
     0
102
RTVSPropertyOp52
 70
     0
102
RTVSPropertyOp53
 70
     1
102
RTVSPropertyOp54
 70
     1
102
RTVSPropertyOp55
 70
     1
102
RTVSPropertyOp56
 70
     1
102
RTVSPropertyOp57
 70
     1
102
RTVSPost2010Prop28
280
     0
102
RTVSPost2010PropOp28
 70
     1
102
RTVSPost2010Prop29
280
     1
102
RTVSPost2010PropOp29
 70
     1
102
RTVSPost2010Prop30
280
     1
102
RTVSPost2010PropOp30
 70
     1
102
RTVSPost2010Prop31
280
     0
102
RTVSPost2010PropOp31
 70
     1
102
RTVSPost2010Prop32
280
     0
102
RTVSPost2010PropOp32
 70
     1
102
RTVSPost2010Prop33
280
     0
102
RTVSPost2010PropOp33
 70
     1
102
RTVSPost2010Prop34
280
     0
102
RTVSPost2010PropOp34
 70
     1
102
RTVSPost2010Prop35
280
     0
102
RTVSPost2010PropOp35
 70
     1
102
RTVSPost2010Prop36
280
     0
102
RTVSPost2010PropOp36
 70
     1
102
RTVSPost2010Prop37
 90
       50
102
RTVSPost2010PropOp37
 70
     1
102
RTVSPost2010Prop38
140
0.0
102
RTVSPost2010PropOp38
 70
     1
102
RTVSPost2010Prop39
140
1.0
102
RTVSPost2010PropOp39
 70
     1
102
RTVSPost2010Prop40
 90
        0
102
RTVSPost2010PropOp40
 70
     1
102
RTVSPost2010Prop41ColorIndex
 90
       18
102
RTVSPost2010Prop41ColorRGB
 90
        0
102
RTVSPost2010PropOp41
 70
     1
102
RTVSPost2010Prop42
 90
       50
102
RTVSPost2010PropOp42
 70
     1
102
RTVSPost2010Prop43
 90
        3
102
RTVSPost2010PropOp43
 70
     1
102
RTVSPost2010Prop44ColorIndex
 90
        5
102
RTVSPost2010Prop44ColorRGB
 90
      255
102
RTVSPost2010PropOp44
 70
     1
102
RTVSPost2010Prop45
280
     0
102
RTVSPost2010PropOp45
 70
     1
102
RTVSPost2010Prop46
 90
       50
102
RTVSPost2010PropOp46
 70
     1
102
RTVSPost2010Prop47
 90
       50
102
RTVSPost2010PropOp47
 70
     1
102
RTVSPost2010Prop48
 90
       50
102
RTVSPost2010PropOp48
 70
     1
102
RTVSPost2010Prop49
280
     0
102
RTVSPost2010PropOp49
 70
     1
102
RTVSPost2010Prop50
 90
       50
102
RTVSPost2010PropOp50
 70
     1
102
RTVSPost2010Prop51ColorIndex
 90
      256
102
RTVSPost2010Prop51ColorRGB
 90
-16777216
102
RTVSPost2010PropOp51
 70
     0
102
RTVSPost2010Prop52
140
1.0
102
RTVSPost2010PropOp52
 70
     0
102
RTVSPost2010Prop53
 90
        2
102
RTVSPost2010PropOp53
 70
     1
102
RTVSPost2010Prop54
  1
strokes_ogs.tif
102
RTVSPost2010PropOp54
 70
     1
102
RTVSPost2010Prop55
280
     0
102
RTVSPost2010PropOp55
 70
     1
102
RTVSPost2010Prop56
140
1.0
102
RTVSPost2010PropOp56
 70
     1
102
RTVSPost2010Prop57
140
1.0
102
RTVSPost2010PropOp57
 70
     1
  0
XRECORD
  5
DF
102
{ACAD_REACTORS
330
DE
102
}
330
DE
100
AcDbXrecord
280
     1
102
RTVSPropertyOp0
 70
     1
102
RTVSPropertyOp1
 70
     1
102
RTVSPropertyOp2
 70
     1
102
RTVSPropertyOp3
 70
     1
102
RTVSPropertyOp4
 70
     1
102
RTVSPropertyOp5
 70
     1
102
RTVSPropertyOp6
 70
     1
102
RTVSPropertyOp7
 70
     1
102
RTVSPropertyOp8
 70
     1
102
RTVSPropertyOp9
 70
     1
102
RTVSPropertyOp10
 70
     1
102
RTVSPropertyOp11
 70
     1
102
RTVSPropertyOp12
 70
     1
102
RTVSPropertyOp13
 70
     1
102
RTVSPropertyOp14
 70
     1
102
RTVSPropertyOp15
 70
     1
102
RTVSPropertyOp16
 70
     1
102
RTVSPropertyOp17
 70
     1
102
RTVSPropertyOp18
 70
     1
102
RTVSPropertyOp19
 70
     1
102
RTVSPropertyOp20
 70
     1
102
RTVSPropertyOp21
 70
     1
102
RTVSPropertyOp22
 70
     1
102
RTVSPropertyOp23
 70
     1
102
RTVSPropertyOp24
 70
     1
102
RTVSPropertyOp25
 70
     1
102
RTVSPropertyOp26
 70
     1
102
RTVSPropertyOp27
 70
     1
102
RTVSPropertyOp28
 70
     1
102
RTVSPropertyOp29
 70
     1
102
RTVSPropertyOp30
 70
     1
102
RTVSPropertyOp31
 70
     1
102
RTVSPropertyOp32
 70
     1
102
RTVSPropertyOp33
 70
     1
102
RTVSPropertyOp34
 70
     1
102
RTVSPropertyOp35
 70
     1
102
RTVSPropertyOp36
 70
     1
102
RTVSPropertyOp37
 70
     1
102
RTVSPropertyOp38
 70
     1
102
RTVSPropertyOp39
 70
     1
102
RTVSPropertyOp40
 70
     1
102
RTVSPropertyOp41
 70
     1
102
RTVSPropertyOp42
 70
     1
102
RTVSPropertyOp43
 70
     1
102
RTVSPropertyOp44
 70
     1
102
RTVSPropertyOp45
 70
     1
102
RTVSPropertyOp46
 70
     1
102
RTVSPropertyOp47
 70
     1
102
RTVSPropertyOp48
 70
     1
102
RTVSPropertyOp49
 70
     1
102
RTVSPropertyOp50
 70
     1
102
RTVSPropertyOp51
 70
     0
102
RTVSPropertyOp52
 70
     0
102
RTVSPropertyOp53
 70
     1
102
RTVSPropertyOp54
 70
     1
102
RTVSPropertyOp55
 70
     1
102
RTVSPropertyOp56
 70
     1
102
RTVSPropertyOp57
 70
     1
102
RTVSPost2010Prop28
280
     0
102
RTVSPost2010PropOp28
 70
     1
102
RTVSPost2010Prop29
280
     1
102
RTVSPost2010PropOp29
 70
     1
102
RTVSPost2010Prop30
280
     1
102
RTVSPost2010PropOp30
 70
     1
102
RTVSPost2010Prop31
280
     0
102
RTVSPost2010PropOp31
 70
     1
102
RTVSPost2010Prop32
280
     0
102
RTVSPost2010PropOp32
 70
     1
102
RTVSPost2010Prop33
280
     0
102
RTVSPost2010PropOp33
 70
     1
102
RTVSPost2010Prop34
280
     0
102
RTVSPost2010PropOp34
 70
     1
102
RTVSPost2010Prop35
280
     0
102
RTVSPost2010PropOp35
 70
     1
102
RTVSPost2010Prop36
280
     0
102
RTVSPost2010PropOp36
 70
     1
102
RTVSPost2010Prop37
 90
       50
102
RTVSPost2010PropOp37
 70
     1
102
RTVSPost2010Prop38
140
0.0
102
RTVSPost2010PropOp38
 70
     1
102
RTVSPost2010Prop39
140
1.0
102
RTVSPost2010PropOp39
 70
     1
102
RTVSPost2010Prop40
 90
        0
102
RTVSPost2010PropOp40
 70
     1
102
RTVSPost2010Prop41ColorIndex
 90
       18
102
RTVSPost2010Prop41ColorRGB
 90
        0
102
RTVSPost2010PropOp41
 70
     1
102
RTVSPost2010Prop42
 90
       50
102
RTVSPost2010PropOp42
 70
     1
102
RTVSPost2010Prop43
 90
        3
102
RTVSPost2010PropOp43
 70
     1
102
RTVSPost2010Prop44ColorIndex
 90
        5
102
RTVSPost2010Prop44ColorRGB
 90
      255
102
RTVSPost2010PropOp44
 70
     1
102
RTVSPost2010Prop45
280
     0
102
RTVSPost2010PropOp45
 70
     1
102
RTVSPost2010Prop46
 90
       50
102
RTVSPost2010PropOp46
 70
     1
102
RTVSPost2010Prop47
 90
       50
102
RTVSPost2010PropOp47
 70
     1
102
RTVSPost2010Prop48
 90
       50
102
RTVSPost2010PropOp48
 70
     1
102
RTVSPost2010Prop49
280
     0
102
RTVSPost2010PropOp49
 70
     1
102
RTVSPost2010Prop50
 90
       50
102
RTVSPost2010PropOp50
 70
     1
102
RTVSPost2010Prop51ColorIndex
 90
      256
102
RTVSPost2010Prop51ColorRGB
 90
-16777216
102
RTVSPost2010PropOp51
 70
     0
102
RTVSPost2010Prop52
140
1.0
102
RTVSPost2010PropOp52
 70
     0
102
RTVSPost2010Prop53
 90
        2
102
RTVSPost2010PropOp53
 70
     1
102
RTVSPost2010Prop54
  1
strokes_ogs.tif
102
RTVSPost2010PropOp54
 70
     1
102
RTVSPost2010Prop55
280
     0
102
RTVSPost2010PropOp55
 70
     1
102
RTVSPost2010Prop56
140
1.0
102
RTVSPost2010PropOp56
 70
     1
102
RTVSPost2010Prop57
140
1.0
102
RTVSPost2010PropOp57
 70
     1
  0
XRECORD
  5
E7
102
{ACAD_REACTORS
330
E6
102
}
330
E6
100
AcDbXrecord
280
     1
102
RTVSPropertyOp0
 70
     1
102
RTVSPropertyOp1
 70
     1
102
RTVSPropertyOp2
 70
     1
102
RTVSPropertyOp3
 70
     1
102
RTVSPropertyOp4
 70
     1
102
RTVSPropertyOp5
 70
     1
102
RTVSPropertyOp6
 70
     1
102
RTVSPropertyOp7
 70
     1
102
RTVSPropertyOp8
 70
     1
102
RTVSPropertyOp9
 70
     1
102
RTVSPropertyOp10
 70
     1
102
RTVSPropertyOp11
 70
     1
102
RTVSPropertyOp12
 70
     1
102
RTVSPropertyOp13
 70
     1
102
RTVSPropertyOp14
 70
     1
102
RTVSPropertyOp15
 70
     1
102
RTVSPropertyOp16
 70
     1
102
RTVSPropertyOp17
 70
     1
102
RTVSPropertyOp18
 70
     1
102
RTVSPropertyOp19
 70
     1
102
RTVSPropertyOp20
 70
     1
102
RTVSPropertyOp21
 70
     1
102
RTVSPropertyOp22
 70
     1
102
RTVSPropertyOp23
 70
     1
102
RTVSPropertyOp24
 70
     1
102
RTVSPropertyOp25
 70
     1
102
RTVSPropertyOp26
 70
     1
102
RTVSPropertyOp27
 70
     1
102
RTVSPropertyOp28
 70
     1
102
RTVSPropertyOp29
 70
     1
102
RTVSPropertyOp30
 70
     1
102
RTVSPropertyOp31
 70
     1
102
RTVSPropertyOp32
 70
     1
102
RTVSPropertyOp33
 70
     1
102
RTVSPropertyOp34
 70
     1
102
RTVSPropertyOp35
 70
     1
102
RTVSPropertyOp36
 70
     1
102
RTVSPropertyOp37
 70
     1
102
RTVSPropertyOp38
 70
     1
102
RTVSPropertyOp39
 70
     1
102
RTVSPropertyOp40
 70
     1
102
RTVSPropertyOp41
 70
     1
102
RTVSPropertyOp42
 70
     1
102
RTVSPropertyOp43
 70
     1
102
RTVSPropertyOp44
 70
     1
102
RTVSPropertyOp45
 70
     1
102
RTVSPropertyOp46
 70
     1
102
RTVSPropertyOp47
 70
     1
102
RTVSPropertyOp48
 70
     1
102
RTVSPropertyOp49
 70
     1
102
RTVSPropertyOp50
 70
     1
102
RTVSPropertyOp51
 70
     0
102
RTVSPropertyOp52
 70
     0
102
RTVSPropertyOp53
 70
     1
102
RTVSPropertyOp54
 70
     1
102
RTVSPropertyOp55
 70
     1
102
RTVSPropertyOp56
 70
     1
102
RTVSPropertyOp57
 70
     1
102
RTVSPost2010Prop28
280
     0
102
RTVSPost2010PropOp28
 70
     1
102
RTVSPost2010Prop29
280
     1
102
RTVSPost2010PropOp29
 70
     1
102
RTVSPost2010Prop30
280
     1
102
RTVSPost2010PropOp30
 70
     1
102
RTVSPost2010Prop31
280
     0
102
RTVSPost2010PropOp31
 70
     1
102
RTVSPost2010Prop32
280
     0
102
RTVSPost2010PropOp32
 70
     1
102
RTVSPost2010Prop33
280
     0
102
RTVSPost2010PropOp33
 70
     1
102
RTVSPost2010Prop34
280
     0
102
RTVSPost2010PropOp34
 70
     1
102
RTVSPost2010Prop35
280
     0
102
RTVSPost2010PropOp35
 70
     1
102
RTVSPost2010Prop36
280
     0
102
RTVSPost2010PropOp36
 70
     1
102
RTVSPost2010Prop37
 90
       50
102
RTVSPost2010PropOp37
 70
     1
102
RTVSPost2010Prop38
140
0.0
102
RTVSPost2010PropOp38
 70
     1
102
RTVSPost2010Prop39
140
1.0
102
RTVSPost2010PropOp39
 70
     1
102
RTVSPost2010Prop40
 90
        0
102
RTVSPost2010PropOp40
 70
     1
102
RTVSPost2010Prop41ColorIndex
 90
       18
102
RTVSPost2010Prop41ColorRGB
 90
        0
102
RTVSPost2010PropOp41
 70
     1
102
RTVSPost2010Prop42
 90
       50
102
RTVSPost2010PropOp42
 70
     1
102
RTVSPost2010Prop43
 90
        3
102
RTVSPost2010PropOp43
 70
     1
102
RTVSPost2010Prop44ColorIndex
 90
        5
102
RTVSPost2010Prop44ColorRGB
 90
      255
102
RTVSPost2010PropOp44
 70
     1
102
RTVSPost2010Prop45
280
     0
102
RTVSPost2010PropOp45
 70
     1
102
RTVSPost2010Prop46
 90
       50
102
RTVSPost2010PropOp46
 70
     1
102
RTVSPost2010Prop47
 90
       50
102
RTVSPost2010PropOp47
 70
     1
102
RTVSPost2010Prop48
 90
       50
102
RTVSPost2010PropOp48
 70
     1
102
RTVSPost2010Prop49
280
     0
102
RTVSPost2010PropOp49
 70
     1
102
RTVSPost2010Prop50
 90
       50
102
RTVSPost2010PropOp50
 70
     1
102
RTVSPost2010Prop51ColorIndex
 90
      256
102
RTVSPost2010Prop51ColorRGB
 90
-16777216
102
RTVSPost2010PropOp51
 70
     0
102
RTVSPost2010Prop52
140
1.0
102
RTVSPost2010PropOp52
 70
     0
102
RTVSPost2010Prop53
 90
        2
102
RTVSPost2010PropOp53
 70
     1
102
RTVSPost2010Prop54
  1
strokes_ogs.tif
102
RTVSPost2010PropOp54
 70
     1
102
RTVSPost2010Prop55
280
     0
102
RTVSPost2010PropOp55
 70
     1
102
RTVSPost2010Prop56
140
1.0
102
RTVSPost2010PropOp56
 70
     1
102
RTVSPost2010Prop57
140
1.0
102
RTVSPost2010PropOp57
 70
     1
  0
XRECORD
  5
DB
102
{ACAD_REACTORS
330
DA
102
}
330
DA
100
AcDbXrecord
280
     1
102
RTVSPropertyOp0
 70
     1
102
RTVSPropertyOp1
 70
     1
102
RTVSPropertyOp2
 70
     1
102
RTVSPropertyOp3
 70
     1
102
RTVSPropertyOp4
 70
     1
102
RTVSPropertyOp5
 70
     1
102
RTVSPropertyOp6
 70
     1
102
RTVSPropertyOp7
 70
     1
102
RTVSPropertyOp8
 70
     1
102
RTVSPropertyOp9
 70
     1
102
RTVSPropertyOp10
 70
     1
102
RTVSPropertyOp11
 70
     1
102
RTVSPropertyOp12
 70
     1
102
RTVSPropertyOp13
 70
     1
102
RTVSPropertyOp14
 70
     1
102
RTVSPropertyOp15
 70
     1
102
RTVSPropertyOp16
 70
     1
102
RTVSPropertyOp17
 70
     1
102
RTVSPropertyOp18
 70
     1
102
RTVSPropertyOp19
 70
     1
102
RTVSPropertyOp20
 70
     1
102
RTVSPropertyOp21
 70
     1
102
RTVSPropertyOp22
 70
     1
102
RTVSPropertyOp23
 70
     1
102
RTVSPropertyOp24
 70
     1
102
RTVSPropertyOp25
 70
     1
102
RTVSPropertyOp26
 70
     1
102
RTVSPropertyOp27
 70
     1
102
RTVSPropertyOp28
 70
     1
102
RTVSPropertyOp29
 70
     1
102
RTVSPropertyOp30
 70
     1
102
RTVSPropertyOp31
 70
     1
102
RTVSPropertyOp32
 70
     1
102
RTVSPropertyOp33
 70
     1
102
RTVSPropertyOp34
 70
     1
102
RTVSPropertyOp35
 70
     1
102
RTVSPropertyOp36
 70
     1
102
RTVSPropertyOp37
 70
     1
102
RTVSPropertyOp38
 70
     1
102
RTVSPropertyOp39
 70
     1
102
RTVSPropertyOp40
 70
     1
102
RTVSPropertyOp41
 70
     1
102
RTVSPropertyOp42
 70
     1
102
RTVSPropertyOp43
 70
     1
102
RTVSPropertyOp44
 70
     1
102
RTVSPropertyOp45
 70
     1
102
RTVSPropertyOp46
 70
     1
102
RTVSPropertyOp47
 70
     1
102
RTVSPropertyOp48
 70
     1
102
RTVSPropertyOp49
 70
     1
102
RTVSPropertyOp50
 70
     1
102
RTVSPropertyOp51
 70
     0
102
RTVSPropertyOp52
 70
     0
102
RTVSPropertyOp53
 70
     1
102
RTVSPropertyOp54
 70
     1
102
RTVSPropertyOp55
 70
     1
102
RTVSPropertyOp56
 70
     1
102
RTVSPropertyOp57
 70
     1
102
RTVSPost2010Prop28
280
     0
102
RTVSPost2010PropOp28
 70
     1
102
RTVSPost2010Prop29
280
     1
102
RTVSPost2010PropOp29
 70
     1
102
RTVSPost2010Prop30
280
     1
102
RTVSPost2010PropOp30
 70
     1
102
RTVSPost2010Prop31
280
     0
102
RTVSPost2010PropOp31
 70
     1
102
RTVSPost2010Prop32
280
     0
102
RTVSPost2010PropOp32
 70
     1
102
RTVSPost2010Prop33
280
     0
102
RTVSPost2010PropOp33
 70
     1
102
RTVSPost2010Prop34
280
     0
102
RTVSPost2010PropOp34
 70
     1
102
RTVSPost2010Prop35
280
     0
102
RTVSPost2010PropOp35
 70
     1
102
RTVSPost2010Prop36
280
     0
102
RTVSPost2010PropOp36
 70
     1
102
RTVSPost2010Prop37
 90
       50
102
RTVSPost2010PropOp37
 70
     1
102
RTVSPost2010Prop38
140
0.0
102
RTVSPost2010PropOp38
 70
     1
102
RTVSPost2010Prop39
140
1.0
102
RTVSPost2010PropOp39
 70
     1
102
RTVSPost2010Prop40
 90
        0
102
RTVSPost2010PropOp40
 70
     1
102
RTVSPost2010Prop41ColorIndex
 90
       18
102
RTVSPost2010Prop41ColorRGB
 90
        0
102
RTVSPost2010PropOp41
 70
     1
102
RTVSPost2010Prop42
 90
       50
102
RTVSPost2010PropOp42
 70
     1
102
RTVSPost2010Prop43
 90
        3
102
RTVSPost2010PropOp43
 70
     1
102
RTVSPost2010Prop44ColorIndex
 90
        5
102
RTVSPost2010Prop44ColorRGB
 90
      255
102
RTVSPost2010PropOp44
 70
     1
102
RTVSPost2010Prop45
280
     0
102
RTVSPost2010PropOp45
 70
     1
102
RTVSPost2010Prop46
 90
       50
102
RTVSPost2010PropOp46
 70
     1
102
RTVSPost2010Prop47
 90
       50
102
RTVSPost2010PropOp47
 70
     1
102
RTVSPost2010Prop48
 90
       50
102
RTVSPost2010PropOp48
 70
     1
102
RTVSPost2010Prop49
280
     0
102
RTVSPost2010PropOp49
 70
     1
102
RTVSPost2010Prop50
 90
       50
102
RTVSPost2010PropOp50
 70
     1
102
RTVSPost2010Prop51ColorIndex
 90
      256
102
RTVSPost2010Prop51ColorRGB
 90
-16777216
102
RTVSPost2010PropOp51
 70
     0
102
RTVSPost2010Prop52
140
1.0
102
RTVSPost2010PropOp52
 70
     0
102
RTVSPost2010Prop53
 90
        2
102
RTVSPost2010PropOp53
 70
     1
102
RTVSPost2010Prop54
  1
strokes_ogs.tif
102
RTVSPost2010PropOp54
 70
     1
102
RTVSPost2010Prop55
280
     0
102
RTVSPost2010PropOp55
 70
     1
102
RTVSPost2010Prop56
140
1.0
102
RTVSPost2010PropOp56
 70
     1
102
RTVSPost2010Prop57
140
1.0
102
RTVSPost2010PropOp57
 70
     1
  0
XRECORD
  5
DD
102
{ACAD_REACTORS
330
DC
102
}
330
DC
100
AcDbXrecord
280
     1
102
RTVSPropertyOp0
 70
     1
102
RTVSPropertyOp1
 70
     1
102
RTVSPropertyOp2
 70
     1
102
RTVSPropertyOp3
 70
     1
102
RTVSPropertyOp4
 70
     1
102
RTVSPropertyOp5
 70
     1
102
RTVSPropertyOp6
 70
     1
102
RTVSPropertyOp7
 70
     1
102
RTVSPropertyOp8
 70
     1
102
RTVSPropertyOp9
 70
     1
102
RTVSPropertyOp10
 70
     1
102
RTVSPropertyOp11
 70
     1
102
RTVSPropertyOp12
 70
     1
102
RTVSPropertyOp13
 70
     1
102
RTVSPropertyOp14
 70
     1
102
RTVSPropertyOp15
 70
     1
102
RTVSPropertyOp16
 70
     1
102
RTVSPropertyOp17
 70
     1
102
RTVSPropertyOp18
 70
     1
102
RTVSPropertyOp19
 70
     1
102
RTVSPropertyOp20
 70
     1
102
RTVSPropertyOp21
 70
     1
102
RTVSPropertyOp22
 70
     1
102
RTVSPropertyOp23
 70
     1
102
RTVSPropertyOp24
 70
     1
102
RTVSPropertyOp25
 70
     1
102
RTVSPropertyOp26
 70
     1
102
RTVSPropertyOp27
 70
     1
102
RTVSPropertyOp28
 70
     1
102
RTVSPropertyOp29
 70
     1
102
RTVSPropertyOp30
 70
     1
102
RTVSPropertyOp31
 70
     1
102
RTVSPropertyOp32
 70
     1
102
RTVSPropertyOp33
 70
     1
102
RTVSPropertyOp34
 70
     1
102
RTVSPropertyOp35
 70
     1
102
RTVSPropertyOp36
 70
     1
102
RTVSPropertyOp37
 70
     1
102
RTVSPropertyOp38
 70
     1
102
RTVSPropertyOp39
 70
     1
102
RTVSPropertyOp40
 70
     1
102
RTVSPropertyOp41
 70
     1
102
RTVSPropertyOp42
 70
     1
102
RTVSPropertyOp43
 70
     1
102
RTVSPropertyOp44
 70
     1
102
RTVSPropertyOp45
 70
     1
102
RTVSPropertyOp46
 70
     1
102
RTVSPropertyOp47
 70
     1
102
RTVSPropertyOp48
 70
     1
102
RTVSPropertyOp49
 70
     1
102
RTVSPropertyOp50
 70
     1
102
RTVSPropertyOp51
 70
     0
102
RTVSPropertyOp52
 70
     0
102
RTVSPropertyOp53
 70
     1
102
RTVSPropertyOp54
 70
     1
102
RTVSPropertyOp55
 70
     1
102
RTVSPropertyOp56
 70
     1
102
RTVSPropertyOp57
 70
     1
102
RTVSPost2010Prop28
280
     0
102
RTVSPost2010PropOp28
 70
     1
102
RTVSPost2010Prop29
280
     1
102
RTVSPost2010PropOp29
 70
     1
102
RTVSPost2010Prop30
280
     1
102
RTVSPost2010PropOp30
 70
     1
102
RTVSPost2010Prop31
280
     0
102
RTVSPost2010PropOp31
 70
     1
102
RTVSPost2010Prop32
280
     0
102
RTVSPost2010PropOp32
 70
     1
102
RTVSPost2010Prop33
280
     0
102
RTVSPost2010PropOp33
 70
     1
102
RTVSPost2010Prop34
280
     0
102
RTVSPost2010PropOp34
 70
     1
102
RTVSPost2010Prop35
280
     0
102
RTVSPost2010PropOp35
 70
     1
102
RTVSPost2010Prop36
280
     0
102
RTVSPost2010PropOp36
 70
     1
102
RTVSPost2010Prop37
 90
       50
102
RTVSPost2010PropOp37
 70
     1
102
RTVSPost2010Prop38
140
0.0
102
RTVSPost2010PropOp38
 70
     1
102
RTVSPost2010Prop39
140
1.0
102
RTVSPost2010PropOp39
 70
     1
102
RTVSPost2010Prop40
 90
        0
102
RTVSPost2010PropOp40
 70
     1
102
RTVSPost2010Prop41ColorIndex
 90
       18
102
RTVSPost2010Prop41ColorRGB
 90
        0
102
RTVSPost2010PropOp41
 70
     1
102
RTVSPost2010Prop42
 90
       50
102
RTVSPost2010PropOp42
 70
     1
102
RTVSPost2010Prop43
 90
        3
102
RTVSPost2010PropOp43
 70
     1
102
RTVSPost2010Prop44ColorIndex
 90
        5
102
RTVSPost2010Prop44ColorRGB
 90
      255
102
RTVSPost2010PropOp44
 70
     1
102
RTVSPost2010Prop45
280
     0
102
RTVSPost2010PropOp45
 70
     1
102
RTVSPost2010Prop46
 90
       50
102
RTVSPost2010PropOp46
 70
     1
102
RTVSPost2010Prop47
 90
       50
102
RTVSPost2010PropOp47
 70
     1
102
RTVSPost2010Prop48
 90
       50
102
RTVSPost2010PropOp48
 70
     1
102
RTVSPost2010Prop49
280
     0
102
RTVSPost2010PropOp49
 70
     1
102
RTVSPost2010Prop50
 90
       50
102
RTVSPost2010PropOp50
 70
     1
102
RTVSPost2010Prop51ColorIndex
 90
      256
102
RTVSPost2010Prop51ColorRGB
 90
-16777216
102
RTVSPost2010PropOp51
 70
     0
102
RTVSPost2010Prop52
140
1.0
102
RTVSPost2010PropOp52
 70
     0
102
RTVSPost2010Prop53
 90
        2
102
RTVSPost2010PropOp53
 70
     1
102
RTVSPost2010Prop54
  1
strokes_ogs.tif
102
RTVSPost2010PropOp54
 70
     1
102
RTVSPost2010Prop55
280
     0
102
RTVSPost2010PropOp55
 70
     1
102
RTVSPost2010Prop56
140
1.0
102
RTVSPost2010PropOp56
 70
     1
102
RTVSPost2010Prop57
140
1.0
102
RTVSPost2010PropOp57
 70
     1
  0
XRECORD
  5
ED
102
{ACAD_REACTORS
330
EC
102
}
330
EC
100
AcDbXrecord
280
     1
102
RTVSPropertyOp0
 70
     0
102
RTVSPropertyOp1
 70
     0
102
RTVSPropertyOp2
 70
     0
102
RTVSPropertyOp3
 70
     0
102
RTVSPropertyOp4
 70
     0
102
RTVSPropertyOp5
 70
     0
102
RTVSPropertyOp6
 70
     0
102
RTVSPropertyOp7
 70
     0
102
RTVSPropertyOp8
 70
     0
102
RTVSPropertyOp9
 70
     0
102
RTVSPropertyOp10
 70
     0
102
RTVSPropertyOp11
 70
     0
102
RTVSPropertyOp12
 70
     0
102
RTVSPropertyOp13
 70
     0
102
RTVSPropertyOp14
 70
     2
102
RTVSPropertyOp15
 70
     0
102
RTVSPropertyOp16
 70
     0
102
RTVSPropertyOp17
 70
     0
102
RTVSPropertyOp18
 70
     0
102
RTVSPropertyOp19
 70
     0
102
RTVSPropertyOp20
 70
     0
102
RTVSPropertyOp21
 70
     0
102
RTVSPropertyOp22
 70
     0
102
RTVSPropertyOp23
 70
     0
102
RTVSPropertyOp24
 70
     0
102
RTVSPropertyOp25
 70
     0
102
RTVSPropertyOp26
 70
     0
102
RTVSPropertyOp27
 70
     0
102
RTVSPropertyOp28
 70
     0
102
RTVSPropertyOp29
 70
     0
102
RTVSPropertyOp30
 70
     0
102
RTVSPropertyOp31
 70
     0
102
RTVSPropertyOp32
 70
     0
102
RTVSPropertyOp33
 70
     0
102
RTVSPropertyOp34
 70
     0
102
RTVSPropertyOp35
 70
     0
102
RTVSPropertyOp36
 70
     0
102
RTVSPropertyOp37
 70
     0
102
RTVSPropertyOp38
 70
     0
102
RTVSPropertyOp39
 70
     0
102
RTVSPropertyOp40
 70
     0
102
RTVSPropertyOp41
 70
     0
102
RTVSPropertyOp42
 70
     0
102
RTVSPropertyOp43
 70
     0
102
RTVSPropertyOp44
 70
     0
102
RTVSPropertyOp45
 70
     0
102
RTVSPropertyOp46
 70
     0
102
RTVSPropertyOp47
 70
     0
102
RTVSPropertyOp48
 70
     0
102
RTVSPropertyOp49
 70
     0
102
RTVSPropertyOp50
 70
     0
102
RTVSPropertyOp51
 70
     0
102
RTVSPropertyOp52
 70
     0
102
RTVSPropertyOp53
 70
     0
102
RTVSPropertyOp54
 70
     0
102
RTVSPropertyOp55
 70
     0
102
RTVSPropertyOp56
 70
     0
102
RTVSPropertyOp57
 70
     0
102
RTVSPost2010Prop28
280
     0
102
RTVSPost2010PropOp28
 70
     0
102
RTVSPost2010Prop29
280
     1
102
RTVSPost2010PropOp29
 70
     0
102
RTVSPost2010Prop30
280
     1
102
RTVSPost2010PropOp30
 70
     0
102
RTVSPost2010Prop31
280
     0
102
RTVSPost2010PropOp31
 70
     0
102
RTVSPost2010Prop32
280
     0
102
RTVSPost2010PropOp32
 70
     0
102
RTVSPost2010Prop33
280
     0
102
RTVSPost2010PropOp33
 70
     0
102
RTVSPost2010Prop34
280
     0
102
RTVSPost2010PropOp34
 70
     0
102
RTVSPost2010Prop35
280
     0
102
RTVSPost2010PropOp35
 70
     0
102
RTVSPost2010Prop36
280
     0
102
RTVSPost2010PropOp36
 70
     0
102
RTVSPost2010Prop37
 90
       50
102
RTVSPost2010PropOp37
 70
     0
102
RTVSPost2010Prop38
140
0.0
102
RTVSPost2010PropOp38
 70
     0
102
RTVSPost2010Prop39
140
1.0
102
RTVSPost2010PropOp39
 70
     0
102
RTVSPost2010Prop40
 90
        0
102
RTVSPost2010PropOp40
 70
     0
102
RTVSPost2010Prop41ColorIndex
 90
       18
102
RTVSPost2010Prop41ColorRGB
 90
        0
102
RTVSPost2010PropOp41
 70
     0
102
RTVSPost2010Prop42
 90
       50
102
RTVSPost2010PropOp42
 70
     0
102
RTVSPost2010Prop43
 90
        3
102
RTVSPost2010PropOp43
 70
     0
102
RTVSPost2010Prop44ColorIndex
 90
        5
102
RTVSPost2010Prop44ColorRGB
 90
      255
102
RTVSPost2010PropOp44
 70
     0
102
RTVSPost2010Prop45
280
     0
102
RTVSPost2010PropOp45
 70
     0
102
RTVSPost2010Prop46
 90
       50
102
RTVSPost2010PropOp46
 70
     0
102
RTVSPost2010Prop47
 90
       50
102
RTVSPost2010PropOp47
 70
     0
102
RTVSPost2010Prop48
 90
       50
102
RTVSPost2010PropOp48
 70
     0
102
RTVSPost2010Prop49
280
     0
102
RTVSPost2010PropOp49
 70
     0
102
RTVSPost2010Prop50
 90
       50
102
RTVSPost2010PropOp50
 70
     0
102
RTVSPost2010Prop51ColorIndex
 90
      256
102
RTVSPost2010Prop51ColorRGB
 90
-16777216
102
RTVSPost2010PropOp51
 70
     0
102
RTVSPost2010Prop52
140
1.0
102
RTVSPost2010PropOp52
 70
     0
102
RTVSPost2010Prop53
 90
        2
102
RTVSPost2010PropOp53
 70
     0
102
RTVSPost2010Prop54
  1
strokes_ogs.tif
102
RTVSPost2010PropOp54
 70
     0
102
RTVSPost2010Prop55
280
     0
102
RTVSPost2010PropOp55
 70
     0
102
RTVSPost2010Prop56
140
1.0
102
RTVSPost2010PropOp56
 70
     0
102
RTVSPost2010Prop57
140
1.0
102
RTVSPost2010PropOp57
 70
     0
  0
XRECORD
  5
E5
102
{ACAD_REACTORS
330
E4
102
}
330
E4
100
AcDbXrecord
280
     1
102
RTVSPropertyOp0
 70
     1
102
RTVSPropertyOp1
 70
     1
102
RTVSPropertyOp2
 70
     1
102
RTVSPropertyOp3
 70
     1
102
RTVSPropertyOp4
 70
     1
102
RTVSPropertyOp5
 70
     1
102
RTVSPropertyOp6
 70
     1
102
RTVSPropertyOp7
 70
     1
102
RTVSPropertyOp8
 70
     1
102
RTVSPropertyOp9
 70
     1
102
RTVSPropertyOp10
 70
     1
102
RTVSPropertyOp11
 70
     1
102
RTVSPropertyOp12
 70
     1
102
RTVSPropertyOp13
 70
     1
102
RTVSPropertyOp14
 70
     1
102
RTVSPropertyOp15
 70
     1
102
RTVSPropertyOp16
 70
     1
102
RTVSPropertyOp17
 70
     1
102
RTVSPropertyOp18
 70
     1
102
RTVSPropertyOp19
 70
     1
102
RTVSPropertyOp20
 70
     1
102
RTVSPropertyOp21
 70
     1
102
RTVSPropertyOp22
 70
     1
102
RTVSPropertyOp23
 70
     1
102
RTVSPropertyOp24
 70
     1
102
RTVSPropertyOp25
 70
     1
102
RTVSPropertyOp26
 70
     1
102
RTVSPropertyOp27
 70
     1
102
RTVSPropertyOp28
 70
     1
102
RTVSPropertyOp29
 70
     1
102
RTVSPropertyOp30
 70
     1
102
RTVSPropertyOp31
 70
     1
102
RTVSPropertyOp32
 70
     1
102
RTVSPropertyOp33
 70
     1
102
RTVSPropertyOp34
 70
     1
102
RTVSPropertyOp35
 70
     1
102
RTVSPropertyOp36
 70
     1
102
RTVSPropertyOp37
 70
     1
102
RTVSPropertyOp38
 70
     1
102
RTVSPropertyOp39
 70
     1
102
RTVSPropertyOp40
 70
     1
102
RTVSPropertyOp41
 70
     1
102
RTVSPropertyOp42
 70
     1
102
RTVSPropertyOp43
 70
     1
102
RTVSPropertyOp44
 70
     1
102
RTVSPropertyOp45
 70
     1
102
RTVSPropertyOp46
 70
     1
102
RTVSPropertyOp47
 70
     1
102
RTVSPropertyOp48
 70
     1
102
RTVSPropertyOp49
 70
     1
102
RTVSPropertyOp50
 70
     1
102
RTVSPropertyOp51
 70
     0
102
RTVSPropertyOp52
 70
     0
102
RTVSPropertyOp53
 70
     1
102
RTVSPropertyOp54
 70
     1
102
RTVSPropertyOp55
 70
     1
102
RTVSPropertyOp56
 70
     1
102
RTVSPropertyOp57
 70
     1
102
RTVSPost2010Prop28
280
     0
102
RTVSPost2010PropOp28
 70
     1
102
RTVSPost2010Prop29
280
     1
102
RTVSPost2010PropOp29
 70
     1
102
RTVSPost2010Prop30
280
     1
102
RTVSPost2010PropOp30
 70
     1
102
RTVSPost2010Prop31
280
     0
102
RTVSPost2010PropOp31
 70
     1
102
RTVSPost2010Prop32
280
     0
102
RTVSPost2010PropOp32
 70
     1
102
RTVSPost2010Prop33
280
     0
102
RTVSPost2010PropOp33
 70
     1
102
RTVSPost2010Prop34
280
     0
102
RTVSPost2010PropOp34
 70
     1
102
RTVSPost2010Prop35
280
     0
102
RTVSPost2010PropOp35
 70
     1
102
RTVSPost2010Prop36
280
     0
102
RTVSPost2010PropOp36
 70
     1
102
RTVSPost2010Prop37
 90
       50
102
RTVSPost2010PropOp37
 70
     1
102
RTVSPost2010Prop38
140
0.0
102
RTVSPost2010PropOp38
 70
     1
102
RTVSPost2010Prop39
140
1.0
102
RTVSPost2010PropOp39
 70
     1
102
RTVSPost2010Prop40
 90
        0
102
RTVSPost2010PropOp40
 70
     1
102
RTVSPost2010Prop41ColorIndex
 90
       18
102
RTVSPost2010Prop41ColorRGB
 90
        0
102
RTVSPost2010PropOp41
 70
     1
102
RTVSPost2010Prop42
 90
       50
102
RTVSPost2010PropOp42
 70
     1
102
RTVSPost2010Prop43
 90
        3
102
RTVSPost2010PropOp43
 70
     1
102
RTVSPost2010Prop44ColorIndex
 90
        5
102
RTVSPost2010Prop44ColorRGB
 90
      255
102
RTVSPost2010PropOp44
 70
     1
102
RTVSPost2010Prop45
280
     0
102
RTVSPost2010PropOp45
 70
     1
102
RTVSPost2010Prop46
 90
       50
102
RTVSPost2010PropOp46
 70
     1
102
RTVSPost2010Prop47
 90
       50
102
RTVSPost2010PropOp47
 70
     1
102
RTVSPost2010Prop48
 90
       50
102
RTVSPost2010PropOp48
 70
     1
102
RTVSPost2010Prop49
280
     0
102
RTVSPost2010PropOp49
 70
     1
102
RTVSPost2010Prop50
 90
       50
102
RTVSPost2010PropOp50
 70
     1
102
RTVSPost2010Prop51ColorIndex
 90
      256
102
RTVSPost2010Prop51ColorRGB
 90
-16777216
102
RTVSPost2010PropOp51
 70
     0
102
RTVSPost2010Prop52
140
1.0
102
RTVSPost2010PropOp52
 70
     0
102
RTVSPost2010Prop53
 90
        2
102
RTVSPost2010PropOp53
 70
     1
102
RTVSPost2010Prop54
  1
strokes_ogs.tif
102
RTVSPost2010PropOp54
 70
     1
102
RTVSPost2010Prop55
280
     0
102
RTVSPost2010PropOp55
 70
     1
102
RTVSPost2010Prop56
140
1.0
102
RTVSPost2010PropOp56
 70
     1
102
RTVSPost2010Prop57
140
1.0
102
RTVSPost2010PropOp57
 70
     1
  0
XRECORD
  5
CB
102
{ACAD_REACTORS
330
CA
102
}
330
CA
100
AcDbXrecord
280
     1
102
RTVSPropertyOp0
 70
     1
102
RTVSPropertyOp1
 70
     1
102
RTVSPropertyOp2
 70
     1
102
RTVSPropertyOp3
 70
     1
102
RTVSPropertyOp4
 70
     1
102
RTVSPropertyOp5
 70
     1
102
RTVSPropertyOp6
 70
     1
102
RTVSPropertyOp7
 70
     1
102
RTVSPropertyOp8
 70
     1
102
RTVSPropertyOp9
 70
     1
102
RTVSPropertyOp10
 70
     1
102
RTVSPropertyOp11
 70
     1
102
RTVSPropertyOp12
 70
     1
102
RTVSPropertyOp13
 70
     1
102
RTVSPropertyOp14
 70
     1
102
RTVSPropertyOp15
 70
     1
102
RTVSPropertyOp16
 70
     1
102
RTVSPropertyOp17
 70
     1
102
RTVSPropertyOp18
 70
     1
102
RTVSPropertyOp19
 70
     1
102
RTVSPropertyOp20
 70
     1
102
RTVSPropertyOp21
 70
     1
102
RTVSPropertyOp22
 70
     1
102
RTVSPropertyOp23
 70
     1
102
RTVSPropertyOp24
 70
     1
102
RTVSPropertyOp25
 70
     1
102
RTVSPropertyOp26
 70
     1
102
RTVSPropertyOp27
 70
     1
102
RTVSPropertyOp28
 70
     1
102
RTVSPropertyOp29
 70
     1
102
RTVSPropertyOp30
 70
     1
102
RTVSPropertyOp31
 70
     1
102
RTVSPropertyOp32
 70
     1
102
RTVSPropertyOp33
 70
     1
102
RTVSPropertyOp34
 70
     1
102
RTVSPropertyOp35
 70
     1
102
RTVSPropertyOp36
 70
     1
102
RTVSPropertyOp37
 70
     1
102
RTVSPropertyOp38
 70
     1
102
RTVSPropertyOp39
 70
     1
102
RTVSPropertyOp40
 70
     1
102
RTVSPropertyOp41
 70
     1
102
RTVSPropertyOp42
 70
     1
102
RTVSPropertyOp43
 70
     1
102
RTVSPropertyOp44
 70
     1
102
RTVSPropertyOp45
 70
     1
102
RTVSPropertyOp46
 70
     1
102
RTVSPropertyOp47
 70
     1
102
RTVSPropertyOp48
 70
     1
102
RTVSPropertyOp49
 70
     1
102
RTVSPropertyOp50
 70
     1
102
RTVSPropertyOp51
 70
     0
102
RTVSPropertyOp52
 70
     0
102
RTVSPropertyOp53
 70
     1
102
RTVSPropertyOp54
 70
     1
102
RTVSPropertyOp55
 70
     1
102
RTVSPropertyOp56
 70
     1
102
RTVSPropertyOp57
 70
     1
102
RTVSPost2010Prop28
280
     0
102
RTVSPost2010PropOp28
 70
     1
102
RTVSPost2010Prop29
280
     1
102
RTVSPost2010PropOp29
 70
     1
102
RTVSPost2010Prop30
280
     1
102
RTVSPost2010PropOp30
 70
     1
102
RTVSPost2010Prop31
280
     0
102
RTVSPost2010PropOp31
 70
     1
102
RTVSPost2010Prop32
280
     0
102
RTVSPost2010PropOp32
 70
     1
102
RTVSPost2010Prop33
280
     0
102
RTVSPost2010PropOp33
 70
     1
102
RTVSPost2010Prop34
280
     0
102
RTVSPost2010PropOp34
 70
     1
102
RTVSPost2010Prop35
280
     0
102
RTVSPost2010PropOp35
 70
     1
102
RTVSPost2010Prop36
280
     0
102
RTVSPost2010PropOp36
 70
     1
102
RTVSPost2010Prop37
 90
       50
102
RTVSPost2010PropOp37
 70
     1
102
RTVSPost2010Prop38
140
0.0
102
RTVSPost2010PropOp38
 70
     1
102
RTVSPost2010Prop39
140
1.0
102
RTVSPost2010PropOp39
 70
     1
102
RTVSPost2010Prop40
 90
        0
102
RTVSPost2010PropOp40
 70
     1
102
RTVSPost2010Prop41ColorIndex
 90
       18
102
RTVSPost2010Prop41ColorRGB
 90
        0
102
RTVSPost2010PropOp41
 70
     1
102
RTVSPost2010Prop42
 90
       50
102
RTVSPost2010PropOp42
 70
     1
102
RTVSPost2010Prop43
 90
        3
102
RTVSPost2010PropOp43
 70
     1
102
RTVSPost2010Prop44ColorIndex
 90
        5
102
RTVSPost2010Prop44ColorRGB
 90
      255
102
RTVSPost2010PropOp44
 70
     1
102
RTVSPost2010Prop45
280
     0
102
RTVSPost2010PropOp45
 70
     1
102
RTVSPost2010Prop46
 90
       50
102
RTVSPost2010PropOp46
 70
     1
102
RTVSPost2010Prop47
 90
       50
102
RTVSPost2010PropOp47
 70
     1
102
RTVSPost2010Prop48
 90
       50
102
RTVSPost2010PropOp48
 70
     1
102
RTVSPost2010Prop49
280
     0
102
RTVSPost2010PropOp49
 70
     1
102
RTVSPost2010Prop50
 90
       50
102
RTVSPost2010PropOp50
 70
     1
102
RTVSPost2010Prop51ColorIndex
 90
      256
102
RTVSPost2010Prop51ColorRGB
 90
-16777216
102
RTVSPost2010PropOp51
 70
     0
102
RTVSPost2010Prop52
140
1.0
102
RTVSPost2010PropOp52
 70
     0
102
RTVSPost2010Prop53
 90
        2
102
RTVSPost2010PropOp53
 70
     1
102
RTVSPost2010Prop54
  1
strokes_ogs.tif
102
RTVSPost2010PropOp54
 70
     1
102
RTVSPost2010Prop55
280
     0
102
RTVSPost2010PropOp55
 70
     1
102
RTVSPost2010Prop56
140
1.0
102
RTVSPost2010PropOp56
 70
     1
102
RTVSPost2010Prop57
140
1.0
102
RTVSPost2010PropOp57
 70
     1
  0
XRECORD
  5
CD
102
{ACAD_REACTORS
330
CC
102
}
330
CC
100
AcDbXrecord
280
     1
102
RTVSPropertyOp0
 70
     1
102
RTVSPropertyOp1
 70
     1
102
RTVSPropertyOp2
 70
     1
102
RTVSPropertyOp3
 70
     1
102
RTVSPropertyOp4
 70
     1
102
RTVSPropertyOp5
 70
     1
102
RTVSPropertyOp6
 70
     1
102
RTVSPropertyOp7
 70
     1
102
RTVSPropertyOp8
 70
     1
102
RTVSPropertyOp9
 70
     1
102
RTVSPropertyOp10
 70
     1
102
RTVSPropertyOp11
 70
     1
102
RTVSPropertyOp12
 70
     1
102
RTVSPropertyOp13
 70
     1
102
RTVSPropertyOp14
 70
     1
102
RTVSPropertyOp15
 70
     1
102
RTVSPropertyOp16
 70
     1
102
RTVSPropertyOp17
 70
     1
102
RTVSPropertyOp18
 70
     1
102
RTVSPropertyOp19
 70
     1
102
RTVSPropertyOp20
 70
     1
102
RTVSPropertyOp21
 70
     1
102
RTVSPropertyOp22
 70
     1
102
RTVSPropertyOp23
 70
     1
102
RTVSPropertyOp24
 70
     1
102
RTVSPropertyOp25
 70
     1
102
RTVSPropertyOp26
 70
     1
102
RTVSPropertyOp27
 70
     1
102
RTVSPropertyOp28
 70
     1
102
RTVSPropertyOp29
 70
     1
102
RTVSPropertyOp30
 70
     1
102
RTVSPropertyOp31
 70
     1
102
RTVSPropertyOp32
 70
     1
102
RTVSPropertyOp33
 70
     1
102
RTVSPropertyOp34
 70
     1
102
RTVSPropertyOp35
 70
     1
102
RTVSPropertyOp36
 70
     1
102
RTVSPropertyOp37
 70
     1
102
RTVSPropertyOp38
 70
     1
102
RTVSPropertyOp39
 70
     1
102
RTVSPropertyOp40
 70
     1
102
RTVSPropertyOp41
 70
     1
102
RTVSPropertyOp42
 70
     1
102
RTVSPropertyOp43
 70
     1
102
RTVSPropertyOp44
 70
     1
102
RTVSPropertyOp45
 70
     1
102
RTVSPropertyOp46
 70
     1
102
RTVSPropertyOp47
 70
     1
102
RTVSPropertyOp48
 70
     1
102
RTVSPropertyOp49
 70
     1
102
RTVSPropertyOp50
 70
     1
102
RTVSPropertyOp51
 70
     0
102
RTVSPropertyOp52
 70
     0
102
RTVSPropertyOp53
 70
     1
102
RTVSPropertyOp54
 70
     1
102
RTVSPropertyOp55
 70
     1
102
RTVSPropertyOp56
 70
     1
102
RTVSPropertyOp57
 70
     1
102
RTVSPost2010Prop28
280
     0
102
RTVSPost2010PropOp28
 70
     1
102
RTVSPost2010Prop29
280
     1
102
RTVSPost2010PropOp29
 70
     1
102
RTVSPost2010Prop30
280
     1
102
RTVSPost2010PropOp30
 70
     1
102
RTVSPost2010Prop31
280
     0
102
RTVSPost2010PropOp31
 70
     1
102
RTVSPost2010Prop32
280
     0
102
RTVSPost2010PropOp32
 70
     1
102
RTVSPost2010Prop33
280
     0
102
RTVSPost2010PropOp33
 70
     1
102
RTVSPost2010Prop34
280
     0
102
RTVSPost2010PropOp34
 70
     1
102
RTVSPost2010Prop35
280
     0
102
RTVSPost2010PropOp35
 70
     1
102
RTVSPost2010Prop36
280
     0
102
RTVSPost2010PropOp36
 70
     1
102
RTVSPost2010Prop37
 90
       50
102
RTVSPost2010PropOp37
 70
     1
102
RTVSPost2010Prop38
140
0.0
102
RTVSPost2010PropOp38
 70
     1
102
RTVSPost2010Prop39
140
1.0
102
RTVSPost2010PropOp39
 70
     1
102
RTVSPost2010Prop40
 90
        0
102
RTVSPost2010PropOp40
 70
     1
102
RTVSPost2010Prop41ColorIndex
 90
       18
102
RTVSPost2010Prop41ColorRGB
 90
        0
102
RTVSPost2010PropOp41
 70
     1
102
RTVSPost2010Prop42
 90
       50
102
RTVSPost2010PropOp42
 70
     1
102
RTVSPost2010Prop43
 90
        3
102
RTVSPost2010PropOp43
 70
     1
102
RTVSPost2010Prop44ColorIndex
 90
        5
102
RTVSPost2010Prop44ColorRGB
 90
      255
102
RTVSPost2010PropOp44
 70
     1
102
RTVSPost2010Prop45
280
     0
102
RTVSPost2010PropOp45
 70
     1
102
RTVSPost2010Prop46
 90
       50
102
RTVSPost2010PropOp46
 70
     1
102
RTVSPost2010Prop47
 90
       50
102
RTVSPost2010PropOp47
 70
     1
102
RTVSPost2010Prop48
 90
       50
102
RTVSPost2010PropOp48
 70
     1
102
RTVSPost2010Prop49
280
     0
102
RTVSPost2010PropOp49
 70
     1
102
RTVSPost2010Prop50
 90
       50
102
RTVSPost2010PropOp50
 70
     1
102
RTVSPost2010Prop51ColorIndex
 90
      256
102
RTVSPost2010Prop51ColorRGB
 90
-16777216
102
RTVSPost2010PropOp51
 70
     0
102
RTVSPost2010Prop52
140
1.0
102
RTVSPost2010PropOp52
 70
     0
102
RTVSPost2010Prop53
 90
        2
102
RTVSPost2010PropOp53
 70
     1
102
RTVSPost2010Prop54
  1
strokes_ogs.tif
102
RTVSPost2010PropOp54
 70
     1
102
RTVSPost2010Prop55
280
     0
102
RTVSPost2010PropOp55
 70
     1
102
RTVSPost2010Prop56
140
1.0
102
RTVSPost2010PropOp56
 70
     1
102
RTVSPost2010Prop57
140
1.0
102
RTVSPost2010PropOp57
 70
     1
  0
XRECORD
  5
CF
102
{ACAD_REACTORS
330
CE
102
}
330
CE
100
AcDbXrecord
280
     1
102
RTVSPropertyOp0
 70
     1
102
RTVSPropertyOp1
 70
     1
102
RTVSPropertyOp2
 70
     1
102
RTVSPropertyOp3
 70
     1
102
RTVSPropertyOp4
 70
     1
102
RTVSPropertyOp5
 70
     1
102
RTVSPropertyOp6
 70
     1
102
RTVSPropertyOp7
 70
     1
102
RTVSPropertyOp8
 70
     1
102
RTVSPropertyOp9
 70
     1
102
RTVSPropertyOp10
 70
     1
102
RTVSPropertyOp11
 70
     1
102
RTVSPropertyOp12
 70
     1
102
RTVSPropertyOp13
 70
     1
102
RTVSPropertyOp14
 70
     1
102
RTVSPropertyOp15
 70
     1
102
RTVSPropertyOp16
 70
     1
102
RTVSPropertyOp17
 70
     1
102
RTVSPropertyOp18
 70
     1
102
RTVSPropertyOp19
 70
     1
102
RTVSPropertyOp20
 70
     1
102
RTVSPropertyOp21
 70
     1
102
RTVSPropertyOp22
 70
     1
102
RTVSPropertyOp23
 70
     1
102
RTVSPropertyOp24
 70
     1
102
RTVSPropertyOp25
 70
     1
102
RTVSPropertyOp26
 70
     1
102
RTVSPropertyOp27
 70
     1
102
RTVSPropertyOp28
 70
     1
102
RTVSPropertyOp29
 70
     1
102
RTVSPropertyOp30
 70
     1
102
RTVSPropertyOp31
 70
     1
102
RTVSPropertyOp32
 70
     1
102
RTVSPropertyOp33
 70
     1
102
RTVSPropertyOp34
 70
     1
102
RTVSPropertyOp35
 70
     1
102
RTVSPropertyOp36
 70
     1
102
RTVSPropertyOp37
 70
     1
102
RTVSPropertyOp38
 70
     1
102
RTVSPropertyOp39
 70
     1
102
RTVSPropertyOp40
 70
     1
102
RTVSPropertyOp41
 70
     1
102
RTVSPropertyOp42
 70
     1
102
RTVSPropertyOp43
 70
     1
102
RTVSPropertyOp44
 70
     1
102
RTVSPropertyOp45
 70
     1
102
RTVSPropertyOp46
 70
     1
102
RTVSPropertyOp47
 70
     1
102
RTVSPropertyOp48
 70
     1
102
RTVSPropertyOp49
 70
     1
102
RTVSPropertyOp50
 70
     1
102
RTVSPropertyOp51
 70
     0
102
RTVSPropertyOp52
 70
     0
102
RTVSPropertyOp53
 70
     1
102
RTVSPropertyOp54
 70
     1
102
RTVSPropertyOp55
 70
     1
102
RTVSPropertyOp56
 70
     1
102
RTVSPropertyOp57
 70
     1
102
RTVSPost2010Prop28
280
     0
102
RTVSPost2010PropOp28
 70
     1
102
RTVSPost2010Prop29
280
     1
102
RTVSPost2010PropOp29
 70
     1
102
RTVSPost2010Prop30
280
     1
102
RTVSPost2010PropOp30
 70
     1
102
RTVSPost2010Prop31
280
     0
102
RTVSPost2010PropOp31
 70
     1
102
RTVSPost2010Prop32
280
     0
102
RTVSPost2010PropOp32
 70
     1
102
RTVSPost2010Prop33
280
     0
102
RTVSPost2010PropOp33
 70
     1
102
RTVSPost2010Prop34
280
     0
102
RTVSPost2010PropOp34
 70
     1
102
RTVSPost2010Prop35
280
     0
102
RTVSPost2010PropOp35
 70
     1
102
RTVSPost2010Prop36
280
     0
102
RTVSPost2010PropOp36
 70
     1
102
RTVSPost2010Prop37
 90
       50
102
RTVSPost2010PropOp37
 70
     1
102
RTVSPost2010Prop38
140
0.0
102
RTVSPost2010PropOp38
 70
     1
102
RTVSPost2010Prop39
140
1.0
102
RTVSPost2010PropOp39
 70
     1
102
RTVSPost2010Prop40
 90
        0
102
RTVSPost2010PropOp40
 70
     1
102
RTVSPost2010Prop41ColorIndex
 90
       18
102
RTVSPost2010Prop41ColorRGB
 90
        0
102
RTVSPost2010PropOp41
 70
     1
102
RTVSPost2010Prop42
 90
       50
102
RTVSPost2010PropOp42
 70
     1
102
RTVSPost2010Prop43
 90
        3
102
RTVSPost2010PropOp43
 70
     1
102
RTVSPost2010Prop44ColorIndex
 90
        5
102
RTVSPost2010Prop44ColorRGB
 90
      255
102
RTVSPost2010PropOp44
 70
     1
102
RTVSPost2010Prop45
280
     0
102
RTVSPost2010PropOp45
 70
     1
102
RTVSPost2010Prop46
 90
       50
102
RTVSPost2010PropOp46
 70
     1
102
RTVSPost2010Prop47
 90
       50
102
RTVSPost2010PropOp47
 70
     1
102
RTVSPost2010Prop48
 90
       50
102
RTVSPost2010PropOp48
 70
     1
102
RTVSPost2010Prop49
280
     0
102
RTVSPost2010PropOp49
 70
     1
102
RTVSPost2010Prop50
 90
       50
102
RTVSPost2010PropOp50
 70
     1
102
RTVSPost2010Prop51ColorIndex
 90
      256
102
RTVSPost2010Prop51ColorRGB
 90
-16777216
102
RTVSPost2010PropOp51
 70
     0
102
RTVSPost2010Prop52
140
1.0
102
RTVSPost2010PropOp52
 70
     0
102
RTVSPost2010Prop53
 90
        2
102
RTVSPost2010PropOp53
 70
     1
102
RTVSPost2010Prop54
  1
strokes_ogs.tif
102
RTVSPost2010PropOp54
 70
     1
102
RTVSPost2010Prop55
280
     0
102
RTVSPost2010PropOp55
 70
     1
102
RTVSPost2010Prop56
140
1.0
102
RTVSPost2010PropOp56
 70
     1
102
RTVSPost2010Prop57
140
1.0
102
RTVSPost2010PropOp57
 70
     1
  0
XRECORD
  5
D1
102
{ACAD_REACTORS
330
D0
102
}
330
D0
100
AcDbXrecord
280
     1
102
RTVSPropertyOp0
 70
     1
102
RTVSPropertyOp1
 70
     1
102
RTVSPropertyOp2
 70
     1
102
RTVSPropertyOp3
 70
     1
102
RTVSPropertyOp4
 70
     1
102
RTVSPropertyOp5
 70
     1
102
RTVSPropertyOp6
 70
     1
102
RTVSPropertyOp7
 70
     1
102
RTVSPropertyOp8
 70
     1
102
RTVSPropertyOp9
 70
     1
102
RTVSPropertyOp10
 70
     1
102
RTVSPropertyOp11
 70
     1
102
RTVSPropertyOp12
 70
     1
102
RTVSPropertyOp13
 70
     1
102
RTVSPropertyOp14
 70
     1
102
RTVSPropertyOp15
 70
     1
102
RTVSPropertyOp16
 70
     1
102
RTVSPropertyOp17
 70
     1
102
RTVSPropertyOp18
 70
     1
102
RTVSPropertyOp19
 70
     1
102
RTVSPropertyOp20
 70
     1
102
RTVSPropertyOp21
 70
     1
102
RTVSPropertyOp22
 70
     1
102
RTVSPropertyOp23
 70
     1
102
RTVSPropertyOp24
 70
     1
102
RTVSPropertyOp25
 70
     1
102
RTVSPropertyOp26
 70
     1
102
RTVSPropertyOp27
 70
     1
102
RTVSPropertyOp28
 70
     1
102
RTVSPropertyOp29
 70
     1
102
RTVSPropertyOp30
 70
     1
102
RTVSPropertyOp31
 70
     1
102
RTVSPropertyOp32
 70
     1
102
RTVSPropertyOp33
 70
     1
102
RTVSPropertyOp34
 70
     1
102
RTVSPropertyOp35
 70
     1
102
RTVSPropertyOp36
 70
     1
102
RTVSPropertyOp37
 70
     1
102
RTVSPropertyOp38
 70
     1
102
RTVSPropertyOp39
 70
     1
102
RTVSPropertyOp40
 70
     1
102
RTVSPropertyOp41
 70
     1
102
RTVSPropertyOp42
 70
     1
102
RTVSPropertyOp43
 70
     1
102
RTVSPropertyOp44
 70
     1
102
RTVSPropertyOp45
 70
     1
102
RTVSPropertyOp46
 70
     1
102
RTVSPropertyOp47
 70
     1
102
RTVSPropertyOp48
 70
     1
102
RTVSPropertyOp49
 70
     1
102
RTVSPropertyOp50
 70
     1
102
RTVSPropertyOp51
 70
     0
102
RTVSPropertyOp52
 70
     0
102
RTVSPropertyOp53
 70
     1
102
RTVSPropertyOp54
 70
     1
102
RTVSPropertyOp55
 70
     1
102
RTVSPropertyOp56
 70
     1
102
RTVSPropertyOp57
 70
     1
102
RTVSPost2010Prop28
280
     0
102
RTVSPost2010PropOp28
 70
     1
102
RTVSPost2010Prop29
280
     1
102
RTVSPost2010PropOp29
 70
     1
102
RTVSPost2010Prop30
280
     1
102
RTVSPost2010PropOp30
 70
     1
102
RTVSPost2010Prop31
280
     0
102
RTVSPost2010PropOp31
 70
     1
102
RTVSPost2010Prop32
280
     0
102
RTVSPost2010PropOp32
 70
     1
102
RTVSPost2010Prop33
280
     0
102
RTVSPost2010PropOp33
 70
     1
102
RTVSPost2010Prop34
280
     0
102
RTVSPost2010PropOp34
 70
     1
102
RTVSPost2010Prop35
280
     0
102
RTVSPost2010PropOp35
 70
     1
102
RTVSPost2010Prop36
280
     0
102
RTVSPost2010PropOp36
 70
     1
102
RTVSPost2010Prop37
 90
       50
102
RTVSPost2010PropOp37
 70
     1
102
RTVSPost2010Prop38
140
0.0
102
RTVSPost2010PropOp38
 70
     1
102
RTVSPost2010Prop39
140
1.0
102
RTVSPost2010PropOp39
 70
     1
102
RTVSPost2010Prop40
 90
        0
102
RTVSPost2010PropOp40
 70
     1
102
RTVSPost2010Prop41ColorIndex
 90
       18
102
RTVSPost2010Prop41ColorRGB
 90
        0
102
RTVSPost2010PropOp41
 70
     1
102
RTVSPost2010Prop42
 90
       50
102
RTVSPost2010PropOp42
 70
     1
102
RTVSPost2010Prop43
 90
        3
102
RTVSPost2010PropOp43
 70
     1
102
RTVSPost2010Prop44ColorIndex
 90
        5
102
RTVSPost2010Prop44ColorRGB
 90
      255
102
RTVSPost2010PropOp44
 70
     1
102
RTVSPost2010Prop45
280
     0
102
RTVSPost2010PropOp45
 70
     1
102
RTVSPost2010Prop46
 90
       50
102
RTVSPost2010PropOp46
 70
     1
102
RTVSPost2010Prop47
 90
       50
102
RTVSPost2010PropOp47
 70
     1
102
RTVSPost2010Prop48
 90
       50
102
RTVSPost2010PropOp48
 70
     1
102
RTVSPost2010Prop49
280
     0
102
RTVSPost2010PropOp49
 70
     1
102
RTVSPost2010Prop50
 90
       50
102
RTVSPost2010PropOp50
 70
     1
102
RTVSPost2010Prop51ColorIndex
 90
      256
102
RTVSPost2010Prop51ColorRGB
 90
-16777216
102
RTVSPost2010PropOp51
 70
     0
102
RTVSPost2010Prop52
140
1.0
102
RTVSPost2010PropOp52
 70
     0
102
RTVSPost2010Prop53
 90
        2
102
RTVSPost2010PropOp53
 70
     1
102
RTVSPost2010Prop54
  1
strokes_ogs.tif
102
RTVSPost2010PropOp54
 70
     1
102
RTVSPost2010Prop55
280
     0
102
RTVSPost2010PropOp55
 70
     1
102
RTVSPost2010Prop56
140
1.0
102
RTVSPost2010PropOp56
 70
     1
102
RTVSPost2010Prop57
140
1.0
102
RTVSPost2010PropOp57
 70
     1
  0
XRECORD
  5
D5
102
{ACAD_REACTORS
330
D4
102
}
330
D4
100
AcDbXrecord
280
     1
102
RTVSPropertyOp0
 70
     1
102
RTVSPropertyOp1
 70
     1
102
RTVSPropertyOp2
 70
     1
102
RTVSPropertyOp3
 70
     1
102
RTVSPropertyOp4
 70
     1
102
RTVSPropertyOp5
 70
     1
102
RTVSPropertyOp6
 70
     1
102
RTVSPropertyOp7
 70
     1
102
RTVSPropertyOp8
 70
     1
102
RTVSPropertyOp9
 70
     1
102
RTVSPropertyOp10
 70
     1
102
RTVSPropertyOp11
 70
     1
102
RTVSPropertyOp12
 70
     1
102
RTVSPropertyOp13
 70
     1
102
RTVSPropertyOp14
 70
     1
102
RTVSPropertyOp15
 70
     1
102
RTVSPropertyOp16
 70
     1
102
RTVSPropertyOp17
 70
     1
102
RTVSPropertyOp18
 70
     1
102
RTVSPropertyOp19
 70
     1
102
RTVSPropertyOp20
 70
     1
102
RTVSPropertyOp21
 70
     1
102
RTVSPropertyOp22
 70
     1
102
RTVSPropertyOp23
 70
     1
102
RTVSPropertyOp24
 70
     1
102
RTVSPropertyOp25
 70
     1
102
RTVSPropertyOp26
 70
     1
102
RTVSPropertyOp27
 70
     1
102
RTVSPropertyOp28
 70
     1
102
RTVSPropertyOp29
 70
     1
102
RTVSPropertyOp30
 70
     1
102
RTVSPropertyOp31
 70
     1
102
RTVSPropertyOp32
 70
     1
102
RTVSPropertyOp33
 70
     1
102
RTVSPropertyOp34
 70
     1
102
RTVSPropertyOp35
 70
     1
102
RTVSPropertyOp36
 70
     1
102
RTVSPropertyOp37
 70
     1
102
RTVSPropertyOp38
 70
     1
102
RTVSPropertyOp39
 70
     1
102
RTVSPropertyOp40
 70
     1
102
RTVSPropertyOp41
 70
     1
102
RTVSPropertyOp42
 70
     1
102
RTVSPropertyOp43
 70
     1
102
RTVSPropertyOp44
 70
     1
102
RTVSPropertyOp45
 70
     1
102
RTVSPropertyOp46
 70
     1
102
RTVSPropertyOp47
 70
     1
102
RTVSPropertyOp48
 70
     1
102
RTVSPropertyOp49
 70
     1
102
RTVSPropertyOp50
 70
     1
102
RTVSPropertyOp51
 70
     0
102
RTVSPropertyOp52
 70
     0
102
RTVSPropertyOp53
 70
     1
102
RTVSPropertyOp54
 70
     1
102
RTVSPropertyOp55
 70
     1
102
RTVSPropertyOp56
 70
     1
102
RTVSPropertyOp57
 70
     1
102
RTVSPost2010Prop28
280
     0
102
RTVSPost2010PropOp28
 70
     1
102
RTVSPost2010Prop29
280
     1
102
RTVSPost2010PropOp29
 70
     1
102
RTVSPost2010Prop30
280
     1
102
RTVSPost2010PropOp30
 70
     1
102
RTVSPost2010Prop31
280
     0
102
RTVSPost2010PropOp31
 70
     1
102
RTVSPost2010Prop32
280
     0
102
RTVSPost2010PropOp32
 70
     1
102
RTVSPost2010Prop33
280
     0
102
RTVSPost2010PropOp33
 70
     1
102
RTVSPost2010Prop34
280
     0
102
RTVSPost2010PropOp34
 70
     1
102
RTVSPost2010Prop35
280
     0
102
RTVSPost2010PropOp35
 70
     1
102
RTVSPost2010Prop36
280
     0
102
RTVSPost2010PropOp36
 70
     1
102
RTVSPost2010Prop37
 90
       50
102
RTVSPost2010PropOp37
 70
     1
102
RTVSPost2010Prop38
140
0.0
102
RTVSPost2010PropOp38
 70
     1
102
RTVSPost2010Prop39
140
1.0
102
RTVSPost2010PropOp39
 70
     1
102
RTVSPost2010Prop40
 90
        0
102
RTVSPost2010PropOp40
 70
     1
102
RTVSPost2010Prop41ColorIndex
 90
       18
102
RTVSPost2010Prop41ColorRGB
 90
        0
102
RTVSPost2010PropOp41
 70
     1
102
RTVSPost2010Prop42
 90
       50
102
RTVSPost2010PropOp42
 70
     1
102
RTVSPost2010Prop43
 90
        3
102
RTVSPost2010PropOp43
 70
     1
102
RTVSPost2010Prop44ColorIndex
 90
        5
102
RTVSPost2010Prop44ColorRGB
 90
      255
102
RTVSPost2010PropOp44
 70
     1
102
RTVSPost2010Prop45
280
     0
102
RTVSPost2010PropOp45
 70
     1
102
RTVSPost2010Prop46
 90
       50
102
RTVSPost2010PropOp46
 70
     1
102
RTVSPost2010Prop47
 90
       50
102
RTVSPost2010PropOp47
 70
     1
102
RTVSPost2010Prop48
 90
       50
102
RTVSPost2010PropOp48
 70
     1
102
RTVSPost2010Prop49
280
     0
102
RTVSPost2010PropOp49
 70
     1
102
RTVSPost2010Prop50
 90
       50
102
RTVSPost2010PropOp50
 70
     1
102
RTVSPost2010Prop51ColorIndex
 90
      256
102
RTVSPost2010Prop51ColorRGB
 90
-16777216
102
RTVSPost2010PropOp51
 70
     0
102
RTVSPost2010Prop52
140
1.0
102
RTVSPost2010PropOp52
 70
     0
102
RTVSPost2010Prop53
 90
        2
102
RTVSPost2010PropOp53
 70
     1
102
RTVSPost2010Prop54
  1
strokes_ogs.tif
102
RTVSPost2010PropOp54
 70
     1
102
RTVSPost2010Prop55
280
     0
102
RTVSPost2010PropOp55
 70
     1
102
RTVSPost2010Prop56
140
1.0
102
RTVSPost2010PropOp56
 70
     1
102
RTVSPost2010Prop57
140
1.0
102
RTVSPost2010PropOp57
 70
     1
  0
XRECORD
  5
E9
102
{ACAD_REACTORS
330
E8
102
}
330
E8
100
AcDbXrecord
280
     1
102
RTVSPropertyOp0
 70
     0
102
RTVSPropertyOp1
 70
     0
102
RTVSPropertyOp2
 70
     0
102
RTVSPropertyOp3
 70
     0
102
RTVSPropertyOp4
 70
     0
102
RTVSPropertyOp5
 70
     0
102
RTVSPropertyOp6
 70
     0
102
RTVSPropertyOp7
 70
     0
102
RTVSPropertyOp8
 70
     0
102
RTVSPropertyOp9
 70
     0
102
RTVSPropertyOp10
 70
     0
102
RTVSPropertyOp11
 70
     0
102
RTVSPropertyOp12
 70
     0
102
RTVSPropertyOp13
 70
     0
102
RTVSPropertyOp14
 70
     2
102
RTVSPropertyOp15
 70
     0
102
RTVSPropertyOp16
 70
     0
102
RTVSPropertyOp17
 70
     0
102
RTVSPropertyOp18
 70
     0
102
RTVSPropertyOp19
 70
     0
102
RTVSPropertyOp20
 70
     0
102
RTVSPropertyOp21
 70
     0
102
RTVSPropertyOp22
 70
     0
102
RTVSPropertyOp23
 70
     0
102
RTVSPropertyOp24
 70
     0
102
RTVSPropertyOp25
 70
     0
102
RTVSPropertyOp26
 70
     0
102
RTVSPropertyOp27
 70
     0
102
RTVSPropertyOp28
 70
     0
102
RTVSPropertyOp29
 70
     0
102
RTVSPropertyOp30
 70
     0
102
RTVSPropertyOp31
 70
     0
102
RTVSPropertyOp32
 70
     0
102
RTVSPropertyOp33
 70
     0
102
RTVSPropertyOp34
 70
     0
102
RTVSPropertyOp35
 70
     0
102
RTVSPropertyOp36
 70
     0
102
RTVSPropertyOp37
 70
     0
102
RTVSPropertyOp38
 70
     0
102
RTVSPropertyOp39
 70
     0
102
RTVSPropertyOp40
 70
     0
102
RTVSPropertyOp41
 70
     0
102
RTVSPropertyOp42
 70
     0
102
RTVSPropertyOp43
 70
     0
102
RTVSPropertyOp44
 70
     0
102
RTVSPropertyOp45
 70
     0
102
RTVSPropertyOp46
 70
     0
102
RTVSPropertyOp47
 70
     0
102
RTVSPropertyOp48
 70
     0
102
RTVSPropertyOp49
 70
     0
102
RTVSPropertyOp50
 70
     0
102
RTVSPropertyOp51
 70
     0
102
RTVSPropertyOp52
 70
     0
102
RTVSPropertyOp53
 70
     0
102
RTVSPropertyOp54
 70
     0
102
RTVSPropertyOp55
 70
     0
102
RTVSPropertyOp56
 70
     0
102
RTVSPropertyOp57
 70
     0
102
RTVSPost2010Prop28
280
     0
102
RTVSPost2010PropOp28
 70
     0
102
RTVSPost2010Prop29
280
     1
102
RTVSPost2010PropOp29
 70
     0
102
RTVSPost2010Prop30
280
     1
102
RTVSPost2010PropOp30
 70
     0
102
RTVSPost2010Prop31
280
     0
102
RTVSPost2010PropOp31
 70
     0
102
RTVSPost2010Prop32
280
     0
102
RTVSPost2010PropOp32
 70
     0
102
RTVSPost2010Prop33
280
     0
102
RTVSPost2010PropOp33
 70
     0
102
RTVSPost2010Prop34
280
     0
102
RTVSPost2010PropOp34
 70
     0
102
RTVSPost2010Prop35
280
     0
102
RTVSPost2010PropOp35
 70
     0
102
RTVSPost2010Prop36
280
     0
102
RTVSPost2010PropOp36
 70
     0
102
RTVSPost2010Prop37
 90
       50
102
RTVSPost2010PropOp37
 70
     0
102
RTVSPost2010Prop38
140
0.0
102
RTVSPost2010PropOp38
 70
     0
102
RTVSPost2010Prop39
140
1.0
102
RTVSPost2010PropOp39
 70
     0
102
RTVSPost2010Prop40
 90
        0
102
RTVSPost2010PropOp40
 70
     0
102
RTVSPost2010Prop41ColorIndex
 90
       18
102
RTVSPost2010Prop41ColorRGB
 90
        0
102
RTVSPost2010PropOp41
 70
     0
102
RTVSPost2010Prop42
 90
       50
102
RTVSPost2010PropOp42
 70
     0
102
RTVSPost2010Prop43
 90
        3
102
RTVSPost2010PropOp43
 70
     0
102
RTVSPost2010Prop44ColorIndex
 90
        5
102
RTVSPost2010Prop44ColorRGB
 90
      255
102
RTVSPost2010PropOp44
 70
     0
102
RTVSPost2010Prop45
280
     0
102
RTVSPost2010PropOp45
 70
     0
102
RTVSPost2010Prop46
 90
       50
102
RTVSPost2010PropOp46
 70
     0
102
RTVSPost2010Prop47
 90
       50
102
RTVSPost2010PropOp47
 70
     0
102
RTVSPost2010Prop48
 90
       50
102
RTVSPost2010PropOp48
 70
     0
102
RTVSPost2010Prop49
280
     0
102
RTVSPost2010PropOp49
 70
     0
102
RTVSPost2010Prop50
 90
       50
102
RTVSPost2010PropOp50
 70
     0
102
RTVSPost2010Prop51ColorIndex
 90
      256
102
RTVSPost2010Prop51ColorRGB
 90
-16777216
102
RTVSPost2010PropOp51
 70
     0
102
RTVSPost2010Prop52
140
1.0
102
RTVSPost2010PropOp52
 70
     0
102
RTVSPost2010Prop53
 90
        2
102
RTVSPost2010PropOp53
 70
     0
102
RTVSPost2010Prop54
  1
strokes_ogs.tif
102
RTVSPost2010PropOp54
 70
     0
102
RTVSPost2010Prop55
280
     0
102
RTVSPost2010PropOp55
 70
     0
102
RTVSPost2010Prop56
140
1.0
102
RTVSPost2010PropOp56
 70
     0
102
RTVSPost2010Prop57
140
1.0
102
RTVSPost2010PropOp57
 70
     0
  0
XRECORD
  5
E3
102
{ACAD_REACTORS
330
E2
102
}
330
E2
100
AcDbXrecord
280
     1
102
RTVSPropertyOp0
 70
     1
102
RTVSPropertyOp1
 70
     1
102
RTVSPropertyOp2
 70
     1
102
RTVSPropertyOp3
 70
     1
102
RTVSPropertyOp4
 70
     1
102
RTVSPropertyOp5
 70
     1
102
RTVSPropertyOp6
 70
     1
102
RTVSPropertyOp7
 70
     1
102
RTVSPropertyOp8
 70
     1
102
RTVSPropertyOp9
 70
     1
102
RTVSPropertyOp10
 70
     1
102
RTVSPropertyOp11
 70
     1
102
RTVSPropertyOp12
 70
     1
102
RTVSPropertyOp13
 70
     1
102
RTVSPropertyOp14
 70
     1
102
RTVSPropertyOp15
 70
     1
102
RTVSPropertyOp16
 70
     1
102
RTVSPropertyOp17
 70
     1
102
RTVSPropertyOp18
 70
     1
102
RTVSPropertyOp19
 70
     1
102
RTVSPropertyOp20
 70
     1
102
RTVSPropertyOp21
 70
     1
102
RTVSPropertyOp22
 70
     1
102
RTVSPropertyOp23
 70
     1
102
RTVSPropertyOp24
 70
     1
102
RTVSPropertyOp25
 70
     1
102
RTVSPropertyOp26
 70
     1
102
RTVSPropertyOp27
 70
     1
102
RTVSPropertyOp28
 70
     1
102
RTVSPropertyOp29
 70
     1
102
RTVSPropertyOp30
 70
     1
102
RTVSPropertyOp31
 70
     1
102
RTVSPropertyOp32
 70
     1
102
RTVSPropertyOp33
 70
     1
102
RTVSPropertyOp34
 70
     1
102
RTVSPropertyOp35
 70
     1
102
RTVSPropertyOp36
 70
     1
102
RTVSPropertyOp37
 70
     1
102
RTVSPropertyOp38
 70
     1
102
RTVSPropertyOp39
 70
     1
102
RTVSPropertyOp40
 70
     1
102
RTVSPropertyOp41
 70
     1
102
RTVSPropertyOp42
 70
     1
102
RTVSPropertyOp43
 70
     1
102
RTVSPropertyOp44
 70
     1
102
RTVSPropertyOp45
 70
     1
102
RTVSPropertyOp46
 70
     1
102
RTVSPropertyOp47
 70
     1
102
RTVSPropertyOp48
 70
     1
102
RTVSPropertyOp49
 70
     1
102
RTVSPropertyOp50
 70
     1
102
RTVSPropertyOp51
 70
     0
102
RTVSPropertyOp52
 70
     0
102
RTVSPropertyOp53
 70
     1
102
RTVSPropertyOp54
 70
     1
102
RTVSPropertyOp55
 70
     1
102
RTVSPropertyOp56
 70
     1
102
RTVSPropertyOp57
 70
     1
102
RTVSPost2010Prop28
280
     0
102
RTVSPost2010PropOp28
 70
     1
102
RTVSPost2010Prop29
280
     1
102
RTVSPost2010PropOp29
 70
     1
102
RTVSPost2010Prop30
280
     1
102
RTVSPost2010PropOp30
 70
     1
102
RTVSPost2010Prop31
280
     0
102
RTVSPost2010PropOp31
 70
     1
102
RTVSPost2010Prop32
280
     0
102
RTVSPost2010PropOp32
 70
     1
102
RTVSPost2010Prop33
280
     0
102
RTVSPost2010PropOp33
 70
     1
102
RTVSPost2010Prop34
280
     0
102
RTVSPost2010PropOp34
 70
     1
102
RTVSPost2010Prop35
280
     0
102
RTVSPost2010PropOp35
 70
     1
102
RTVSPost2010Prop36
280
     0
102
RTVSPost2010PropOp36
 70
     1
102
RTVSPost2010Prop37
 90
       50
102
RTVSPost2010PropOp37
 70
     1
102
RTVSPost2010Prop38
140
0.0
102
RTVSPost2010PropOp38
 70
     1
102
RTVSPost2010Prop39
140
1.0
102
RTVSPost2010PropOp39
 70
     1
102
RTVSPost2010Prop40
 90
        0
102
RTVSPost2010PropOp40
 70
     1
102
RTVSPost2010Prop41ColorIndex
 90
       18
102
RTVSPost2010Prop41ColorRGB
 90
        0
102
RTVSPost2010PropOp41
 70
     1
102
RTVSPost2010Prop42
 90
       50
102
RTVSPost2010PropOp42
 70
     1
102
RTVSPost2010Prop43
 90
        3
102
RTVSPost2010PropOp43
 70
     1
102
RTVSPost2010Prop44ColorIndex
 90
        5
102
RTVSPost2010Prop44ColorRGB
 90
      255
102
RTVSPost2010PropOp44
 70
     1
102
RTVSPost2010Prop45
280
     0
102
RTVSPost2010PropOp45
 70
     1
102
RTVSPost2010Prop46
 90
       50
102
RTVSPost2010PropOp46
 70
     1
102
RTVSPost2010Prop47
 90
       50
102
RTVSPost2010PropOp47
 70
     1
102
RTVSPost2010Prop48
 90
       50
102
RTVSPost2010PropOp48
 70
     1
102
RTVSPost2010Prop49
280
     0
102
RTVSPost2010PropOp49
 70
     1
102
RTVSPost2010Prop50
 90
       50
102
RTVSPost2010PropOp50
 70
     1
102
RTVSPost2010Prop51ColorIndex
 90
      256
102
RTVSPost2010Prop51ColorRGB
 90
-16777216
102
RTVSPost2010PropOp51
 70
     0
102
RTVSPost2010Prop52
140
1.0
102
RTVSPost2010PropOp52
 70
     0
102
RTVSPost2010Prop53
 90
        2
102
RTVSPost2010PropOp53
 70
     1
102
RTVSPost2010Prop54
  1
strokes_ogs.tif
102
RTVSPost2010PropOp54
 70
     1
102
RTVSPost2010Prop55
280
     0
102
RTVSPost2010PropOp55
 70
     1
102
RTVSPost2010Prop56
140
1.0
102
RTVSPost2010PropOp56
 70
     1
102
RTVSPost2010Prop57
140
1.0
102
RTVSPost2010PropOp57
 70
     1
  0
XRECORD
  5
EB
102
{ACAD_REACTORS
330
EA
102
}
330
EA
100
AcDbXrecord
280
     1
102
RTVSPropertyOp0
 70
     0
102
RTVSPropertyOp1
 70
     0
102
RTVSPropertyOp2
 70
     0
102
RTVSPropertyOp3
 70
     0
102
RTVSPropertyOp4
 70
     0
102
RTVSPropertyOp5
 70
     0
102
RTVSPropertyOp6
 70
     0
102
RTVSPropertyOp7
 70
     0
102
RTVSPropertyOp8
 70
     0
102
RTVSPropertyOp9
 70
     0
102
RTVSPropertyOp10
 70
     0
102
RTVSPropertyOp11
 70
     0
102
RTVSPropertyOp12
 70
     0
102
RTVSPropertyOp13
 70
     0
102
RTVSPropertyOp14
 70
     2
102
RTVSPropertyOp15
 70
     0
102
RTVSPropertyOp16
 70
     0
102
RTVSPropertyOp17
 70
     0
102
RTVSPropertyOp18
 70
     0
102
RTVSPropertyOp19
 70
     0
102
RTVSPropertyOp20
 70
     0
102
RTVSPropertyOp21
 70
     0
102
RTVSPropertyOp22
 70
     0
102
RTVSPropertyOp23
 70
     0
102
RTVSPropertyOp24
 70
     0
102
RTVSPropertyOp25
 70
     0
102
RTVSPropertyOp26
 70
     0
102
RTVSPropertyOp27
 70
     0
102
RTVSPropertyOp28
 70
     0
102
RTVSPropertyOp29
 70
     0
102
RTVSPropertyOp30
 70
     0
102
RTVSPropertyOp31
 70
     0
102
RTVSPropertyOp32
 70
     0
102
RTVSPropertyOp33
 70
     0
102
RTVSPropertyOp34
 70
     0
102
RTVSPropertyOp35
 70
     0
102
RTVSPropertyOp36
 70
     0
102
RTVSPropertyOp37
 70
     0
102
RTVSPropertyOp38
 70
     0
102
RTVSPropertyOp39
 70
     0
102
RTVSPropertyOp40
 70
     0
102
RTVSPropertyOp41
 70
     0
102
RTVSPropertyOp42
 70
     0
102
RTVSPropertyOp43
 70
     0
102
RTVSPropertyOp44
 70
     0
102
RTVSPropertyOp45
 70
     0
102
RTVSPropertyOp46
 70
     0
102
RTVSPropertyOp47
 70
     0
102
RTVSPropertyOp48
 70
     0
102
RTVSPropertyOp49
 70
     0
102
RTVSPropertyOp50
 70
     0
102
RTVSPropertyOp51
 70
     0
102
RTVSPropertyOp52
 70
     0
102
RTVSPropertyOp53
 70
     0
102
RTVSPropertyOp54
 70
     0
102
RTVSPropertyOp55
 70
     0
102
RTVSPropertyOp56
 70
     0
102
RTVSPropertyOp57
 70
     0
102
RTVSPost2010Prop28
280
     0
102
RTVSPost2010PropOp28
 70
     0
102
RTVSPost2010Prop29
280
     1
102
RTVSPost2010PropOp29
 70
     0
102
RTVSPost2010Prop30
280
     1
102
RTVSPost2010PropOp30
 70
     0
102
RTVSPost2010Prop31
280
     0
102
RTVSPost2010PropOp31
 70
     0
102
RTVSPost2010Prop32
280
     0
102
RTVSPost2010PropOp32
 70
     0
102
RTVSPost2010Prop33
280
     0
102
RTVSPost2010PropOp33
 70
     0
102
RTVSPost2010Prop34
280
     0
102
RTVSPost2010PropOp34
 70
     0
102
RTVSPost2010Prop35
280
     0
102
RTVSPost2010PropOp35
 70
     0
102
RTVSPost2010Prop36
280
     0
102
RTVSPost2010PropOp36
 70
     0
102
RTVSPost2010Prop37
 90
       50
102
RTVSPost2010PropOp37
 70
     0
102
RTVSPost2010Prop38
140
0.0
102
RTVSPost2010PropOp38
 70
     0
102
RTVSPost2010Prop39
140
1.0
102
RTVSPost2010PropOp39
 70
     0
102
RTVSPost2010Prop40
 90
        0
102
RTVSPost2010PropOp40
 70
     0
102
RTVSPost2010Prop41ColorIndex
 90
       18
102
RTVSPost2010Prop41ColorRGB
 90
        0
102
RTVSPost2010PropOp41
 70
     0
102
RTVSPost2010Prop42
 90
       50
102
RTVSPost2010PropOp42
 70
     0
102
RTVSPost2010Prop43
 90
        3
102
RTVSPost2010PropOp43
 70
     0
102
RTVSPost2010Prop44ColorIndex
 90
        5
102
RTVSPost2010Prop44ColorRGB
 90
      255
102
RTVSPost2010PropOp44
 70
     0
102
RTVSPost2010Prop45
280
     0
102
RTVSPost2010PropOp45
 70
     0
102
RTVSPost2010Prop46
 90
       50
102
RTVSPost2010PropOp46
 70
     0
102
RTVSPost2010Prop47
 90
       50
102
RTVSPost2010PropOp47
 70
     0
102
RTVSPost2010Prop48
 90
       50
102
RTVSPost2010PropOp48
 70
     0
102
RTVSPost2010Prop49
280
     0
102
RTVSPost2010PropOp49
 70
     0
102
RTVSPost2010Prop50
 90
       50
102
RTVSPost2010PropOp50
 70
     0
102
RTVSPost2010Prop51ColorIndex
 90
      256
102
RTVSPost2010Prop51ColorRGB
 90
-16777216
102
RTVSPost2010PropOp51
 70
     0
102
RTVSPost2010Prop52
140
1.0
102
RTVSPost2010PropOp52
 70
     0
102
RTVSPost2010Prop53
 90
        2
102
RTVSPost2010PropOp53
 70
     0
102
RTVSPost2010Prop54
  1
strokes_ogs.tif
102
RTVSPost2010PropOp54
 70
     0
102
RTVSPost2010Prop55
280
     0
102
RTVSPost2010PropOp55
 70
     0
102
RTVSPost2010Prop56
140
1.0
102
RTVSPost2010PropOp56
 70
     0
102
RTVSPost2010Prop57
140
1.0
102
RTVSPost2010PropOp57
 70
     0
  0
XRECORD
  5
D9
102
{ACAD_REACTORS
330
D8
102
}
330
D8
100
AcDbXrecord
280
     1
102
RTVSPropertyOp0
 70
     1
102
RTVSPropertyOp1
 70
     1
102
RTVSPropertyOp2
 70
     1
102
RTVSPropertyOp3
 70
     1
102
RTVSPropertyOp4
 70
     1
102
RTVSPropertyOp5
 70
     1
102
RTVSPropertyOp6
 70
     1
102
RTVSPropertyOp7
 70
     1
102
RTVSPropertyOp8
 70
     1
102
RTVSPropertyOp9
 70
     1
102
RTVSPropertyOp10
 70
     1
102
RTVSPropertyOp11
 70
     1
102
RTVSPropertyOp12
 70
     1
102
RTVSPropertyOp13
 70
     1
102
RTVSPropertyOp14
 70
     1
102
RTVSPropertyOp15
 70
     1
102
RTVSPropertyOp16
 70
     1
102
RTVSPropertyOp17
 70
     1
102
RTVSPropertyOp18
 70
     1
102
RTVSPropertyOp19
 70
     1
102
RTVSPropertyOp20
 70
     1
102
RTVSPropertyOp21
 70
     1
102
RTVSPropertyOp22
 70
     1
102
RTVSPropertyOp23
 70
     1
102
RTVSPropertyOp24
 70
     1
102
RTVSPropertyOp25
 70
     1
102
RTVSPropertyOp26
 70
     1
102
RTVSPropertyOp27
 70
     1
102
RTVSPropertyOp28
 70
     1
102
RTVSPropertyOp29
 70
     1
102
RTVSPropertyOp30
 70
     1
102
RTVSPropertyOp31
 70
     1
102
RTVSPropertyOp32
 70
     1
102
RTVSPropertyOp33
 70
     1
102
RTVSPropertyOp34
 70
     1
102
RTVSPropertyOp35
 70
     1
102
RTVSPropertyOp36
 70
     1
102
RTVSPropertyOp37
 70
     1
102
RTVSPropertyOp38
 70
     1
102
RTVSPropertyOp39
 70
     1
102
RTVSPropertyOp40
 70
     1
102
RTVSPropertyOp41
 70
     1
102
RTVSPropertyOp42
 70
     1
102
RTVSPropertyOp43
 70
     1
102
RTVSPropertyOp44
 70
     1
102
RTVSPropertyOp45
 70
     1
102
RTVSPropertyOp46
 70
     1
102
RTVSPropertyOp47
 70
     1
102
RTVSPropertyOp48
 70
     1
102
RTVSPropertyOp49
 70
     1
102
RTVSPropertyOp50
 70
     1
102
RTVSPropertyOp51
 70
     0
102
RTVSPropertyOp52
 70
     0
102
RTVSPropertyOp53
 70
     1
102
RTVSPropertyOp54
 70
     1
102
RTVSPropertyOp55
 70
     1
102
RTVSPropertyOp56
 70
     1
102
RTVSPropertyOp57
 70
     1
102
RTVSPost2010Prop28
280
     0
102
RTVSPost2010PropOp28
 70
     1
102
RTVSPost2010Prop29
280
     1
102
RTVSPost2010PropOp29
 70
     1
102
RTVSPost2010Prop30
280
     1
102
RTVSPost2010PropOp30
 70
     1
102
RTVSPost2010Prop31
280
     0
102
RTVSPost2010PropOp31
 70
     1
102
RTVSPost2010Prop32
280
     0
102
RTVSPost2010PropOp32
 70
     1
102
RTVSPost2010Prop33
280
     0
102
RTVSPost2010PropOp33
 70
     1
102
RTVSPost2010Prop34
280
     0
102
RTVSPost2010PropOp34
 70
     1
102
RTVSPost2010Prop35
280
     0
102
RTVSPost2010PropOp35
 70
     1
102
RTVSPost2010Prop36
280
     0
102
RTVSPost2010PropOp36
 70
     1
102
RTVSPost2010Prop37
 90
       50
102
RTVSPost2010PropOp37
 70
     1
102
RTVSPost2010Prop38
140
0.0
102
RTVSPost2010PropOp38
 70
     1
102
RTVSPost2010Prop39
140
1.0
102
RTVSPost2010PropOp39
 70
     1
102
RTVSPost2010Prop40
 90
        0
102
RTVSPost2010PropOp40
 70
     1
102
RTVSPost2010Prop41ColorIndex
 90
       18
102
RTVSPost2010Prop41ColorRGB
 90
        0
102
RTVSPost2010PropOp41
 70
     1
102
RTVSPost2010Prop42
 90
       50
102
RTVSPost2010PropOp42
 70
     1
102
RTVSPost2010Prop43
 90
        3
102
RTVSPost2010PropOp43
 70
     1
102
RTVSPost2010Prop44ColorIndex
 90
        5
102
RTVSPost2010Prop44ColorRGB
 90
      255
102
RTVSPost2010PropOp44
 70
     1
102
RTVSPost2010Prop45
280
     0
102
RTVSPost2010PropOp45
 70
     1
102
RTVSPost2010Prop46
 90
       50
102
RTVSPost2010PropOp46
 70
     1
102
RTVSPost2010Prop47
 90
       50
102
RTVSPost2010PropOp47
 70
     1
102
RTVSPost2010Prop48
 90
       50
102
RTVSPost2010PropOp48
 70
     1
102
RTVSPost2010Prop49
280
     0
102
RTVSPost2010PropOp49
 70
     1
102
RTVSPost2010Prop50
 90
       50
102
RTVSPost2010PropOp50
 70
     1
102
RTVSPost2010Prop51ColorIndex
 90
      256
102
RTVSPost2010Prop51ColorRGB
 90
-16777216
102
RTVSPost2010PropOp51
 70
     0
102
RTVSPost2010Prop52
140
1.0
102
RTVSPost2010PropOp52
 70
     0
102
RTVSPost2010Prop53
 90
        2
102
RTVSPost2010PropOp53
 70
     1
102
RTVSPost2010Prop54
  1
strokes_ogs.tif
102
RTVSPost2010PropOp54
 70
     1
102
RTVSPost2010Prop55
280
     0
102
RTVSPost2010PropOp55
 70
     1
102
RTVSPost2010Prop56
140
1.0
102
RTVSPost2010PropOp56
 70
     1
102
RTVSPost2010Prop57
140
1.0
102
RTVSPost2010PropOp57
 70
     1
  0
XRECORD
  5
F7
102
{ACAD_REACTORS
330
F6
102
}
330
F6
100
AcDbXrecord
280
     1
102
RTVSPropertyOp0
 70
     1
102
RTVSPropertyOp1
 70
     1
102
RTVSPropertyOp2
 70
     1
102
RTVSPropertyOp3
 70
     1
102
RTVSPropertyOp4
 70
     1
102
RTVSPropertyOp5
 70
     1
102
RTVSPropertyOp6
 70
     1
102
RTVSPropertyOp7
 70
     1
102
RTVSPropertyOp8
 70
     1
102
RTVSPropertyOp9
 70
     1
102
RTVSPropertyOp10
 70
     1
102
RTVSPropertyOp11
 70
     1
102
RTVSPropertyOp12
 70
     1
102
RTVSPropertyOp13
 70
     1
102
RTVSPropertyOp14
 70
     1
102
RTVSPropertyOp15
 70
     1
102
RTVSPropertyOp16
 70
     1
102
RTVSPropertyOp17
 70
     1
102
RTVSPropertyOp18
 70
     1
102
RTVSPropertyOp19
 70
     1
102
RTVSPropertyOp20
 70
     1
102
RTVSPropertyOp21
 70
     1
102
RTVSPropertyOp22
 70
     1
102
RTVSPropertyOp23
 70
     1
102
RTVSPropertyOp24
 70
     1
102
RTVSPropertyOp25
 70
     1
102
RTVSPropertyOp26
 70
     1
102
RTVSPropertyOp27
 70
     1
102
RTVSPropertyOp28
 70
     1
102
RTVSPropertyOp29
 70
     1
102
RTVSPropertyOp30
 70
     1
102
RTVSPropertyOp31
 70
     1
102
RTVSPropertyOp32
 70
     1
102
RTVSPropertyOp33
 70
     1
102
RTVSPropertyOp34
 70
     1
102
RTVSPropertyOp35
 70
     1
102
RTVSPropertyOp36
 70
     1
102
RTVSPropertyOp37
 70
     1
102
RTVSPropertyOp38
 70
     1
102
RTVSPropertyOp39
 70
     1
102
RTVSPropertyOp40
 70
     1
102
RTVSPropertyOp41
 70
     1
102
RTVSPropertyOp42
 70
     1
102
RTVSPropertyOp43
 70
     1
102
RTVSPropertyOp44
 70
     1
102
RTVSPropertyOp45
 70
     1
102
RTVSPropertyOp46
 70
     1
102
RTVSPropertyOp47
 70
     1
102
RTVSPropertyOp48
 70
     1
102
RTVSPropertyOp49
 70
     1
102
RTVSPropertyOp50
 70
     1
102
RTVSPropertyOp51
 70
     0
102
RTVSPropertyOp52
 70
     0
102
RTVSPropertyOp53
 70
     1
102
RTVSPropertyOp54
 70
     1
102
RTVSPropertyOp55
 70
     1
102
RTVSPropertyOp56
 70
     1
102
RTVSPropertyOp57
 70
     1
102
RTVSPost2010Prop28
280
     0
102
RTVSPost2010PropOp28
 70
     1
102
RTVSPost2010Prop29
280
     1
102
RTVSPost2010PropOp29
 70
     1
102
RTVSPost2010Prop30
280
     1
102
RTVSPost2010PropOp30
 70
     1
102
RTVSPost2010Prop31
280
     0
102
RTVSPost2010PropOp31
 70
     1
102
RTVSPost2010Prop32
280
     0
102
RTVSPost2010PropOp32
 70
     1
102
RTVSPost2010Prop33
280
     0
102
RTVSPost2010PropOp33
 70
     1
102
RTVSPost2010Prop34
280
     0
102
RTVSPost2010PropOp34
 70
     1
102
RTVSPost2010Prop35
280
     0
102
RTVSPost2010PropOp35
 70
     1
102
RTVSPost2010Prop36
280
     0
102
RTVSPost2010PropOp36
 70
     1
102
RTVSPost2010Prop37
 90
       50
102
RTVSPost2010PropOp37
 70
     1
102
RTVSPost2010Prop38
140
0.0
102
RTVSPost2010PropOp38
 70
     1
102
RTVSPost2010Prop39
140
1.0
102
RTVSPost2010PropOp39
 70
     1
102
RTVSPost2010Prop40
 90
        0
102
RTVSPost2010PropOp40
 70
     1
102
RTVSPost2010Prop41ColorIndex
 90
       18
102
RTVSPost2010Prop41ColorRGB
 90
        0
102
RTVSPost2010PropOp41
 70
     1
102
RTVSPost2010Prop42
 90
       50
102
RTVSPost2010PropOp42
 70
     1
102
RTVSPost2010Prop43
 90
        3
102
RTVSPost2010PropOp43
 70
     1
102
RTVSPost2010Prop44ColorIndex
 90
        5
102
RTVSPost2010Prop44ColorRGB
 90
      255
102
RTVSPost2010PropOp44
 70
     1
102
RTVSPost2010Prop45
280
     0
102
RTVSPost2010PropOp45
 70
     1
102
RTVSPost2010Prop46
 90
       50
102
RTVSPost2010PropOp46
 70
     1
102
RTVSPost2010Prop47
 90
       50
102
RTVSPost2010PropOp47
 70
     1
102
RTVSPost2010Prop48
 90
       50
102
RTVSPost2010PropOp48
 70
     1
102
RTVSPost2010Prop49
280
     0
102
RTVSPost2010PropOp49
 70
     1
102
RTVSPost2010Prop50
 90
       50
102
RTVSPost2010PropOp50
 70
     1
102
RTVSPost2010Prop51ColorIndex
 90
      256
102
RTVSPost2010Prop51ColorRGB
 90
-16777216
102
RTVSPost2010PropOp51
 70
     0
102
RTVSPost2010Prop52
140
1.0
102
RTVSPost2010PropOp52
 70
     0
102
RTVSPost2010Prop53
 90
        2
102
RTVSPost2010PropOp53
 70
     1
102
RTVSPost2010Prop54
  1
strokes_ogs.tif
102
RTVSPost2010PropOp54
 70
     1
102
RTVSPost2010Prop55
280
     0
102
RTVSPost2010PropOp55
 70
     1
102
RTVSPost2010Prop56
140
1.0
102
RTVSPost2010PropOp56
 70
     1
102
RTVSPost2010Prop57
140
1.0
102
RTVSPost2010PropOp57
 70
     1
  0
XRECORD
  5
F5
102
{ACAD_REACTORS
330
F4
102
}
330
F4
100
AcDbXrecord
280
     1
102
RTVSPropertyOp0
 70
     1
102
RTVSPropertyOp1
 70
     1
102
RTVSPropertyOp2
 70
     1
102
RTVSPropertyOp3
 70
     1
102
RTVSPropertyOp4
 70
     1
102
RTVSPropertyOp5
 70
     1
102
RTVSPropertyOp6
 70
     1
102
RTVSPropertyOp7
 70
     1
102
RTVSPropertyOp8
 70
     1
102
RTVSPropertyOp9
 70
     1
102
RTVSPropertyOp10
 70
     1
102
RTVSPropertyOp11
 70
     1
102
RTVSPropertyOp12
 70
     1
102
RTVSPropertyOp13
 70
     1
102
RTVSPropertyOp14
 70
     1
102
RTVSPropertyOp15
 70
     1
102
RTVSPropertyOp16
 70
     1
102
RTVSPropertyOp17
 70
     1
102
RTVSPropertyOp18
 70
     1
102
RTVSPropertyOp19
 70
     1
102
RTVSPropertyOp20
 70
     1
102
RTVSPropertyOp21
 70
     1
102
RTVSPropertyOp22
 70
     1
102
RTVSPropertyOp23
 70
     1
102
RTVSPropertyOp24
 70
     1
102
RTVSPropertyOp25
 70
     1
102
RTVSPropertyOp26
 70
     1
102
RTVSPropertyOp27
 70
     1
102
RTVSPropertyOp28
 70
     1
102
RTVSPropertyOp29
 70
     1
102
RTVSPropertyOp30
 70
     1
102
RTVSPropertyOp31
 70
     1
102
RTVSPropertyOp32
 70
     1
102
RTVSPropertyOp33
 70
     1
102
RTVSPropertyOp34
 70
     1
102
RTVSPropertyOp35
 70
     1
102
RTVSPropertyOp36
 70
     1
102
RTVSPropertyOp37
 70
     1
102
RTVSPropertyOp38
 70
     1
102
RTVSPropertyOp39
 70
     1
102
RTVSPropertyOp40
 70
     1
102
RTVSPropertyOp41
 70
     1
102
RTVSPropertyOp42
 70
     1
102
RTVSPropertyOp43
 70
     1
102
RTVSPropertyOp44
 70
     1
102
RTVSPropertyOp45
 70
     1
102
RTVSPropertyOp46
 70
     1
102
RTVSPropertyOp47
 70
     1
102
RTVSPropertyOp48
 70
     1
102
RTVSPropertyOp49
 70
     1
102
RTVSPropertyOp50
 70
     1
102
RTVSPropertyOp51
 70
     0
102
RTVSPropertyOp52
 70
     0
102
RTVSPropertyOp53
 70
     1
102
RTVSPropertyOp54
 70
     1
102
RTVSPropertyOp55
 70
     1
102
RTVSPropertyOp56
 70
     1
102
RTVSPropertyOp57
 70
     1
102
RTVSPost2010Prop28
280
     0
102
RTVSPost2010PropOp28
 70
     1
102
RTVSPost2010Prop29
280
     1
102
RTVSPost2010PropOp29
 70
     1
102
RTVSPost2010Prop30
280
     1
102
RTVSPost2010PropOp30
 70
     1
102
RTVSPost2010Prop31
280
     0
102
RTVSPost2010PropOp31
 70
     1
102
RTVSPost2010Prop32
280
     0
102
RTVSPost2010PropOp32
 70
     1
102
RTVSPost2010Prop33
280
     0
102
RTVSPost2010PropOp33
 70
     1
102
RTVSPost2010Prop34
280
     0
102
RTVSPost2010PropOp34
 70
     1
102
RTVSPost2010Prop35
280
     0
102
RTVSPost2010PropOp35
 70
     1
102
RTVSPost2010Prop36
280
     0
102
RTVSPost2010PropOp36
 70
     1
102
RTVSPost2010Prop37
 90
       50
102
RTVSPost2010PropOp37
 70
     1
102
RTVSPost2010Prop38
140
0.0
102
RTVSPost2010PropOp38
 70
     1
102
RTVSPost2010Prop39
140
1.0
102
RTVSPost2010PropOp39
 70
     1
102
RTVSPost2010Prop40
 90
        0
102
RTVSPost2010PropOp40
 70
     1
102
RTVSPost2010Prop41ColorIndex
 90
       18
102
RTVSPost2010Prop41ColorRGB
 90
        0
102
RTVSPost2010PropOp41
 70
     1
102
RTVSPost2010Prop42
 90
       50
102
RTVSPost2010PropOp42
 70
     1
102
RTVSPost2010Prop43
 90
        3
102
RTVSPost2010PropOp43
 70
     1
102
RTVSPost2010Prop44ColorIndex
 90
        5
102
RTVSPost2010Prop44ColorRGB
 90
      255
102
RTVSPost2010PropOp44
 70
     1
102
RTVSPost2010Prop45
280
     0
102
RTVSPost2010PropOp45
 70
     1
102
RTVSPost2010Prop46
 90
       50
102
RTVSPost2010PropOp46
 70
     1
102
RTVSPost2010Prop47
 90
       50
102
RTVSPost2010PropOp47
 70
     1
102
RTVSPost2010Prop48
 90
       50
102
RTVSPost2010PropOp48
 70
     1
102
RTVSPost2010Prop49
280
     0
102
RTVSPost2010PropOp49
 70
     1
102
RTVSPost2010Prop50
 90
       50
102
RTVSPost2010PropOp50
 70
     1
102
RTVSPost2010Prop51ColorIndex
 90
      256
102
RTVSPost2010Prop51ColorRGB
 90
-16777216
102
RTVSPost2010PropOp51
 70
     0
102
RTVSPost2010Prop52
140
1.0
102
RTVSPost2010PropOp52
 70
     0
102
RTVSPost2010Prop53
 90
        2
102
RTVSPost2010PropOp53
 70
     1
102
RTVSPost2010Prop54
  1
strokes_ogs.tif
102
RTVSPost2010PropOp54
 70
     1
102
RTVSPost2010Prop55
280
     0
102
RTVSPost2010PropOp55
 70
     1
102
RTVSPost2010Prop56
140
1.0
102
RTVSPost2010PropOp56
 70
     1
102
RTVSPost2010Prop57
140
1.0
102
RTVSPost2010PropOp57
 70
     1
  0
XRECORD
  5
EF
102
{ACAD_REACTORS
330
EE
102
}
330
EE
100
AcDbXrecord
280
     1
102
RTVSPropertyOp0
 70
     1
102
RTVSPropertyOp1
 70
     1
102
RTVSPropertyOp2
 70
     1
102
RTVSPropertyOp3
 70
     1
102
RTVSPropertyOp4
 70
     1
102
RTVSPropertyOp5
 70
     1
102
RTVSPropertyOp6
 70
     1
102
RTVSPropertyOp7
 70
     1
102
RTVSPropertyOp8
 70
     1
102
RTVSPropertyOp9
 70
     1
102
RTVSPropertyOp10
 70
     1
102
RTVSPropertyOp11
 70
     1
102
RTVSPropertyOp12
 70
     1
102
RTVSPropertyOp13
 70
     1
102
RTVSPropertyOp14
 70
     1
102
RTVSPropertyOp15
 70
     1
102
RTVSPropertyOp16
 70
     1
102
RTVSPropertyOp17
 70
     1
102
RTVSPropertyOp18
 70
     1
102
RTVSPropertyOp19
 70
     1
102
RTVSPropertyOp20
 70
     1
102
RTVSPropertyOp21
 70
     1
102
RTVSPropertyOp22
 70
     1
102
RTVSPropertyOp23
 70
     1
102
RTVSPropertyOp24
 70
     1
102
RTVSPropertyOp25
 70
     1
102
RTVSPropertyOp26
 70
     1
102
RTVSPropertyOp27
 70
     1
102
RTVSPropertyOp28
 70
     1
102
RTVSPropertyOp29
 70
     1
102
RTVSPropertyOp30
 70
     1
102
RTVSPropertyOp31
 70
     1
102
RTVSPropertyOp32
 70
     1
102
RTVSPropertyOp33
 70
     1
102
RTVSPropertyOp34
 70
     1
102
RTVSPropertyOp35
 70
     1
102
RTVSPropertyOp36
 70
     1
102
RTVSPropertyOp37
 70
     1
102
RTVSPropertyOp38
 70
     1
102
RTVSPropertyOp39
 70
     1
102
RTVSPropertyOp40
 70
     1
102
RTVSPropertyOp41
 70
     1
102
RTVSPropertyOp42
 70
     1
102
RTVSPropertyOp43
 70
     1
102
RTVSPropertyOp44
 70
     1
102
RTVSPropertyOp45
 70
     1
102
RTVSPropertyOp46
 70
     1
102
RTVSPropertyOp47
 70
     1
102
RTVSPropertyOp48
 70
     1
102
RTVSPropertyOp49
 70
     1
102
RTVSPropertyOp50
 70
     1
102
RTVSPropertyOp51
 70
     0
102
RTVSPropertyOp52
 70
     0
102
RTVSPropertyOp53
 70
     1
102
RTVSPropertyOp54
 70
     1
102
RTVSPropertyOp55
 70
     1
102
RTVSPropertyOp56
 70
     1
102
RTVSPropertyOp57
 70
     1
102
RTVSPost2010Prop28
280
     0
102
RTVSPost2010PropOp28
 70
     1
102
RTVSPost2010Prop29
280
     1
102
RTVSPost2010PropOp29
 70
     1
102
RTVSPost2010Prop30
280
     1
102
RTVSPost2010PropOp30
 70
     1
102
RTVSPost2010Prop31
280
     0
102
RTVSPost2010PropOp31
 70
     1
102
RTVSPost2010Prop32
280
     0
102
RTVSPost2010PropOp32
 70
     1
102
RTVSPost2010Prop33
280
     0
102
RTVSPost2010PropOp33
 70
     1
102
RTVSPost2010Prop34
280
     0
102
RTVSPost2010PropOp34
 70
     1
102
RTVSPost2010Prop35
280
     0
102
RTVSPost2010PropOp35
 70
     1
102
RTVSPost2010Prop36
280
     0
102
RTVSPost2010PropOp36
 70
     1
102
RTVSPost2010Prop37
 90
       50
102
RTVSPost2010PropOp37
 70
     1
102
RTVSPost2010Prop38
140
0.0
102
RTVSPost2010PropOp38
 70
     1
102
RTVSPost2010Prop39
140
1.0
102
RTVSPost2010PropOp39
 70
     1
102
RTVSPost2010Prop40
 90
        0
102
RTVSPost2010PropOp40
 70
     1
102
RTVSPost2010Prop41ColorIndex
 90
       18
102
RTVSPost2010Prop41ColorRGB
 90
        0
102
RTVSPost2010PropOp41
 70
     1
102
RTVSPost2010Prop42
 90
       50
102
RTVSPost2010PropOp42
 70
     1
102
RTVSPost2010Prop43
 90
        3
102
RTVSPost2010PropOp43
 70
     1
102
RTVSPost2010Prop44ColorIndex
 90
        5
102
RTVSPost2010Prop44ColorRGB
 90
      255
102
RTVSPost2010PropOp44
 70
     1
102
RTVSPost2010Prop45
280
     0
102
RTVSPost2010PropOp45
 70
     1
102
RTVSPost2010Prop46
 90
       50
102
RTVSPost2010PropOp46
 70
     1
102
RTVSPost2010Prop47
 90
       50
102
RTVSPost2010PropOp47
 70
     1
102
RTVSPost2010Prop48
 90
       50
102
RTVSPost2010PropOp48
 70
     1
102
RTVSPost2010Prop49
280
     0
102
RTVSPost2010PropOp49
 70
     1
102
RTVSPost2010Prop50
 90
       50
102
RTVSPost2010PropOp50
 70
     1
102
RTVSPost2010Prop51ColorIndex
 90
      256
102
RTVSPost2010Prop51ColorRGB
 90
-16777216
102
RTVSPost2010PropOp51
 70
     0
102
RTVSPost2010Prop52
140
1.0
102
RTVSPost2010PropOp52
 70
     0
102
RTVSPost2010Prop53
 90
        2
102
RTVSPost2010PropOp53
 70
     1
102
RTVSPost2010Prop54
  1
strokes_ogs.tif
102
RTVSPost2010PropOp54
 70
     1
102
RTVSPost2010Prop55
280
     0
102
RTVSPost2010PropOp55
 70
     1
102
RTVSPost2010Prop56
140
1.0
102
RTVSPost2010PropOp56
 70
     1
102
RTVSPost2010Prop57
140
1.0
102
RTVSPost2010PropOp57
 70
     1
  0
XRECORD
  5
F1
102
{ACAD_REACTORS
330
F0
102
}
330
F0
100
AcDbXrecord
280
     1
102
RTVSPropertyOp0
 70
     1
102
RTVSPropertyOp1
 70
     1
102
RTVSPropertyOp2
 70
     1
102
RTVSPropertyOp3
 70
     1
102
RTVSPropertyOp4
 70
     1
102
RTVSPropertyOp5
 70
     1
102
RTVSPropertyOp6
 70
     1
102
RTVSPropertyOp7
 70
     1
102
RTVSPropertyOp8
 70
     1
102
RTVSPropertyOp9
 70
     1
102
RTVSPropertyOp10
 70
     1
102
RTVSPropertyOp11
 70
     1
102
RTVSPropertyOp12
 70
     1
102
RTVSPropertyOp13
 70
     1
102
RTVSPropertyOp14
 70
     1
102
RTVSPropertyOp15
 70
     1
102
RTVSPropertyOp16
 70
     1
102
RTVSPropertyOp17
 70
     1
102
RTVSPropertyOp18
 70
     1
102
RTVSPropertyOp19
 70
     1
102
RTVSPropertyOp20
 70
     1
102
RTVSPropertyOp21
 70
     1
102
RTVSPropertyOp22
 70
     1
102
RTVSPropertyOp23
 70
     1
102
RTVSPropertyOp24
 70
     1
102
RTVSPropertyOp25
 70
     1
102
RTVSPropertyOp26
 70
     1
102
RTVSPropertyOp27
 70
     1
102
RTVSPropertyOp28
 70
     1
102
RTVSPropertyOp29
 70
     1
102
RTVSPropertyOp30
 70
     1
102
RTVSPropertyOp31
 70
     1
102
RTVSPropertyOp32
 70
     1
102
RTVSPropertyOp33
 70
     1
102
RTVSPropertyOp34
 70
     1
102
RTVSPropertyOp35
 70
     1
102
RTVSPropertyOp36
 70
     1
102
RTVSPropertyOp37
 70
     1
102
RTVSPropertyOp38
 70
     1
102
RTVSPropertyOp39
 70
     1
102
RTVSPropertyOp40
 70
     1
102
RTVSPropertyOp41
 70
     1
102
RTVSPropertyOp42
 70
     1
102
RTVSPropertyOp43
 70
     1
102
RTVSPropertyOp44
 70
     1
102
RTVSPropertyOp45
 70
     1
102
RTVSPropertyOp46
 70
     1
102
RTVSPropertyOp47
 70
     1
102
RTVSPropertyOp48
 70
     1
102
RTVSPropertyOp49
 70
     1
102
RTVSPropertyOp50
 70
     1
102
RTVSPropertyOp51
 70
     0
102
RTVSPropertyOp52
 70
     0
102
RTVSPropertyOp53
 70
     1
102
RTVSPropertyOp54
 70
     1
102
RTVSPropertyOp55
 70
     1
102
RTVSPropertyOp56
 70
     1
102
RTVSPropertyOp57
 70
     1
102
RTVSPost2010Prop28
280
     0
102
RTVSPost2010PropOp28
 70
     1
102
RTVSPost2010Prop29
280
     1
102
RTVSPost2010PropOp29
 70
     1
102
RTVSPost2010Prop30
280
     1
102
RTVSPost2010PropOp30
 70
     1
102
RTVSPost2010Prop31
280
     0
102
RTVSPost2010PropOp31
 70
     1
102
RTVSPost2010Prop32
280
     0
102
RTVSPost2010PropOp32
 70
     1
102
RTVSPost2010Prop33
280
     0
102
RTVSPost2010PropOp33
 70
     1
102
RTVSPost2010Prop34
280
     0
102
RTVSPost2010PropOp34
 70
     1
102
RTVSPost2010Prop35
280
     0
102
RTVSPost2010PropOp35
 70
     1
102
RTVSPost2010Prop36
280
     0
102
RTVSPost2010PropOp36
 70
     1
102
RTVSPost2010Prop37
 90
       50
102
RTVSPost2010PropOp37
 70
     1
102
RTVSPost2010Prop38
140
0.0
102
RTVSPost2010PropOp38
 70
     1
102
RTVSPost2010Prop39
140
1.0
102
RTVSPost2010PropOp39
 70
     1
102
RTVSPost2010Prop40
 90
        0
102
RTVSPost2010PropOp40
 70
     1
102
RTVSPost2010Prop41ColorIndex
 90
       18
102
RTVSPost2010Prop41ColorRGB
 90
        0
102
RTVSPost2010PropOp41
 70
     1
102
RTVSPost2010Prop42
 90
       50
102
RTVSPost2010PropOp42
 70
     1
102
RTVSPost2010Prop43
 90
        3
102
RTVSPost2010PropOp43
 70
     1
102
RTVSPost2010Prop44ColorIndex
 90
        5
102
RTVSPost2010Prop44ColorRGB
 90
      255
102
RTVSPost2010PropOp44
 70
     1
102
RTVSPost2010Prop45
280
     0
102
RTVSPost2010PropOp45
 70
     1
102
RTVSPost2010Prop46
 90
       50
102
RTVSPost2010PropOp46
 70
     1
102
RTVSPost2010Prop47
 90
       50
102
RTVSPost2010PropOp47
 70
     1
102
RTVSPost2010Prop48
 90
       50
102
RTVSPost2010PropOp48
 70
     1
102
RTVSPost2010Prop49
280
     0
102
RTVSPost2010PropOp49
 70
     1
102
RTVSPost2010Prop50
 90
       50
102
RTVSPost2010PropOp50
 70
     1
102
RTVSPost2010Prop51ColorIndex
 90
      256
102
RTVSPost2010Prop51ColorRGB
 90
-16777216
102
RTVSPost2010PropOp51
 70
     0
102
RTVSPost2010Prop52
140
1.0
102
RTVSPost2010PropOp52
 70
     0
102
RTVSPost2010Prop53
 90
        2
102
RTVSPost2010PropOp53
 70
     1
102
RTVSPost2010Prop54
  1
strokes_ogs.tif
102
RTVSPost2010PropOp54
 70
     1
102
RTVSPost2010Prop55
280
     0
102
RTVSPost2010PropOp55
 70
     1
102
RTVSPost2010Prop56
140
1.0
102
RTVSPost2010PropOp56
 70
     1
102
RTVSPost2010Prop57
140
1.0
102
RTVSPost2010PropOp57
 70
     1
  0
XRECORD
  5
E1
102
{ACAD_REACTORS
330
E0
102
}
330
E0
100
AcDbXrecord
280
     1
102
RTVSPropertyOp0
 70
     1
102
RTVSPropertyOp1
 70
     1
102
RTVSPropertyOp2
 70
     1
102
RTVSPropertyOp3
 70
     1
102
RTVSPropertyOp4
 70
     1
102
RTVSPropertyOp5
 70
     1
102
RTVSPropertyOp6
 70
     1
102
RTVSPropertyOp7
 70
     1
102
RTVSPropertyOp8
 70
     1
102
RTVSPropertyOp9
 70
     1
102
RTVSPropertyOp10
 70
     1
102
RTVSPropertyOp11
 70
     1
102
RTVSPropertyOp12
 70
     1
102
RTVSPropertyOp13
 70
     1
102
RTVSPropertyOp14
 70
     1
102
RTVSPropertyOp15
 70
     1
102
RTVSPropertyOp16
 70
     1
102
RTVSPropertyOp17
 70
     1
102
RTVSPropertyOp18
 70
     1
102
RTVSPropertyOp19
 70
     1
102
RTVSPropertyOp20
 70
     1
102
RTVSPropertyOp21
 70
     1
102
RTVSPropertyOp22
 70
     1
102
RTVSPropertyOp23
 70
     1
102
RTVSPropertyOp24
 70
     1
102
RTVSPropertyOp25
 70
     1
102
RTVSPropertyOp26
 70
     1
102
RTVSPropertyOp27
 70
     1
102
RTVSPropertyOp28
 70
     1
102
RTVSPropertyOp29
 70
     1
102
RTVSPropertyOp30
 70
     1
102
RTVSPropertyOp31
 70
     1
102
RTVSPropertyOp32
 70
     1
102
RTVSPropertyOp33
 70
     1
102
RTVSPropertyOp34
 70
     1
102
RTVSPropertyOp35
 70
     1
102
RTVSPropertyOp36
 70
     1
102
RTVSPropertyOp37
 70
     1
102
RTVSPropertyOp38
 70
     1
102
RTVSPropertyOp39
 70
     1
102
RTVSPropertyOp40
 70
     1
102
RTVSPropertyOp41
 70
     1
102
RTVSPropertyOp42
 70
     1
102
RTVSPropertyOp43
 70
     1
102
RTVSPropertyOp44
 70
     1
102
RTVSPropertyOp45
 70
     1
102
RTVSPropertyOp46
 70
     1
102
RTVSPropertyOp47
 70
     1
102
RTVSPropertyOp48
 70
     1
102
RTVSPropertyOp49
 70
     1
102
RTVSPropertyOp50
 70
     1
102
RTVSPropertyOp51
 70
     0
102
RTVSPropertyOp52
 70
     0
102
RTVSPropertyOp53
 70
     1
102
RTVSPropertyOp54
 70
     1
102
RTVSPropertyOp55
 70
     1
102
RTVSPropertyOp56
 70
     1
102
RTVSPropertyOp57
 70
     1
102
RTVSPost2010Prop28
280
     0
102
RTVSPost2010PropOp28
 70
     1
102
RTVSPost2010Prop29
280
     1
102
RTVSPost2010PropOp29
 70
     1
102
RTVSPost2010Prop30
280
     1
102
RTVSPost2010PropOp30
 70
     1
102
RTVSPost2010Prop31
280
     0
102
RTVSPost2010PropOp31
 70
     1
102
RTVSPost2010Prop32
280
     0
102
RTVSPost2010PropOp32
 70
     1
102
RTVSPost2010Prop33
280
     0
102
RTVSPost2010PropOp33
 70
     1
102
RTVSPost2010Prop34
280
     0
102
RTVSPost2010PropOp34
 70
     1
102
RTVSPost2010Prop35
280
     0
102
RTVSPost2010PropOp35
 70
     1
102
RTVSPost2010Prop36
280
     0
102
RTVSPost2010PropOp36
 70
     1
102
RTVSPost2010Prop37
 90
       50
102
RTVSPost2010PropOp37
 70
     1
102
RTVSPost2010Prop38
140
0.0
102
RTVSPost2010PropOp38
 70
     1
102
RTVSPost2010Prop39
140
1.0
102
RTVSPost2010PropOp39
 70
     1
102
RTVSPost2010Prop40
 90
        0
102
RTVSPost2010PropOp40
 70
     1
102
RTVSPost2010Prop41ColorIndex
 90
       18
102
RTVSPost2010Prop41ColorRGB
 90
        0
102
RTVSPost2010PropOp41
 70
     1
102
RTVSPost2010Prop42
 90
       50
102
RTVSPost2010PropOp42
 70
     1
102
RTVSPost2010Prop43
 90
        3
102
RTVSPost2010PropOp43
 70
     1
102
RTVSPost2010Prop44ColorIndex
 90
        5
102
RTVSPost2010Prop44ColorRGB
 90
      255
102
RTVSPost2010PropOp44
 70
     1
102
RTVSPost2010Prop45
280
     0
102
RTVSPost2010PropOp45
 70
     1
102
RTVSPost2010Prop46
 90
       50
102
RTVSPost2010PropOp46
 70
     1
102
RTVSPost2010Prop47
 90
       50
102
RTVSPost2010PropOp47
 70
     1
102
RTVSPost2010Prop48
 90
       50
102
RTVSPost2010PropOp48
 70
     1
102
RTVSPost2010Prop49
280
     0
102
RTVSPost2010PropOp49
 70
     1
102
RTVSPost2010Prop50
 90
       50
102
RTVSPost2010PropOp50
 70
     1
102
RTVSPost2010Prop51ColorIndex
 90
      256
102
RTVSPost2010Prop51ColorRGB
 90
-16777216
102
RTVSPost2010PropOp51
 70
     0
102
RTVSPost2010Prop52
140
1.0
102
RTVSPost2010PropOp52
 70
     0
102
RTVSPost2010Prop53
 90
        2
102
RTVSPost2010PropOp53
 70
     1
102
RTVSPost2010Prop54
  1
strokes_ogs.tif
102
RTVSPost2010PropOp54
 70
     1
102
RTVSPost2010Prop55
280
     0
102
RTVSPost2010PropOp55
 70
     1
102
RTVSPost2010Prop56
140
1.0
102
RTVSPost2010PropOp56
 70
     1
102
RTVSPost2010Prop57
140
1.0
102
RTVSPost2010PropOp57
 70
     1
  0
XRECORD
  5
D3
102
{ACAD_REACTORS
330
D2
102
}
330
D2
100
AcDbXrecord
280
     1
102
RTVSPropertyOp0
 70
     1
102
RTVSPropertyOp1
 70
     1
102
RTVSPropertyOp2
 70
     1
102
RTVSPropertyOp3
 70
     1
102
RTVSPropertyOp4
 70
     1
102
RTVSPropertyOp5
 70
     1
102
RTVSPropertyOp6
 70
     1
102
RTVSPropertyOp7
 70
     1
102
RTVSPropertyOp8
 70
     1
102
RTVSPropertyOp9
 70
     1
102
RTVSPropertyOp10
 70
     1
102
RTVSPropertyOp11
 70
     1
102
RTVSPropertyOp12
 70
     1
102
RTVSPropertyOp13
 70
     1
102
RTVSPropertyOp14
 70
     1
102
RTVSPropertyOp15
 70
     1
102
RTVSPropertyOp16
 70
     1
102
RTVSPropertyOp17
 70
     1
102
RTVSPropertyOp18
 70
     1
102
RTVSPropertyOp19
 70
     1
102
RTVSPropertyOp20
 70
     1
102
RTVSPropertyOp21
 70
     1
102
RTVSPropertyOp22
 70
     1
102
RTVSPropertyOp23
 70
     1
102
RTVSPropertyOp24
 70
     1
102
RTVSPropertyOp25
 70
     1
102
RTVSPropertyOp26
 70
     1
102
RTVSPropertyOp27
 70
     1
102
RTVSPropertyOp28
 70
     1
102
RTVSPropertyOp29
 70
     1
102
RTVSPropertyOp30
 70
     1
102
RTVSPropertyOp31
 70
     1
102
RTVSPropertyOp32
 70
     1
102
RTVSPropertyOp33
 70
     1
102
RTVSPropertyOp34
 70
     1
102
RTVSPropertyOp35
 70
     1
102
RTVSPropertyOp36
 70
     1
102
RTVSPropertyOp37
 70
     1
102
RTVSPropertyOp38
 70
     1
102
RTVSPropertyOp39
 70
     1
102
RTVSPropertyOp40
 70
     1
102
RTVSPropertyOp41
 70
     1
102
RTVSPropertyOp42
 70
     1
102
RTVSPropertyOp43
 70
     1
102
RTVSPropertyOp44
 70
     1
102
RTVSPropertyOp45
 70
     1
102
RTVSPropertyOp46
 70
     1
102
RTVSPropertyOp47
 70
     1
102
RTVSPropertyOp48
 70
     1
102
RTVSPropertyOp49
 70
     1
102
RTVSPropertyOp50
 70
     1
102
RTVSPropertyOp51
 70
     0
102
RTVSPropertyOp52
 70
     0
102
RTVSPropertyOp53
 70
     1
102
RTVSPropertyOp54
 70
     1
102
RTVSPropertyOp55
 70
     1
102
RTVSPropertyOp56
 70
     1
102
RTVSPropertyOp57
 70
     1
102
RTVSPost2010Prop28
280
     0
102
RTVSPost2010PropOp28
 70
     1
102
RTVSPost2010Prop29
280
     1
102
RTVSPost2010PropOp29
 70
     1
102
RTVSPost2010Prop30
280
     1
102
RTVSPost2010PropOp30
 70
     1
102
RTVSPost2010Prop31
280
     0
102
RTVSPost2010PropOp31
 70
     1
102
RTVSPost2010Prop32
280
     0
102
RTVSPost2010PropOp32
 70
     1
102
RTVSPost2010Prop33
280
     0
102
RTVSPost2010PropOp33
 70
     1
102
RTVSPost2010Prop34
280
     0
102
RTVSPost2010PropOp34
 70
     1
102
RTVSPost2010Prop35
280
     0
102
RTVSPost2010PropOp35
 70
     1
102
RTVSPost2010Prop36
280
     0
102
RTVSPost2010PropOp36
 70
     1
102
RTVSPost2010Prop37
 90
       50
102
RTVSPost2010PropOp37
 70
     1
102
RTVSPost2010Prop38
140
0.0
102
RTVSPost2010PropOp38
 70
     1
102
RTVSPost2010Prop39
140
1.0
102
RTVSPost2010PropOp39
 70
     1
102
RTVSPost2010Prop40
 90
        0
102
RTVSPost2010PropOp40
 70
     1
102
RTVSPost2010Prop41ColorIndex
 90
       18
102
RTVSPost2010Prop41ColorRGB
 90
        0
102
RTVSPost2010PropOp41
 70
     1
102
RTVSPost2010Prop42
 90
       50
102
RTVSPost2010PropOp42
 70
     1
102
RTVSPost2010Prop43
 90
        3
102
RTVSPost2010PropOp43
 70
     1
102
RTVSPost2010Prop44ColorIndex
 90
        5
102
RTVSPost2010Prop44ColorRGB
 90
      255
102
RTVSPost2010PropOp44
 70
     1
102
RTVSPost2010Prop45
280
     0
102
RTVSPost2010PropOp45
 70
     1
102
RTVSPost2010Prop46
 90
       50
102
RTVSPost2010PropOp46
 70
     1
102
RTVSPost2010Prop47
 90
       50
102
RTVSPost2010PropOp47
 70
     1
102
RTVSPost2010Prop48
 90
       50
102
RTVSPost2010PropOp48
 70
     1
102
RTVSPost2010Prop49
280
     0
102
RTVSPost2010PropOp49
 70
     1
102
RTVSPost2010Prop50
 90
       50
102
RTVSPost2010PropOp50
 70
     1
102
RTVSPost2010Prop51ColorIndex
 90
      256
102
RTVSPost2010Prop51ColorRGB
 90
-16777216
102
RTVSPost2010PropOp51
 70
     0
102
RTVSPost2010Prop52
140
1.0
102
RTVSPost2010PropOp52
 70
     0
102
RTVSPost2010Prop53
 90
        2
102
RTVSPost2010PropOp53
 70
     1
102
RTVSPost2010Prop54
  1
strokes_ogs.tif
102
RTVSPost2010PropOp54
 70
     1
102
RTVSPost2010Prop55
280
     0
102
RTVSPost2010PropOp55
 70
     1
102
RTVSPost2010Prop56
140
1.0
102
RTVSPost2010PropOp56
 70
     1
102
RTVSPost2010Prop57
140
1.0
102
RTVSPost2010PropOp57
 70
     1
  0
XRECORD
  5
F3
102
{ACAD_REACTORS
330
F2
102
}
330
F2
100
AcDbXrecord
280
     1
102
RTVSPropertyOp0
 70
     1
102
RTVSPropertyOp1
 70
     1
102
RTVSPropertyOp2
 70
     1
102
RTVSPropertyOp3
 70
     1
102
RTVSPropertyOp4
 70
     1
102
RTVSPropertyOp5
 70
     1
102
RTVSPropertyOp6
 70
     1
102
RTVSPropertyOp7
 70
     1
102
RTVSPropertyOp8
 70
     1
102
RTVSPropertyOp9
 70
     1
102
RTVSPropertyOp10
 70
     1
102
RTVSPropertyOp11
 70
     1
102
RTVSPropertyOp12
 70
     1
102
RTVSPropertyOp13
 70
     1
102
RTVSPropertyOp14
 70
     1
102
RTVSPropertyOp15
 70
     1
102
RTVSPropertyOp16
 70
     1
102
RTVSPropertyOp17
 70
     1
102
RTVSPropertyOp18
 70
     1
102
RTVSPropertyOp19
 70
     1
102
RTVSPropertyOp20
 70
     1
102
RTVSPropertyOp21
 70
     1
102
RTVSPropertyOp22
 70
     1
102
RTVSPropertyOp23
 70
     1
102
RTVSPropertyOp24
 70
     1
102
RTVSPropertyOp25
 70
     1
102
RTVSPropertyOp26
 70
     1
102
RTVSPropertyOp27
 70
     1
102
RTVSPropertyOp28
 70
     1
102
RTVSPropertyOp29
 70
     1
102
RTVSPropertyOp30
 70
     1
102
RTVSPropertyOp31
 70
     1
102
RTVSPropertyOp32
 70
     1
102
RTVSPropertyOp33
 70
     1
102
RTVSPropertyOp34
 70
     1
102
RTVSPropertyOp35
 70
     1
102
RTVSPropertyOp36
 70
     1
102
RTVSPropertyOp37
 70
     1
102
RTVSPropertyOp38
 70
     1
102
RTVSPropertyOp39
 70
     1
102
RTVSPropertyOp40
 70
     1
102
RTVSPropertyOp41
 70
     1
102
RTVSPropertyOp42
 70
     1
102
RTVSPropertyOp43
 70
     1
102
RTVSPropertyOp44
 70
     1
102
RTVSPropertyOp45
 70
     1
102
RTVSPropertyOp46
 70
     1
102
RTVSPropertyOp47
 70
     1
102
RTVSPropertyOp48
 70
     1
102
RTVSPropertyOp49
 70
     1
102
RTVSPropertyOp50
 70
     1
102
RTVSPropertyOp51
 70
     0
102
RTVSPropertyOp52
 70
     0
102
RTVSPropertyOp53
 70
     1
102
RTVSPropertyOp54
 70
     1
102
RTVSPropertyOp55
 70
     1
102
RTVSPropertyOp56
 70
     1
102
RTVSPropertyOp57
 70
     1
102
RTVSPost2010Prop28
280
     0
102
RTVSPost2010PropOp28
 70
     1
102
RTVSPost2010Prop29
280
     1
102
RTVSPost2010PropOp29
 70
     1
102
RTVSPost2010Prop30
280
     1
102
RTVSPost2010PropOp30
 70
     1
102
RTVSPost2010Prop31
280
     0
102
RTVSPost2010PropOp31
 70
     1
102
RTVSPost2010Prop32
280
     0
102
RTVSPost2010PropOp32
 70
     1
102
RTVSPost2010Prop33
280
     0
102
RTVSPost2010PropOp33
 70
     1
102
RTVSPost2010Prop34
280
     0
102
RTVSPost2010PropOp34
 70
     1
102
RTVSPost2010Prop35
280
     0
102
RTVSPost2010PropOp35
 70
     1
102
RTVSPost2010Prop36
280
     0
102
RTVSPost2010PropOp36
 70
     1
102
RTVSPost2010Prop37
 90
       50
102
RTVSPost2010PropOp37
 70
     1
102
RTVSPost2010Prop38
140
0.0
102
RTVSPost2010PropOp38
 70
     1
102
RTVSPost2010Prop39
140
1.0
102
RTVSPost2010PropOp39
 70
     1
102
RTVSPost2010Prop40
 90
        0
102
RTVSPost2010PropOp40
 70
     1
102
RTVSPost2010Prop41ColorIndex
 90
       18
102
RTVSPost2010Prop41ColorRGB
 90
        0
102
RTVSPost2010PropOp41
 70
     1
102
RTVSPost2010Prop42
 90
       50
102
RTVSPost2010PropOp42
 70
     1
102
RTVSPost2010Prop43
 90
        3
102
RTVSPost2010PropOp43
 70
     1
102
RTVSPost2010Prop44ColorIndex
 90
        5
102
RTVSPost2010Prop44ColorRGB
 90
      255
102
RTVSPost2010PropOp44
 70
     1
102
RTVSPost2010Prop45
280
     0
102
RTVSPost2010PropOp45
 70
     1
102
RTVSPost2010Prop46
 90
       50
102
RTVSPost2010PropOp46
 70
     1
102
RTVSPost2010Prop47
 90
       50
102
RTVSPost2010PropOp47
 70
     1
102
RTVSPost2010Prop48
 90
       50
102
RTVSPost2010PropOp48
 70
     1
102
RTVSPost2010Prop49
280
     0
102
RTVSPost2010PropOp49
 70
     1
102
RTVSPost2010Prop50
 90
       50
102
RTVSPost2010PropOp50
 70
     1
102
RTVSPost2010Prop51ColorIndex
 90
      256
102
RTVSPost2010Prop51ColorRGB
 90
-16777216
102
RTVSPost2010PropOp51
 70
     0
102
RTVSPost2010Prop52
140
1.0
102
RTVSPost2010PropOp52
 70
     0
102
RTVSPost2010Prop53
 90
        2
102
RTVSPost2010PropOp53
 70
     1
102
RTVSPost2010Prop54
  1
strokes_ogs.tif
102
RTVSPost2010PropOp54
 70
     1
102
RTVSPost2010Prop55
280
     0
102
RTVSPost2010PropOp55
 70
     1
102
RTVSPost2010Prop56
140
1.0
102
RTVSPost2010PropOp56
 70
     1
102
RTVSPost2010Prop57
140
1.0
102
RTVSPost2010PropOp57
 70
     1
  0
ENDSEC
  0
EOF
