  0
SECTION
  2
HEADER
  9
$ACADVER
  1
AC1015
  9
$ACADMAINTVER
 70
     6
  9
$DWGCODEPAGE
  3
ANSI_1252
  9
$INSBASE
 10
360.8679711402604
 20
438.7393480140852
 30
0.0
  9
$EXTMIN
 10
336.6282501043348
 20
430.6166891217071
 30
0.0
  9
$EXTMAX
 10
370.1757906485727
 20
449.6628492549558
 30
0.0
  9
$LIMMIN
 10
0.0
 20
0.0
  9
$LIMMAX
 10
12.0
 20
9.0
  9
$ORTHOMODE
 70
     0
  9
$REGENMODE
 70
     1
  9
$FILLMODE
 70
     1
  9
$QTEXTMODE
 70
     0
  9
$MIRRTEXT
 70
     1
  9
$LTSCALE
 40
1.0
  9
$ATTMODE
 70
     1
  9
$TEXTSIZE
 40
0.2
  9
$TRACEWID
 40
0.05
  9
$TEXTSTYLE
  7
Standard
  9
$CLAYER
  8
0
  9
$CELTYPE
  6
ByLayer
  9
$CECOLOR
 62
   256
  9
$CELTSCALE
 40
1.0
  9
$DISPSILH
 70
     0
  9
$DIMSCALE
 40
1.0
  9
$DIMASZ
 40
0.18
  9
$DIMEXO
 40
0.0625
  9
$DIMDLI
 40
0.38
  9
$DIMRND
 40
0.0
  9
$DIMDLE
 40
0.0
  9
$DIMEXE
 40
0.18
  9
$DIMTP
 40
0.0
  9
$DIMTM
 40
0.0
  9
$DIMTXT
 40
0.18
  9
$DIMCEN
 40
0.09
  9
$DIMTSZ
 40
0.0
  9
$DIMTOL
 70
     0
  9
$DIMLIM
 70
     0
  9
$DIMTIH
 70
     1
  9
$DIMTOH
 70
     1
  9
$DIMSE1
 70
     0
  9
$DIMSE2
 70
     0
  9
$DIMTAD
 70
     0
  9
$DIMZIN
 70
     0
  9
$DIMBLK
  1

  9
$DIMASO
 70
     1
  9
$DIMSHO
 70
     1
  9
$DIMPOST
  1

  9
$DIMAPOST
  1

  9
$DIMALT
 70
     0
  9
$DIMALTD
 70
     2
  9
$DIMALTF
 40
25.4
  9
$DIMLFAC
 40
1.0
  9
$DIMTOFL
 70
     0
  9
$DIMTVP
 40
0.0
  9
$DIMTIX
 70
     0
  9
$DIMSOXD
 70
     0
  9
$DIMSAH
 70
     0
  9
$DIMBLK1
  1

  9
$DIMBLK2
  1

  9
$DIMSTYLE
  2
Standard
  9
$DIMCLRD
 70
     0
  9
$DIMCLRE
 70
     0
  9
$DIMCLRT
 70
     0
  9
$DIMTFAC
 40
1.0
  9
$DIMGAP
 40
0.09
  9
$DIMJUST
 70
     0
  9
$DIMSD1
 70
     0
  9
$DIMSD2
 70
     0
  9
$DIMTOLJ
 70
     1
  9
$DIMTZIN
 70
     0
  9
$DIMALTZ
 70
     0
  9
$DIMALTTZ
 70
     0
  9
$DIMUPT
 70
     0
  9
$DIMDEC
 70
     4
  9
$DIMTDEC
 70
     4
  9
$DIMALTU
 70
     2
  9
$DIMALTTD
 70
     2
  9
$DIMTXSTY
  7
Standard
  9
$DIMAUNIT
 70
     0
  9
$DIMADEC
 70
     0
  9
$DIMALTRND
 40
0.0
  9
$DIMAZIN
 70
     0
  9
$DIMDSEP
 70
    46
  9
$DIMATFIT
 70
     3
  9
$DIMFRAC
 70
     0
  9
$DIMLDRBLK
  1

  9
$DIMLUNIT
 70
     2
  9
$DIMLWD
 70
    -2
  9
$DIMLWE
 70
    -2
  9
$DIMTMOVE
 70
     0
  9
$LUNITS
 70
     2
  9
$LUPREC
 70
     4
  9
$SKETCHINC
 40
0.1
  9
$FILLETRAD
 40
0.5
  9
$AUNITS
 70
     0
  9
$AUPREC
 70
     0
  9
$MENU
  1
.
  9
$ELEVATION
 40
0.0
  9
$PELEVATION
 40
0.0
  9
$THICKNESS
 40
0.0
  9
$LIMCHECK
 70
     0
  9
$CHAMFERA
 40
0.5
  9
$CHAMFERB
 40
0.5
  9
$CHAMFERC
 40
1.0
  9
$CHAMFERD
 40
0.0
  9
$SKPOLY
 70
     0
  9
$TDCREATE
 40
2458676.485268229
  9
$TDUCREATE
 40
2458676.651934896
  9
$TDUPDATE
 40
2458708.511936019
  9
$TDUUPDATE
 40
2458708.678602685
  9
$TDINDWG
 40
0.1600564468
  9
$TDUSRTIMER
 40
0.1600564468
  9
$USRTIMER
 70
     1
  9
$ANGBASE
 50
0.0
  9
$ANGDIR
 70
     0
  9
$PDMODE
 70
     0
  9
$PDSIZE
 40
0.0
  9
$PLINEWID
 40
0.0
  9
$SPLFRAME
 70
     0
  9
$SPLINETYPE
 70
     6
  9
$SPLINESEGS
 70
     8
  9
$HANDSEED
  5
E4
  9
$SURFTAB1
 70
     6
  9
$SURFTAB2
 70
     6
  9
$SURFTYPE
 70
     6
  9
$SURFU
 70
     6
  9
$SURFV
 70
     6
  9
$UCSBASE
  2

  9
$UCSNAME
  2

  9
$UCSORG
 10
0.0
 20
0.0
 30
0.0
  9
$UCSXDIR
 10
1.0
 20
0.0
 30
0.0
  9
$UCSYDIR
 10
0.0
 20
1.0
 30
0.0
  9
$UCSORTHOREF
  2

  9
$UCSORTHOVIEW
 70
     0
  9
$UCSORGTOP
 10
0.0
 20
0.0
 30
0.0
  9
$UCSORGBOTTOM
 10
0.0
 20
0.0
 30
0.0
  9
$UCSORGLEFT
 10
0.0
 20
0.0
 30
0.0
  9
$UCSORGRIGHT
 10
0.0
 20
0.0
 30
0.0
  9
$UCSORGFRONT
 10
0.0
 20
0.0
 30
0.0
  9
$UCSORGBACK
 10
0.0
 20
0.0
 30
0.0
  9
$PUCSBASE
  2

  9
$PUCSNAME
  2

  9
$PUCSORG
 10
0.0
 20
0.0
 30
0.0
  9
$PUCSXDIR
 10
1.0
 20
0.0
 30
0.0
  9
$PUCSYDIR
 10
0.0
 20
1.0
 30
0.0
  9
$PUCSORTHOREF
  2

  9
$PUCSORTHOVIEW
 70
     0
  9
$PUCSORGTOP
 10
0.0
 20
0.0
 30
0.0
  9
$PUCSORGBOTTOM
 10
0.0
 20
0.0
 30
0.0
  9
$PUCSORGLEFT
 10
0.0
 20
0.0
 30
0.0
  9
$PUCSORGRIGHT
 10
0.0
 20
0.0
 30
0.0
  9
$PUCSORGFRONT
 10
0.0
 20
0.0
 30
0.0
  9
$PUCSORGBACK
 10
0.0
 20
0.0
 30
0.0
  9
$USERI1
 70
     0
  9
$USERI2
 70
     0
  9
$USERI3
 70
     0
  9
$USERI4
 70
     0
  9
$USERI5
 70
     0
  9
$USERR1
 40
0.0
  9
$USERR2
 40
0.0
  9
$USERR3
 40
0.0
  9
$USERR4
 40
0.0
  9
$USERR5
 40
0.0
  9
$WORLDVIEW
 70
     1
  9
$SHADEDGE
 70
     3
  9
$SHADEDIF
 70
    70
  9
$TILEMODE
 70
     1
  9
$MAXACTVP
 70
    64
  9
$PINSBASE
 10
0.0
 20
0.0
 30
0.0
  9
$PLIMCHECK
 70
     0
  9
$PEXTMIN
 10
1.000000000000000E+20
 20
1.000000000000000E+20
 30
1.000000000000000E+20
  9
$PEXTMAX
 10
-1.000000000000000E+20
 20
-1.000000000000000E+20
 30
-1.000000000000000E+20
  9
$PLIMMIN
 10
-0.25
 20
-0.25
  9
$PLIMMAX
 10
10.75
 20
8.25
  9
$UNITMODE
 70
     0
  9
$VISRETAIN
 70
     1
  9
$PLINEGEN
 70
     0
  9
$PSLTSCALE
 70
     1
  9
$TREEDEPTH
 70
  3020
  9
$CMLSTYLE
  2
Standard
  9
$CMLJUST
 70
     0
  9
$CMLSCALE
 40
1.0
  9
$PROXYGRAPHICS
 70
     1
  9
$MEASUREMENT
 70
     0
  9
$CELWEIGHT
370
    -1
  9
$ENDCAPS
280
     0
  9
$JOINSTYLE
280
     0
  9
$LWDISPLAY
290
     1
  9
$INSUNITS
 70
     1
  9
$HYPERLINKBASE
  1

  9
$STYLESHEET
  1

  9
$XEDIT
290
     1
  9
$CEPSNTYPE
380
     0
  9
$PSTYLEMODE
290
     1
  9
$FINGERPRINTGUID
  2
{3FF96223-F9C2-48F7-A4C5-C732E40B2087}
  9
$VERSIONGUID
  2
{FAEB1C32-E019-11D5-929B-00C0DF256EC4}
  9
$EXTNAMES
290
     1
  9
$PSVPSCALE
 40
0.0
  9
$OLESTARTUP
290
     0
  0
ENDSEC
  0
SECTION
  2
CLASSES
  0
CLASS
  1
ACDBDICTIONARYWDFLT
  2
AcDbDictionaryWithDefault
  3
ObjectDBX Classes
 90
        0
280
     0
281
     0
  0
CLASS
  1
MATERIAL
  2
AcDbMaterial
  3
ObjectDBX Classes
 90
     1153
280
     0
281
     0
  0
CLASS
  1
VISUALSTYLE
  2
AcDbVisualStyle
  3
ObjectDBX Classes
 90
     4095
280
     0
281
     0
  0
CLASS
  1
SUN
  2
AcDbSun
  3
SCENEOE
 90
     1153
280
     0
281
     0
  0
CLASS
  1
SCALE
  2
AcDbScale
  3
ObjectDBX Classes
 90
     1153
280
     0
281
     0
  0
CLASS
  1
DICTIONARYVAR
  2
AcDbDictionaryVar
  3
ObjectDBX Classes
 90
        0
280
     0
281
     0
  0
CLASS
  1
MLEADERSTYLE
  2
AcDbMLeaderStyle
  3
ACDB_MLEADERSTYLE_CLASS
 90
     4095
280
     0
281
     0
  0
CLASS
  1
TABLESTYLE
  2
AcDbTableStyle
  3
ObjectDBX Classes
 90
     4095
280
     0
281
     0
  0
CLASS
  1
ACDBPLACEHOLDER
  2
AcDbPlaceHolder
  3
ObjectDBX Classes
 90
        0
280
     0
281
     0
  0
CLASS
  1
LAYOUT
  2
AcDbLayout
  3
ObjectDBX Classes
 90
        0
280
     0
281
     0
  0
ENDSEC
  0
SECTION
  2
TABLES
  0
TABLE
  2
VPORT
  5
1F
102
{ACAD_XDICTIONARY
360
A8
102
}
330
0
100
AcDbSymbolTable
 70
     1
  0
VPORT
  5
25
330
1F
100
AcDbSymbolTableRecord
100
AcDbViewportTableRecord
  2
*Active
 70
     0
 10
0.0
 20
0.0
 11
1.0
 21
1.0
 12
353.4020203764537
 22
440.1397691883315
 13
0.0
 23
0.0
 14
0.5
 24
0.5
 15
0.5
 25
0.5
 16
0.0
 26
0.0
 36
1.0
 17
0.0
 27
0.0
 37
0.0
 40
19.42708333591366
 41
1.761380788019017
 42
50.0
 43
0.0
 44
0.0
 50
0.0
 51
0.0
 71
    16
 72
   100
 73
     1
 74
     3
 75
     0
 76
     0
 77
     0
 78
     0
281
     0
 65
     1
110
0.0
120
0.0
130
0.0
111
1.0
121
0.0
131
0.0
112
0.0
122
1.0
132
0.0
 79
     0
146
0.0
  0
ENDTAB
  0
TABLE
  2
LTYPE
  5
9
330
0
100
AcDbSymbolTable
 70
     1
  0
LTYPE
  5
A
330
9
100
AcDbSymbolTableRecord
100
AcDbLinetypeTableRecord
  2
ByBlock
 70
     0
  3

 72
    65
 73
     0
 40
0.0
  0
LTYPE
  5
B
330
9
100
AcDbSymbolTableRecord
100
AcDbLinetypeTableRecord
  2
ByLayer
 70
     0
  3

 72
    65
 73
     0
 40
0.0
  0
LTYPE
  5
8
330
9
100
AcDbSymbolTableRecord
100
AcDbLinetypeTableRecord
  2
Continuous
 70
     0
  3
Solid line
 72
    65
 73
     0
 40
0.0
  0
ENDTAB
  0
TABLE
  2
LAYER
  5
2
330
0
100
AcDbSymbolTable
 70
     2
  0
LAYER
  5
1
330
2
100
AcDbSymbolTableRecord
100
AcDbLayerTableRecord
  2
0
 70
     0
 62
     7
  6
Continuous
370
    -3
390
3
  0
LAYER
  5
4E
330
2
100
AcDbSymbolTableRecord
100
AcDbLayerTableRecord
  2
Layer 1
 70
     0
 62
     7
  6
Continuous
370
    -3
390
3
  0
ENDTAB
  0
TABLE
  2
STYLE
  5
D
330
0
100
AcDbSymbolTable
 70
     1
  0
STYLE
  5
C
330
D
100
AcDbSymbolTableRecord
100
AcDbTextStyleTableRecord
  2
Standard
 70
     0
 40
0.0
 41
1.0
 50
0.0
 71
     0
 42
0.2
  3
txt
  4

  0
ENDTAB
  0
TABLE
  2
VIEW
  5
1D
330
0
100
AcDbSymbolTable
 70
     0
  0
ENDTAB
  0
TABLE
  2
UCS
  5
1E
330
0
100
AcDbSymbolTable
 70
     0
  0
ENDTAB
  0
TABLE
  2
APPID
  5
20
330
0
100
AcDbSymbolTable
 70
     2
  0
APPID
  5
24
330
20
100
AcDbSymbolTableRecord
100
AcDbRegAppTableRecord
  2
ACAD
 70
     0
  0
APPID
  5
E1
330
20
100
AcDbSymbolTableRecord
100
AcDbRegAppTableRecord
  2
ACAD_MLEADERVER
 70
     0
  0
ENDTAB
  0
TABLE
  2
DIMSTYLE
  5
10
330
0
100
AcDbSymbolTable
 70
     1
100
AcDbDimStyleTable
  0
DIMSTYLE
105
F
330
10
100
AcDbSymbolTableRecord
100
AcDbDimStyleTableRecord
  2
Standard
 70
     0
178
     0
340
C
  0
ENDTAB
  0
TABLE
  2
BLOCK_RECORD
  5
13
330
0
100
AcDbSymbolTable
 70
     0
  0
BLOCK_RECORD
  5
14
330
13
100
AcDbSymbolTableRecord
100
AcDbBlockTableRecord
  2
*Model_Space
340
17
  0
BLOCK_RECORD
  5
19
330
13
100
AcDbSymbolTableRecord
100
AcDbBlockTableRecord
  2
*Paper_Space
340
1C
  0
ENDTAB
  0
ENDSEC
  0
SECTION
  2
BLOCKS
  0
BLOCK
  5
15
330
14
100
AcDbEntity
  8
0
100
AcDbBlockBegin
  2
*Model_Space
 70
     0
 10
0.0
 20
0.0
 30
0.0
  3
*Model_Space
  1

  0
ENDBLK
  5
16
330
14
100
AcDbEntity
  8
0
100
AcDbBlockEnd
  0
BLOCK
  5
1A
330
19
100
AcDbEntity
 67
     1
  8
0
100
AcDbBlockBegin
  2
*Paper_Space
 70
     0
 10
0.0
 20
0.0
 30
0.0
  3
*Paper_Space
  1

  0
ENDBLK
  5
1B
330
19
100
AcDbEntity
 67
     1
  8
0
100
AcDbBlockEnd
  0
ENDSEC
  0
SECTION
  2
ENTITIES
  0
SPLINE
  5
4D
330
14
100
AcDbEntity
  8
Layer 1
370
     0
100
AcDbSpline
210
0.0
220
0.0
230
1.0
 70
    11
 71
     3
 72
    41
 73
    37
 74
     0
 42
0.000000001
 43
0.0000000001
 40
0.0
 40
0.0
 40
0.0
 40
0.0
 40
1.0
 40
1.0
 40
1.0
 40
2.0
 40
2.0
 40
2.0
 40
3.0
 40
3.0
 40
3.0
 40
4.0
 40
4.0
 40
4.0
 40
5.0
 40
5.0
 40
5.0
 40
6.0
 40
6.0
 40
6.0
 40
7.0
 40
7.0
 40
7.0
 40
8.0
 40
8.0
 40
8.0
 40
9.0
 40
9.0
 40
9.0
 40
10.0
 40
10.0
 40
10.0
 40
11.0
 40
11.0
 40
11.0
 40
12.0
 40
12.0
 40
12.0
 40
12.0
 10
353.4296910716148
 20
431.784689092201
 30
0.0
 10
353.3007910748711
 20
431.6566890954346
 30
0.0
 10
353.125
 20
431.5780890974202
 30
0.0
 10
352.9267910843191
 20
431.5780890974202
 30
0.0
 10
352.7294910893033
 20
431.5780890974202
 30
0.0
 10
352.5526910937697
 20
431.6566890954346
 30
0.0
 10
352.4257910969754
 20
431.784689092201
 30
0.0
 10
352.4257910969754
 20
431.784689092201
 30
0.0
 10
352.423791097026
 20
431.7855890921783
 30
0.0
 10
352.423791097026
 20
431.7855890921783
 30
0.0
 10
352.295891100257
 20
431.9135890889447
 30
0.0
 10
352.2167911022552
 20
432.0907890844683
 30
0.0
 10
352.2167911022552
 20
432.2880890794841
 30
0.0
 10
352.2167911022552
 20
432.4853890744998
 30
0.0
 10
352.295891100257
 20
432.662089070036
 30
0.0
 10
352.423791097026
 20
432.79
 30
0.0
 10
352.423791097026
 20
432.79
 30
0.0
 10
352.4257910969754
 20
432.7904890667924
 30
0.0
 10
352.4257910969754
 20
432.7904890667924
 30
0.0
 10
352.5526910937697
 20
432.9188890635487
 30
0.0
 10
352.7294910893033
 20
432.9975890615606
 30
0.0
 10
352.9267910843191
 20
432.9975890615606
 30
0.0
 10
353.125
 20
432.9975890615606
 30
0.0
 10
353.3007910748711
 20
432.9188890635487
 30
0.0
 10
353.4296910716148
 20
432.7904890667924
 30
0.0
 10
353.4296910716148
 20
432.7904890667924
 30
0.0
 10
353.4306910715895
 20
432.79
 30
0.0
 10
353.4306910715895
 20
432.79
 30
0.0
 10
353.5575910683838
 20
432.662089070036
 30
0.0
 10
353.6366910663855
 20
432.4853890744998
 30
0.0
 10
353.6366910663855
 20
432.2880890794841
 30
0.0
 10
353.6366910663855
 20
432.0907890844683
 30
0.0
 10
353.5575910683838
 20
431.9135890889447
 30
0.0
 10
353.4306910715895
 20
431.7855890921783
 30
0.0
 10
353.4306910715895
 20
431.7855890921783
 30
0.0
 10
353.4296910716148
 20
431.784689092201
 30
0.0
 10
353.4296910716148
 20
431.784689092201
 30
0.0
  0
SPLINE
  5
4F
330
14
100
AcDbEntity
  8
Layer 1
370
     0
100
AcDbSpline
210
0.0
220
0.0
230
1.0
 70
    11
 71
     3
 72
    32
 73
    28
 74
     0
 42
0.000000001
 43
0.0000000001
 40
0.0
 40
0.0
 40
0.0
 40
0.0
 40
1.0
 40
1.0
 40
1.0
 40
2.0
 40
2.0
 40
2.0
 40
3.0
 40
3.0
 40
3.0
 40
4.0
 40
4.0
 40
4.0
 40
5.0
 40
5.0
 40
5.0
 40
6.0
 40
6.0
 40
6.0
 40
7.0
 40
7.0
 40
7.0
 40
8.0
 40
8.0
 40
8.0
 40
9.0
 40
9.0
 40
9.0
 40
9.0
 10
357.6171909658296
 20
433.8793890392844
 30
0.0
 10
357.718790963263
 20
433.9813890367077
 30
0.0
 10
357.7812909616841
 20
434.1215890331659
 30
0.0
 10
357.7812909616841
 20
434.2753890292806
 30
0.0
 10
357.7812909616841
 20
434.4301890253701
 30
0.0
 10
357.718790963263
 20
434.5697890218435
 30
0.0
 10
357.6171909658296
 20
434.6708890192895
 30
0.0
 10
357.5155909683963
 20
434.7714890167481
 30
0.0
 10
357.3760000000002
 20
434.835
 30
0.0
 10
357.2226909757956
 20
434.835
 30
0.0
 10
357.0683909796935
 20
434.835
 30
0.0
 10
356.9276909832479
 20
434.7714890167481
 30
0.0
 10
356.826190985812
 20
434.6708890192895
 30
0.0
 10
356.7245909883786
 20
434.5697890218435
 30
0.0
 10
356.6630909899322
 20
434.4301890253701
 30
0.0
 10
356.6630909899322
 20
434.2753890292806
 30
0.0
 10
356.6630909899322
 20
434.1215890331659
 30
0.0
 10
356.7245909883786
 20
433.9813890367077
 30
0.0
 10
356.826190985812
 20
433.8793890392844
 30
0.0
 10
356.9276909832479
 20
433.7782890418384
 30
0.0
 10
357.0683909796935
 20
433.7162890434047
 30
0.0
 10
357.2226909757956
 20
433.7162890434047
 30
0.0
 10
357.3760000000002
 20
433.7162890434047
 30
0.0
 10
357.5155909683963
 20
433.7782890418384
 30
0.0
 10
357.6171909658296
 20
433.8793890392844
 30
0.0
 10
357.6171909658296
 20
433.8793890392844
 30
0.0
 10
357.6171909658296
 20
433.8793890392844
 30
0.0
 10
357.6171909658296
 20
433.8793890392844
 30
0.0
  0
SPLINE
  5
50
330
14
100
AcDbEntity
  8
Layer 1
370
     0
100
AcDbSpline
210
0.0
220
0.0
230
1.0
 70
    11
 71
     3
 72
    32
 73
    28
 74
     0
 42
0.000000001
 43
0.0000000001
 40
0.0
 40
0.0
 40
0.0
 40
0.0
 40
1.0
 40
1.0
 40
1.0
 40
2.0
 40
2.0
 40
2.0
 40
3.0
 40
3.0
 40
3.0
 40
4.0
 40
4.0
 40
4.0
 40
5.0
 40
5.0
 40
5.0
 40
6.0
 40
6.0
 40
6.0
 40
7.0
 40
7.0
 40
7.0
 40
8.0
 40
8.0
 40
8.0
 40
9.0
 40
9.0
 40
9.0
 40
9.0
 10
359.9647909065243
 20
433.8793890392844
 30
0.0
 10
360.0663909039577
 20
433.9813890367077
 30
0.0
 10
360.1288909023788
 20
434.1215890331659
 30
0.0
 10
360.1288909023788
 20
434.2753890292806
 30
0.0
 10
360.1288909023788
 20
434.4301890253701
 30
0.0
 10
360.0663909039577
 20
434.5697890218435
 30
0.0
 10
359.9647909065243
 20
434.6708890192895
 30
0.0
 10
359.8632909090884
 20
434.7714890167481
 30
0.0
 10
359.7245909125922
 20
434.835
 30
0.0
 10
359.5692909165155
 20
434.835
 30
0.0
 10
359.4140909204361
 20
434.835
 30
0.0
 10
359.2743909239653
 20
434.7714890167481
 30
0.0
 10
359.1737909265066
 20
434.6708890192895
 30
0.0
 10
359.0722909290707
 20
434.5697890218435
 30
0.0
 10
359.0097909306496
 20
434.4301890253701
 30
0.0
 10
359.0097909306496
 20
434.2753890292806
 30
0.0
 10
359.0097909306496
 20
434.1215890331659
 30
0.0
 10
359.0722909290707
 20
433.9813890367077
 30
0.0
 10
359.1737909265066
 20
433.8793890392844
 30
0.0
 10
359.2743909239653
 20
433.7782890418384
 30
0.0
 10
359.4140909204361
 20
433.7162890434047
 30
0.0
 10
359.5692909165155
 20
433.7162890434047
 30
0.0
 10
359.7245909125922
 20
433.7162890434047
 30
0.0
 10
359.8632909090884
 20
433.7782890418384
 30
0.0
 10
359.9647909065243
 20
433.8793890392844
 30
0.0
 10
359.9647909065243
 20
433.8793890392844
 30
0.0
 10
359.9647909065243
 20
433.8793890392844
 30
0.0
 10
359.9647909065243
 20
433.8793890392844
 30
0.0
  0
SPLINE
  5
51
330
14
100
AcDbEntity
  8
Layer 1
370
     0
100
AcDbSpline
210
0.0
220
0.0
230
1.0
 70
    11
 71
     3
 72
    32
 73
    28
 74
     0
 42
0.000000001
 43
0.0000000001
 40
0.0
 40
0.0
 40
0.0
 40
0.0
 40
1.0
 40
1.0
 40
1.0
 40
2.0
 40
2.0
 40
2.0
 40
3.0
 40
3.0
 40
3.0
 40
4.0
 40
4.0
 40
4.0
 40
5.0
 40
5.0
 40
5.0
 40
6.0
 40
6.0
 40
6.0
 40
7.0
 40
7.0
 40
7.0
 40
8.0
 40
8.0
 40
8.0
 40
9.0
 40
9.0
 40
9.0
 40
9.0
 10
362.3202908470194
 20
433.8793890392844
 30
0.0
 10
362.420890844478
 20
433.9813890367077
 30
0.0
 10
362.4843908428738
 20
434.1215890331659
 30
0.0
 10
362.4843908428738
 20
434.2753890292806
 30
0.0
 10
362.4843908428738
 20
434.4301890253701
 30
0.0
 10
362.420890844478
 20
434.5697890218435
 30
0.0
 10
362.3202908470194
 20
434.6708890192895
 30
0.0
 10
362.2187908495835
 20
434.7714890167481
 30
0.0
 10
362.0790908531126
 20
434.835
 30
0.0
 10
361.9237908570358
 20
434.835
 30
0.0
 10
361.7694908609337
 20
434.835
 30
0.0
 10
361.6298908644603
 20
434.7714890167481
 30
0.0
 10
361.5292908670017
 20
434.6708890192895
 30
0.0
 10
361.4276908695683
 20
434.5697890218435
 30
0.0
 10
361.3651908711472
 20
434.4301890253701
 30
0.0
 10
361.3651908711472
 20
434.2753890292806
 30
0.0
 10
361.3651908711472
 20
434.1215890331659
 30
0.0
 10
361.4276908695683
 20
433.9813890367077
 30
0.0
 10
361.5292908670017
 20
433.8793890392844
 30
0.0
 10
361.6298908644603
 20
433.7782890418384
 30
0.0
 10
361.7694908609337
 20
433.7162890434047
 30
0.0
 10
361.9237908570358
 20
433.7162890434047
 30
0.0
 10
362.0790908531126
 20
433.7162890434047
 30
0.0
 10
362.2187908495835
 20
433.7782890418384
 30
0.0
 10
362.3202908470194
 20
433.8793890392844
 30
0.0
 10
362.3202908470194
 20
433.8793890392844
 30
0.0
 10
362.3202908470194
 20
433.8793890392844
 30
0.0
 10
362.3202908470194
 20
433.8793890392844
 30
0.0
  0
SPLINE
  5
52
330
14
100
AcDbEntity
  8
Layer 1
370
     0
100
AcDbSpline
210
0.0
220
0.0
230
1.0
 70
    11
 71
     3
 72
    32
 73
    28
 74
     0
 42
0.000000001
 43
0.0000000001
 40
0.0
 40
0.0
 40
0.0
 40
0.0
 40
1.0
 40
1.0
 40
1.0
 40
2.0
 40
2.0
 40
2.0
 40
3.0
 40
3.0
 40
3.0
 40
4.0
 40
4.0
 40
4.0
 40
5.0
 40
5.0
 40
5.0
 40
6.0
 40
6.0
 40
6.0
 40
7.0
 40
7.0
 40
7.0
 40
8.0
 40
8.0
 40
8.0
 40
9.0
 40
9.0
 40
9.0
 40
9.0
 10
364.6288907886992
 20
433.8793890392844
 30
0.0
 10
364.7294907861578
 20
433.9813890367077
 30
0.0
 10
364.7929999999997
 20
434.1215890331659
 30
0.0
 10
364.7929999999997
 20
434.2753890292806
 30
0.0
 10
364.7929999999997
 20
434.4301890253701
 30
0.0
 10
364.7294907861578
 20
434.5697890218435
 30
0.0
 10
364.6288907886992
 20
434.6708890192895
 30
0.0
 10
364.5272907912658
 20
434.7714890167481
 30
0.0
 10
364.3876907947924
 20
434.835
 30
0.0
 10
364.2323907987156
 20
434.835
 30
0.0
 10
364.0780908026136
 20
434.835
 30
0.0
 10
363.9384908061402
 20
434.7714890167481
 30
0.0
 10
363.8378908086815
 20
434.6708890192895
 30
0.0
 10
363.7362908112482
 20
434.5697890218435
 30
0.0
 10
363.6737908128271
 20
434.4301890253701
 30
0.0
 10
363.6737908128271
 20
434.2753890292806
 30
0.0
 10
363.6737908128271
 20
434.1215890331659
 30
0.0
 10
363.7362908112482
 20
433.9813890367077
 30
0.0
 10
363.8378908086815
 20
433.8793890392844
 30
0.0
 10
363.9384908061402
 20
433.7782890418384
 30
0.0
 10
364.0780908026136
 20
433.7162890434047
 30
0.0
 10
364.2323907987156
 20
433.7162890434047
 30
0.0
 10
364.3876907947924
 20
433.7162890434047
 30
0.0
 10
364.5272907912658
 20
433.7782890418384
 30
0.0
 10
364.6288907886992
 20
433.8793890392844
 30
0.0
 10
364.6288907886992
 20
433.8793890392844
 30
0.0
 10
364.6288907886992
 20
433.8793890392844
 30
0.0
 10
364.6288907886992
 20
433.8793890392844
 30
0.0
  0
SPLINE
  5
53
330
14
100
AcDbEntity
  8
Layer 1
370
     0
100
AcDbSpline
210
0.0
220
0.0
230
1.0
 70
    11
 71
     3
 72
    32
 73
    28
 74
     0
 42
0.000000001
 43
0.0000000001
 40
0.0
 40
0.0
 40
0.0
 40
0.0
 40
1.0
 40
1.0
 40
1.0
 40
2.0
 40
2.0
 40
2.0
 40
3.0
 40
3.0
 40
3.0
 40
4.0
 40
4.0
 40
4.0
 40
5.0
 40
5.0
 40
5.0
 40
6.0
 40
6.0
 40
6.0
 40
7.0
 40
7.0
 40
7.0
 40
8.0
 40
8.0
 40
8.0
 40
9.0
 40
9.0
 40
9.0
 40
9.0
 10
366.875
 20
433.8793890392844
 30
0.0
 10
366.9765907293913
 20
433.9813890367077
 30
0.0
 10
367.0390907278124
 20
434.1215890331659
 30
0.0
 10
367.0390907278124
 20
434.2753890292806
 30
0.0
 10
367.0390907278124
 20
434.4301890253701
 30
0.0
 10
366.9765907293913
 20
434.5697890218435
 30
0.0
 10
366.875
 20
434.6708890192895
 30
0.0
 10
366.7743907344993
 20
434.7714890167481
 30
0.0
 10
366.6347907380259
 20
434.835
 30
0.0
 10
366.4804907419239
 20
434.835
 30
0.0
 10
366.3261907458218
 20
434.835
 30
0.0
 10
366.1864907493509
 20
434.7714890167481
 30
0.0
 10
366.0849999999991
 20
434.6708890192895
 30
0.0
 10
365.9833907544817
 20
434.5697890218435
 30
0.0
 10
365.9218907560353
 20
434.4301890253701
 30
0.0
 10
365.9218907560353
 20
434.2753890292806
 30
0.0
 10
365.9218907560353
 20
434.1215890331659
 30
0.0
 10
365.9833907544817
 20
433.9813890367077
 30
0.0
 10
366.0849999999991
 20
433.8793890392844
 30
0.0
 10
366.1864907493509
 20
433.7782890418384
 30
0.0
 10
366.3261907458218
 20
433.7162890434047
 30
0.0
 10
366.4804907419239
 20
433.7162890434047
 30
0.0
 10
366.6347907380259
 20
433.7162890434047
 30
0.0
 10
366.7743907344993
 20
433.7782890418384
 30
0.0
 10
366.875
 20
433.8793890392844
 30
0.0
 10
366.875
 20
433.8793890392844
 30
0.0
 10
366.875
 20
433.8793890392844
 30
0.0
 10
366.875
 20
433.8793890392844
 30
0.0
  0
SPLINE
  5
54
330
14
100
AcDbEntity
  8
Layer 1
370
     0
100
AcDbSpline
210
0.0
220
0.0
230
1.0
 70
    11
 71
     3
 72
    32
 73
    28
 74
     0
 42
0.000000001
 43
0.0000000001
 40
0.0
 40
0.0
 40
0.0
 40
0.0
 40
1.0
 40
1.0
 40
1.0
 40
2.0
 40
2.0
 40
2.0
 40
3.0
 40
3.0
 40
3.0
 40
4.0
 40
4.0
 40
4.0
 40
5.0
 40
5.0
 40
5.0
 40
6.0
 40
6.0
 40
6.0
 40
7.0
 40
7.0
 40
7.0
 40
8.0
 40
8.0
 40
8.0
 40
9.0
 40
9.0
 40
9.0
 40
9.0
 10
355.2362910259762
 20
433.8793890392844
 30
0.0
 10
355.3368910234349
 20
433.9813890367077
 30
0.0
 10
355.4003910218307
 20
434.1215890331659
 30
0.0
 10
355.4003910218307
 20
434.2753890292806
 30
0.0
 10
355.4003910218307
 20
434.4301890253701
 30
0.0
 10
355.3368910234349
 20
434.5697890218435
 30
0.0
 10
355.2362910259762
 20
434.6708890192895
 30
0.0
 10
355.1347910285403
 20
434.7714890167481
 30
0.0
 10
354.9950910320695
 20
434.835
 30
0.0
 10
354.8397910359927
 20
434.835
 30
0.0
 10
354.6854910398906
 20
434.835
 30
0.0
 10
354.5448910434425
 20
434.7714890167481
 30
0.0
 10
354.4452910459586
 20
434.6708890192895
 30
0.0
 10
354.3437910485227
 20
434.5697890218435
 30
0.0
 10
354.2812910501016
 20
434.4301890253701
 30
0.0
 10
354.2812910501016
 20
434.2753890292806
 30
0.0
 10
354.2812910501016
 20
434.1215890331659
 30
0.0
 10
354.3437910485227
 20
433.9813890367077
 30
0.0
 10
354.4452910459586
 20
433.8793890392844
 30
0.0
 10
354.5448910434425
 20
433.7782890418384
 30
0.0
 10
354.6854910398906
 20
433.7162890434047
 30
0.0
 10
354.8397910359927
 20
433.7162890434047
 30
0.0
 10
354.9950910320695
 20
433.7162890434047
 30
0.0
 10
355.1347910285403
 20
433.7782890418384
 30
0.0
 10
355.2362910259762
 20
433.8793890392844
 30
0.0
 10
355.2362910259762
 20
433.8793890392844
 30
0.0
 10
355.2362910259762
 20
433.8793890392844
 30
0.0
 10
355.2362910259762
 20
433.8793890392844
 30
0.0
  0
SPLINE
  5
55
330
14
100
AcDbEntity
  8
Layer 1
370
     0
100
AcDbSpline
210
0.0
220
0.0
230
1.0
 70
    11
 71
     3
 72
    32
 73
    28
 74
     0
 42
0.000000001
 43
0.0000000001
 40
0.0
 40
0.0
 40
0.0
 40
0.0
 40
1.0
 40
1.0
 40
1.0
 40
2.0
 40
2.0
 40
2.0
 40
3.0
 40
3.0
 40
3.0
 40
4.0
 40
4.0
 40
4.0
 40
5.0
 40
5.0
 40
5.0
 40
6.0
 40
6.0
 40
6.0
 40
7.0
 40
7.0
 40
7.0
 40
8.0
 40
8.0
 40
8.0
 40
9.0
 40
9.0
 40
9.0
 40
9.0
 10
356.8837909843569
 20
431.4486891006891
 30
0.0
 10
356.8358909855669
 20
431.4003891019092
 30
0.0
 10
356.7694909872444
 20
431.3705891026621
 30
0.0
 10
356.6952909891188
 20
431.3705891026621
 30
0.0
 10
356.6210909909933
 20
431.3705891026621
 30
0.0
 10
356.5546909926707
 20
431.4003891019092
 30
0.0
 10
356.5067909938807
 20
431.4486891006891
 30
0.0
 10
356.4590000000007
 20
431.496589099479
 30
0.0
 10
356.4296909958284
 20
431.563489097789
 30
0.0
 10
356.4296909958284
 20
431.6361890959524
 30
0.0
 10
356.4296909958284
 20
431.710389094078
 30
0.0
 10
356.4590000000007
 20
431.7772890923879
 30
0.0
 10
356.5067909938807
 20
431.8256890911653
 30
0.0
 10
356.5546909926707
 20
431.8734890899577
 30
0.0
 10
356.6210909909933
 20
431.9032890892049
 30
0.0
 10
356.6952909891188
 20
431.9032890892049
 30
0.0
 10
356.7694909872444
 20
431.9032890892049
 30
0.0
 10
356.8358909855669
 20
431.8734890899577
 30
0.0
 10
356.8837909843569
 20
431.8256890911653
 30
0.0
 10
356.9315909831494
 20
431.7772890923879
 30
0.0
 10
356.9618909823839
 20
431.710389094078
 30
0.0
 10
356.9618909823839
 20
431.6361890959524
 30
0.0
 10
356.9618909823839
 20
431.563489097789
 30
0.0
 10
356.9315909831494
 20
431.496589099479
 30
0.0
 10
356.8837909843569
 20
431.4486891006891
 30
0.0
 10
356.8837909843569
 20
431.4486891006891
 30
0.0
 10
356.8837909843569
 20
431.4486891006891
 30
0.0
 10
356.8837909843569
 20
431.4486891006891
 30
0.0
  0
SPLINE
  5
56
330
14
100
AcDbEntity
  8
Layer 1
370
     0
100
AcDbSpline
210
0.0
220
0.0
230
1.0
 70
    11
 71
     3
 72
    32
 73
    28
 74
     0
 42
0.000000001
 43
0.0000000001
 40
0.0
 40
0.0
 40
0.0
 40
0.0
 40
1.0
 40
1.0
 40
1.0
 40
2.0
 40
2.0
 40
2.0
 40
3.0
 40
3.0
 40
3.0
 40
4.0
 40
4.0
 40
4.0
 40
5.0
 40
5.0
 40
5.0
 40
6.0
 40
6.0
 40
6.0
 40
7.0
 40
7.0
 40
7.0
 40
8.0
 40
8.0
 40
8.0
 40
9.0
 40
9.0
 40
9.0
 40
9.0
 10
364.341790795952
 20
431.4486891006891
 30
0.0
 10
364.2929999999997
 20
431.4003891019092
 30
0.0
 10
364.2265907988622
 20
431.3705891026621
 30
0.0
 10
364.1532908007139
 20
431.3705891026621
 30
0.0
 10
364.0790908025883
 20
431.3705891026621
 30
0.0
 10
364.0126908042657
 20
431.4003891019092
 30
0.0
 10
363.9647908054758
 20
431.4486891006891
 30
0.0
 10
363.9159999999993
 20
431.496589099479
 30
0.0
 10
363.8866908074488
 20
431.563489097789
 30
0.0
 10
363.8866908074488
 20
431.6361890959524
 30
0.0
 10
363.8866908074488
 20
431.710389094078
 30
0.0
 10
363.9159999999993
 20
431.7772890923879
 30
0.0
 10
363.9647908054758
 20
431.8256890911653
 30
0.0
 10
364.0126908042657
 20
431.8734890899577
 30
0.0
 10
364.0790908025883
 20
431.9032890892049
 30
0.0
 10
364.1532908007139
 20
431.9032890892049
 30
0.0
 10
364.2265907988622
 20
431.9032890892049
 30
0.0
 10
364.2929999999997
 20
431.8734890899577
 30
0.0
 10
364.341790795952
 20
431.8256890911653
 30
0.0
 10
364.3895907947444
 20
431.7772890923879
 30
0.0
 10
364.419890793979
 20
431.710389094078
 30
0.0
 10
364.419890793979
 20
431.6361890959524
 30
0.0
 10
364.419890793979
 20
431.563489097789
 30
0.0
 10
364.3895907947444
 20
431.496589099479
 30
0.0
 10
364.341790795952
 20
431.4486891006891
 30
0.0
 10
364.341790795952
 20
431.4486891006891
 30
0.0
 10
364.341790795952
 20
431.4486891006891
 30
0.0
 10
364.341790795952
 20
431.4486891006891
 30
0.0
  0
SPLINE
  5
57
330
14
100
AcDbEntity
  8
Layer 1
370
     0
100
AcDbSpline
210
0.0
220
0.0
230
1.0
 70
    11
 71
     3
 72
    44
 73
    40
 74
     0
 42
0.000000001
 43
0.0000000001
 40
0.0
 40
0.0
 40
0.0
 40
0.0
 40
1.0
 40
1.0
 40
1.0
 40
2.0
 40
2.0
 40
2.0
 40
3.0
 40
3.0
 40
3.0
 40
4.0
 40
4.0
 40
4.0
 40
5.0
 40
5.0
 40
5.0
 40
6.0
 40
6.0
 40
6.0
 40
7.0
 40
7.0
 40
7.0
 40
8.0
 40
8.0
 40
8.0
 40
9.0
 40
9.0
 40
9.0
 40
10.0
 40
10.0
 40
10.0
 40
11.0
 40
11.0
 40
11.0
 40
12.0
 40
12.0
 40
12.0
 40
13.0
 40
13.0
 40
13.0
 40
13.0
 10
368.738290684887
 20
431.784689092201
 30
0.0
 10
368.6112906880953
 20
431.6566890954346
 30
0.0
 10
368.4335906925844
 20
431.5780890974202
 30
0.0
 10
368.2382906975181
 20
431.5780890974202
 30
0.0
 10
368.0400000000009
 20
431.5780890974202
 30
0.0
 10
367.8622907070167
 20
431.6566890954346
 30
0.0
 10
367.7353907102224
 20
431.784689092201
 30
0.0
 10
367.7353907102224
 20
431.784689092201
 30
0.0
 10
367.7333907102729
 20
431.7855890921783
 30
0.0
 10
367.7333907102729
 20
431.7855890921783
 30
0.0
 10
367.6063907134812
 20
431.9135890889447
 30
0.0
 10
367.5272907154795
 20
432.0907890844683
 30
0.0
 10
367.5272907154795
 20
432.2880890794841
 30
0.0
 10
367.5272907154795
 20
432.4853890744998
 30
0.0
 10
367.6063907134812
 20
432.662089070036
 30
0.0
 10
367.7333907102729
 20
432.79
 30
0.0
 10
367.7333907102729
 20
432.79
 30
0.0
 10
367.7353907102224
 20
432.7904890667924
 30
0.0
 10
367.7353907102224
 20
432.7904890667924
 30
0.0
 10
367.8622907070167
 20
432.9188890635487
 30
0.0
 10
368.0400000000009
 20
432.9975890615606
 30
0.0
 10
368.2382906975181
 20
432.9975890615606
 30
0.0
 10
368.4335906925844
 20
432.9975890615606
 30
0.0
 10
368.6112906880953
 20
432.9188890635487
 30
0.0
 10
368.738290684887
 20
432.7904890667924
 30
0.0
 10
368.738290684887
 20
432.7904890667924
 30
0.0
 10
368.740190684839
 20
432.79
 30
0.0
 10
368.740190684839
 20
432.79
 30
0.0
 10
368.8690906815827
 20
432.662089070036
 30
0.0
 10
368.9472906796072
 20
432.4853890744998
 30
0.0
 10
368.9472906796072
 20
432.2880890794841
 30
0.0
 10
368.9472906796072
 20
432.0907890844683
 30
0.0
 10
368.8690906815827
 20
431.9135890889447
 30
0.0
 10
368.740190684839
 20
431.7855890921783
 30
0.0
 10
368.740190684839
 20
431.7855890921783
 30
0.0
 10
368.738290684887
 20
431.784689092201
 30
0.0
 10
368.738290684887
 20
431.784689092201
 30
0.0
 10
368.738290684887
 20
431.784689092201
 30
0.0
 10
368.738290684887
 20
431.784689092201
 30
0.0
 10
368.738290684887
 20
431.784689092201
 30
0.0
  0
SPLINE
  5
58
330
14
100
AcDbEntity
  8
Layer 1
370
     0
100
AcDbSpline
210
0.0
220
0.0
230
1.0
 70
    11
 71
     3
 72
   251
 73
   247
 74
     0
 42
0.000000001
 43
0.0000000001
 40
0.0
 40
0.0
 40
0.0
 40
0.0
 40
1.0
 40
1.0
 40
1.0
 40
2.0
 40
2.0
 40
2.0
 40
3.0
 40
3.0
 40
3.0
 40
4.0
 40
4.0
 40
4.0
 40
5.0
 40
5.0
 40
5.0
 40
6.0
 40
6.0
 40
6.0
 40
7.0
 40
7.0
 40
7.0
 40
8.0
 40
8.0
 40
8.0
 40
9.0
 40
9.0
 40
9.0
 40
10.0
 40
10.0
 40
10.0
 40
11.0
 40
11.0
 40
11.0
 40
12.0
 40
12.0
 40
12.0
 40
13.0
 40
13.0
 40
13.0
 40
14.0
 40
14.0
 40
14.0
 40
15.0
 40
15.0
 40
15.0
 40
16.0
 40
16.0
 40
16.0
 40
17.0
 40
17.0
 40
17.0
 40
18.0
 40
18.0
 40
18.0
 40
19.0
 40
19.0
 40
19.0
 40
20.0
 40
20.0
 40
20.0
 40
21.0
 40
21.0
 40
21.0
 40
22.0
 40
22.0
 40
22.0
 40
23.0
 40
23.0
 40
23.0
 40
24.0
 40
24.0
 40
24.0
 40
25.0
 40
25.0
 40
25.0
 40
26.0
 40
26.0
 40
26.0
 40
27.0
 40
27.0
 40
27.0
 40
28.0
 40
28.0
 40
28.0
 40
29.0
 40
29.0
 40
29.0
 40
30.0
 40
30.0
 40
30.0
 40
31.0
 40
31.0
 40
31.0
 40
32.0
 40
32.0
 40
32.0
 40
33.0
 40
33.0
 40
33.0
 40
34.0
 40
34.0
 40
34.0
 40
35.0
 40
35.0
 40
35.0
 40
36.0
 40
36.0
 40
36.0
 40
37.0
 40
37.0
 40
37.0
 40
38.0
 40
38.0
 40
38.0
 40
39.0
 40
39.0
 40
39.0
 40
40.0
 40
40.0
 40
40.0
 40
41.0
 40
41.0
 40
41.0
 40
42.0
 40
42.0
 40
42.0
 40
43.0
 40
43.0
 40
43.0
 40
44.0
 40
44.0
 40
44.0
 40
45.0
 40
45.0
 40
45.0
 40
46.0
 40
46.0
 40
46.0
 40
47.0
 40
47.0
 40
47.0
 40
48.0
 40
48.0
 40
48.0
 40
49.0
 40
49.0
 40
49.0
 40
50.0
 40
50.0
 40
50.0
 40
51.0
 40
51.0
 40
51.0
 40
52.0
 40
52.0
 40
52.0
 40
53.0
 40
53.0
 40
53.0
 40
54.0
 40
54.0
 40
54.0
 40
55.0
 40
55.0
 40
55.0
 40
56.0
 40
56.0
 40
56.0
 40
57.0
 40
57.0
 40
57.0
 40
58.0
 40
58.0
 40
58.0
 40
59.0
 40
59.0
 40
59.0
 40
60.0
 40
60.0
 40
60.0
 40
61.0
 40
61.0
 40
61.0
 40
62.0
 40
62.0
 40
62.0
 40
63.0
 40
63.0
 40
63.0
 40
64.0
 40
64.0
 40
64.0
 40
65.0
 40
65.0
 40
65.0
 40
66.0
 40
66.0
 40
66.0
 40
67.0
 40
67.0
 40
67.0
 40
68.0
 40
68.0
 40
68.0
 40
69.0
 40
69.0
 40
69.0
 40
70.0
 40
70.0
 40
70.0
 40
71.0
 40
71.0
 40
71.0
 40
72.0
 40
72.0
 40
72.0
 40
73.0
 40
73.0
 40
73.0
 40
74.0
 40
74.0
 40
74.0
 40
75.0
 40
75.0
 40
75.0
 40
76.0
 40
76.0
 40
76.0
 40
77.0
 40
77.0
 40
77.0
 40
78.0
 40
78.0
 40
78.0
 40
79.0
 40
79.0
 40
79.0
 40
80.0
 40
80.0
 40
80.0
 40
81.0
 40
81.0
 40
81.0
 40
82.0
 40
82.0
 40
82.0
 40
82.0
 10
367.1112907259885
 20
433.3515890526178
 30
0.0
 10
366.9315907305281
 20
433.2284890557276
 30
0.0
 10
366.7147907360049
 20
433.1557890575641
 30
0.0
 10
366.4804907419239
 20
433.1557890575641
 30
0.0
 10
366.1718907497198
 20
433.1557890575641
 30
0.0
 10
365.8915907568007
 20
433.282189054371
 30
0.0
 10
365.6894907619062
 20
433.4838890492756
 30
0.0
 10
365.4862907670395
 20
433.6869999999999
 30
0.0
 10
365.3612907701972
 20
433.9662890370892
 30
0.0
 10
365.3612907701972
 20
434.2753890292806
 30
0.0
 10
365.3612907701972
 20
434.5844890214721
 30
0.0
 10
365.4862907670395
 20
434.8642890144038
 30
0.0
 10
365.6894907619062
 20
435.0663890092983
 30
0.0
 10
365.7030907615626
 20
435.0820000000003
 30
0.0
 10
365.718790761166
 20
435.0971890085202
 30
0.0
 10
365.7362907607239
 20
435.1107890081767
 30
0.0
 10
365.7362907607239
 20
435.1107890081767
 30
0.0
 10
364.9784907798676
 20
435.1107890081767
 30
0.0
 10
364.9784907798676
 20
435.1107890081767
 30
0.0
 10
364.9940907794735
 20
435.0971890085202
 30
0.0
 10
365.0097907790769
 20
435.0820000000003
 30
0.0
 10
365.0233907787333
 20
435.0663890092983
 30
0.0
 10
365.2265907736
 20
434.8642890144038
 30
0.0
 10
365.3524907704195
 20
434.5844890214721
 30
0.0
 10
365.3524907704195
 20
434.2753890292806
 30
0.0
 10
365.3524907704195
 20
433.9662890370892
 30
0.0
 10
365.2265907736
 20
433.6869999999999
 30
0.0
 10
365.0233907787333
 20
433.4838890492756
 30
0.0
 10
364.8222907838135
 20
433.282189054371
 30
0.0
 10
364.5419999999995
 20
433.1557890575641
 30
0.0
 10
364.2323907987156
 20
433.1557890575641
 30
0.0
 10
363.9237908065115
 20
433.1557890575641
 30
0.0
 10
363.64359081359
 20
433.282189054371
 30
0.0
 10
363.441390818698
 20
433.4838890492756
 30
0.0
 10
363.2392908238035
 20
433.6869999999999
 30
0.0
 10
363.1132908269865
 20
433.9662890370892
 30
0.0
 10
363.1132908269865
 20
434.2753890292806
 30
0.0
 10
363.1132908269865
 20
434.5844890214721
 30
0.0
 10
363.2392908238035
 20
434.8642890144038
 30
0.0
 10
363.441390818698
 20
435.0663890092983
 30
0.0
 10
363.4570000000003
 20
435.0820000000003
 30
0.0
 10
363.4726908179073
 20
435.0971890085202
 30
0.0
 10
363.4882908175132
 20
435.1107890081767
 30
0.0
 10
363.4882908175132
 20
435.1107890081767
 30
0.0
 10
362.668890838213
 20
435.1107890081767
 30
0.0
 10
362.668890838213
 20
435.1107890081767
 30
0.0
 10
362.6845908378164
 20
435.0971890085202
 30
0.0
 10
362.701190837397
 20
435.0820000000003
 30
0.0
 10
362.7157908370282
 20
435.0663890092983
 30
0.0
 10
362.9179999999997
 20
434.8642890144038
 30
0.0
 10
363.0429999999997
 20
434.5844890214721
 30
0.0
 10
363.0429999999997
 20
434.2753890292806
 30
0.0
 10
363.0429999999997
 20
433.9662890370892
 30
0.0
 10
362.9179999999997
 20
433.6869999999999
 30
0.0
 10
362.7157908370282
 20
433.4838890492756
 30
0.0
 10
362.5136908421337
 20
433.282189054371
 30
0.0
 10
362.2323908492399
 20
433.1557890575641
 30
0.0
 10
361.9237908570358
 20
433.1557890575641
 30
0.0
 10
361.6151908648317
 20
433.1557890575641
 30
0.0
 10
361.3349999999991
 20
433.282189054371
 30
0.0
 10
361.1327908770181
 20
433.4838890492756
 30
0.0
 10
360.9296908821489
 20
433.6869999999999
 30
0.0
 10
360.8046908853066
 20
433.9662890370892
 30
0.0
 10
360.8046908853066
 20
434.2753890292806
 30
0.0
 10
360.8046908853066
 20
434.5844890214721
 30
0.0
 10
360.9296908821489
 20
434.8642890144038
 30
0.0
 10
361.1327908770181
 20
435.0663890092983
 30
0.0
 10
361.148390876624
 20
435.0820000000003
 30
0.0
 10
361.1640908762274
 20
435.0971890085202
 30
0.0
 10
361.1796908758333
 20
435.1107890081767
 30
0.0
 10
361.1796908758333
 20
435.1107890081767
 30
0.0
 10
360.3144908976901
 20
435.1107890081767
 30
0.0
 10
360.3144908976901
 20
435.1107890081767
 30
0.0
 10
360.330090897296
 20
435.0971890085202
 30
0.0
 10
360.3456908969019
 20
435.0820000000003
 30
0.0
 10
360.3603908965306
 20
435.0663890092983
 30
0.0
 10
360.5634908913999
 20
434.8642890144038
 30
0.0
 10
360.6884908882421
 20
434.5844890214721
 30
0.0
 10
360.6884908882421
 20
434.2753890292806
 30
0.0
 10
360.6884908882421
 20
433.9662890370892
 30
0.0
 10
360.5634908913999
 20
433.6869999999999
 30
0.0
 10
360.3603908965306
 20
433.4838890492756
 30
0.0
 10
360.1581909016386
 20
433.282189054371
 30
0.0
 10
359.8788909086943
 20
433.1557890575641
 30
0.0
 10
359.5692909165155
 20
433.1557890575641
 30
0.0
 10
359.2606909243113
 20
433.1557890575641
 30
0.0
 10
358.9804909313898
 20
433.282189054371
 30
0.0
 10
358.7772909365231
 20
433.4838890492756
 30
0.0
 10
358.5741909416538
 20
433.6869999999999
 30
0.0
 10
358.4491909448116
 20
433.9662890370892
 30
0.0
 10
358.4491909448116
 20
434.2753890292806
 30
0.0
 10
358.4491909448116
 20
434.5844890214721
 30
0.0
 10
358.5741909416538
 20
434.8642890144038
 30
0.0
 10
358.7772909365231
 20
435.0663890092983
 30
0.0
 10
358.7929999999997
 20
435.0820000000003
 30
0.0
 10
358.8085909357324
 20
435.0971890085202
 30
0.0
 10
358.8241909353383
 20
435.1107890081767
 30
0.0
 10
358.8241909353383
 20
435.1107890081767
 30
0.0
 10
357.966790956998
 20
435.1107890081767
 30
0.0
 10
357.966790956998
 20
435.1107890081767
 30
0.0
 10
357.9823909566039
 20
435.0971890085202
 30
0.0
 10
357.9979999999996
 20
435.0820000000003
 30
0.0
 10
358.0136909558132
 20
435.0663890092983
 30
0.0
 10
358.2157909507077
 20
434.8642890144038
 30
0.0
 10
358.34079094755
 20
434.5844890214721
 30
0.0
 10
358.34079094755
 20
434.2753890292806
 30
0.0
 10
358.34079094755
 20
433.9662890370892
 30
0.0
 10
358.2157909507077
 20
433.6869999999999
 30
0.0
 10
358.0136909558132
 20
433.4838890492756
 30
0.0
 10
357.8104909609465
 20
433.282189054371
 30
0.0
 10
357.5312909679997
 20
433.1557890575641
 30
0.0
 10
357.2226909757956
 20
433.1557890575641
 30
0.0
 10
356.9130909836167
 20
433.1557890575641
 30
0.0
 10
356.6327909906977
 20
433.282189054371
 30
0.0
 10
356.4296909958284
 20
433.4838890492756
 30
0.0
 10
356.2284910009112
 20
433.6869999999999
 30
0.0
 10
356.1015910041169
 20
433.9662890370892
 30
0.0
 10
356.1015910041169
 20
434.2753890292806
 30
0.0
 10
356.1015910041169
 20
434.5844890214721
 30
0.0
 10
356.2284910009112
 20
434.8642890144038
 30
0.0
 10
356.4296909958284
 20
435.0663890092983
 30
0.0
 10
356.4452909954343
 20
435.0820000000003
 30
0.0
 10
356.4608909950402
 20
435.0971890085202
 30
0.0
 10
356.4765909946436
 20
435.1107890081767
 30
0.0
 10
356.4765909946436
 20
435.1107890081767
 30
0.0
 10
355.5849999999991
 20
435.1107890081767
 30
0.0
 10
355.5849999999991
 20
435.1107890081767
 30
0.0
 10
355.601591016748
 20
435.0971890085202
 30
0.0
 10
355.6171910163539
 20
435.0820000000003
 30
0.0
 10
355.6308910160078
 20
435.0663890092983
 30
0.0
 10
355.8340000000007
 20
434.8642890144038
 30
0.0
 10
355.9590000000007
 20
434.5844890214721
 30
0.0
 10
355.9590000000007
 20
434.2753890292806
 30
0.0
 10
355.9590000000007
 20
433.9662890370892
 30
0.0
 10
355.8340000000007
 20
433.6869999999999
 30
0.0
 10
355.6308910160078
 20
433.4838890492756
 30
0.0
 10
355.4296910210905
 20
433.282189054371
 30
0.0
 10
355.1483910281968
 20
433.1557890575641
 30
0.0
 10
354.8397910359927
 20
433.1557890575641
 30
0.0
 10
354.531291043786
 20
433.1557890575641
 30
0.0
 10
354.2510000000002
 20
433.282189054371
 30
0.0
 10
354.048791055975
 20
433.4838890492756
 30
0.0
 10
353.8456910611058
 20
433.6869999999999
 30
0.0
 10
353.7206910642635
 20
433.9662890370892
 30
0.0
 10
353.7206910642635
 20
434.2753890292806
 30
0.0
 10
353.7206910642635
 20
434.5844890214721
 30
0.0
 10
353.8456910611058
 20
434.8642890144038
 30
0.0
 10
354.048791055975
 20
435.0663890092983
 30
0.0
 10
354.048791055975
 20
435.0663890092983
 30
0.0
 10
354.0517910558992
 20
435.0702890091998
 30
0.0
 10
354.0517910558992
 20
435.0702890091998
 30
0.0
 10
353.8358910613533
 20
435.0228890103972
 30
0.0
 10
353.6894910650517
 20
434.9208890129739
 30
0.0
 10
353.5
 20
434.7035890184634
 30
0.0
 10
353.5
 20
434.7035890184634
 30
0.0
 10
352.7274910893539
 20
433.8246890406663
 30
0.0
 10
352.7274910893539
 20
433.8246890406663
 30
0.0
 10
352.7929999999997
 20
433.8329999999996
 30
0.0
 10
352.8593910860218
 20
433.8373890403454
 30
0.0
 10
352.9267910843191
 20
433.8373890403454
 30
0.0
 10
353.3534910735398
 20
433.8373890403454
 30
0.0
 10
353.7392910637936
 20
433.663589044736
 30
0.0
 10
354.0214910566647
 20
433.3837890518043
 30
0.0
 10
354.0214910566647
 20
433.3837890518043
 30
0.0
 10
354.0214910566647
 20
433.3827890518296
 30
0.0
 10
354.0214910566647
 20
433.3827890518296
 30
0.0
 10
354.0214910566647
 20
433.3827890518296
 30
0.0
 10
354.0233910566167
 20
433.3817890518549
 30
0.0
 10
354.0233910566167
 20
433.3817890518549
 30
0.0
 10
354.3036910495357
 20
433.1000890589712
 30
0.0
 10
354.4765910451679
 20
432.7138890687274
 30
0.0
 10
354.4765910451679
 20
432.2880890794841
 30
0.0
 10
354.4765910451679
 20
431.8612890902659
 30
0.0
 10
354.3036910495357
 20
431.4750891000222
 30
0.0
 10
354.0233910566167
 20
431.1933891071385
 30
0.0
 10
354.0233910566167
 20
431.1933891071385
 30
0.0
 10
354.0214910566647
 20
431.1923891071638
 30
0.0
 10
354.0214910566647
 20
431.1923891071638
 30
0.0
 10
354.0214910566647
 20
431.1923891071638
 30
0.0
 10
354.0214910566647
 20
431.1918891071764
 30
0.0
 10
354.0214910566647
 20
431.1918891071764
 30
0.0
 10
354.0214910566647
 20
431.1918891071764
 30
0.0
 10
354.0058910570588
 20
431.1767891075579
 30
0.0
 10
354.0058910570588
 20
431.1767891075579
 30
0.0
 10
354.0058910570588
 20
431.1767891075579
 30
0.0
 10
356.009791006436
 20
431.1767891075579
 30
0.0
 10
356.009791006436
 20
431.1767891075579
 30
0.0
 10
355.9198910087071
 20
431.3085891042283
 30
0.0
 10
355.8690910099904
 20
431.4667891002318
 30
0.0
 10
355.8690910099904
 20
431.6361890959524
 30
0.0
 10
355.8690910099904
 20
431.8651890901674
 30
0.0
 10
355.9628910076208
 20
432.0717890849483
 30
0.0
 10
356.1112910038719
 20
432.2211890811741
 30
0.0
 10
356.2606910000977
 20
432.3700890774126
 30
0.0
 10
356.4667909948912
 20
432.4628890750682
 30
0.0
 10
356.6952909891188
 20
432.4628890750682
 30
0.0
 10
356.9237909833464
 20
432.4628890750682
 30
0.0
 10
357.1308909781146
 20
432.3700890774126
 30
0.0
 10
357.2792909743657
 20
432.2211890811741
 30
0.0
 10
357.4296909705663
 20
432.0717890849483
 30
0.0
 10
357.522490968222
 20
431.8651890901674
 30
0.0
 10
357.522490968222
 20
431.6361890959524
 30
0.0
 10
357.522490968222
 20
431.4667891002318
 30
0.0
 10
357.4706909695306
 20
431.3085891042283
 30
0.0
 10
357.3827909717511
 20
431.1767891075579
 30
0.0
 10
357.3827909717511
 20
431.1767891075579
 30
0.0
 10
363.4667908180563
 20
431.1767891075579
 30
0.0
 10
363.4667908180563
 20
431.1767891075579
 30
0.0
 10
363.3778908203021
 20
431.3085891042283
 30
0.0
 10
363.3261908216082
 20
431.4667891002318
 30
0.0
 10
363.3261908216082
 20
431.6361890959524
 30
0.0
 10
363.3261908216082
 20
431.8651890901674
 30
0.0
 10
363.4198908192411
 20
432.0717890849483
 30
0.0
 10
363.5683908154897
 20
432.2211890811741
 30
0.0
 10
363.7177908117155
 20
432.3700890774126
 30
0.0
 10
363.9247908064863
 20
432.4628890750682
 30
0.0
 10
364.1532908007139
 20
432.4628890750682
 30
0.0
 10
364.3808907949642
 20
432.4628890750682
 30
0.0
 10
364.587890789735
 20
432.3700890774126
 30
0.0
 10
364.7382907859355
 20
432.2211890811741
 30
0.0
 10
364.8866907821866
 20
432.0717890849483
 30
0.0
 10
364.980490779817
 20
431.8651890901674
 30
0.0
 10
364.980490779817
 20
431.6361890959524
 30
0.0
 10
364.980490779817
 20
431.4667891002318
 30
0.0
 10
364.9276907811509
 20
431.3085891042283
 30
0.0
 10
364.8397907833714
 20
431.1767891075579
 30
0.0
 10
364.8397907833714
 20
431.1767891075579
 30
0.0
 10
367.1591907247785
 20
431.1767891075579
 30
0.0
 10
367.1591907247785
 20
431.1767891075579
 30
0.0
 10
367.1591907247785
 20
431.1767891075579
 30
0.0
 10
367.1435907251725
 20
431.1918891071764
 30
0.0
 10
367.1435907251725
 20
431.1918891071764
 30
0.0
 10
367.1435907251725
 20
431.1918891071764
 30
0.0
 10
367.1425907251978
 20
431.1923891071638
 30
0.0
 10
367.1425907251978
 20
431.1923891071638
 30
0.0
 10
367.1425907251978
 20
431.1923891071638
 30
0.0
 10
367.1405907252483
 20
431.1933891071385
 30
0.0
 10
367.1405907252483
 20
431.1933891071385
 30
0.0
 10
366.861290732304
 20
431.4750891000222
 30
0.0
 10
366.6874907366946
 20
431.8612890902659
 30
0.0
 10
366.6874907366946
 20
432.2880890794841
 30
0.0
 10
366.6874907366946
 20
432.6981890691241
 30
0.0
 10
366.8485907326249
 20
433.0736890596381
 30
0.0
 10
367.1112907259885
 20
433.3515890526178
 30
0.0
 10
367.1112907259885
 20
433.3515890526178
 30
0.0
 10
367.1112907259885
 20
433.3515890526178
 30
0.0
 10
367.1112907259885
 20
433.3515890526178
 30
0.0
  0
SPLINE
  5
59
330
14
100
AcDbEntity
  8
Layer 1
370
     0
100
AcDbSpline
210
0.0
220
0.0
230
1.0
 70
    11
 71
     3
 72
    23
 73
    19
 74
     0
 42
0.000000001
 43
0.0000000001
 40
0.0
 40
0.0
 40
0.0
 40
0.0
 40
1.0
 40
1.0
 40
1.0
 40
2.0
 40
2.0
 40
2.0
 40
3.0
 40
3.0
 40
3.0
 40
4.0
 40
4.0
 40
4.0
 40
5.0
 40
5.0
 40
5.0
 40
6.0
 40
6.0
 40
6.0
 40
6.0
 10
368.337890695002
 20
433.8344890404187
 30
0.0
 10
368.337890695002
 20
433.8344890404187
 30
0.0
 10
367.5429999999997
 20
434.6254890204364
 30
0.0
 10
367.5429999999997
 20
434.6254890204364
 30
0.0
 10
367.5800907141456
 20
434.5160890232
 30
0.0
 10
367.599590713653
 20
434.3974890261961
 30
0.0
 10
367.599590713653
 20
434.2753890292806
 30
0.0
 10
367.599590713653
 20
433.9916890364475
 30
0.0
 10
367.4940907163182
 20
433.7318890430106
 30
0.0
 10
367.319290720734
 20
433.5346890479923
 30
0.0
 10
367.5761907142441
 20
433.724589043195
 30
0.0
 10
367.8944907062032
 20
433.8373890403454
 30
0.0
 10
368.2382906975181
 20
433.8373890403454
 30
0.0
 10
368.2714906966794
 20
433.8373890403454
 30
0.0
 10
368.3046906958407
 20
433.8358890403833
 30
0.0
 10
368.337890695002
 20
433.8344890404187
 30
0.0
 10
368.337890695002
 20
433.8344890404187
 30
0.0
 10
368.337890695002
 20
433.8344890404187
 30
0.0
 10
368.337890695002
 20
433.8344890404187
 30
0.0
  0
SPLINE
  5
5A
330
14
100
AcDbEntity
  8
Layer 1
370
     0
100
AcDbSpline
210
0.0
220
0.0
230
1.0
 70
    11
 71
     3
 72
    74
 73
    70
 74
     0
 42
0.000000001
 43
0.0000000001
 40
0.0
 40
0.0
 40
0.0
 40
0.0
 40
1.0
 40
1.0
 40
1.0
 40
2.0
 40
2.0
 40
2.0
 40
3.0
 40
3.0
 40
3.0
 40
4.0
 40
4.0
 40
4.0
 40
5.0
 40
5.0
 40
5.0
 40
6.0
 40
6.0
 40
6.0
 40
7.0
 40
7.0
 40
7.0
 40
8.0
 40
8.0
 40
8.0
 40
9.0
 40
9.0
 40
9.0
 40
10.0
 40
10.0
 40
10.0
 40
11.0
 40
11.0
 40
11.0
 40
12.0
 40
12.0
 40
12.0
 40
13.0
 40
13.0
 40
13.0
 40
14.0
 40
14.0
 40
14.0
 40
15.0
 40
15.0
 40
15.0
 40
16.0
 40
16.0
 40
16.0
 40
17.0
 40
17.0
 40
17.0
 40
18.0
 40
18.0
 40
18.0
 40
19.0
 40
19.0
 40
19.0
 40
20.0
 40
20.0
 40
20.0
 40
21.0
 40
21.0
 40
21.0
 40
22.0
 40
22.0
 40
22.0
 40
23.0
 40
23.0
 40
23.0
 40
23.0
 10
352.4452910964828
 20
430.6166891217072
 30
0.0
 10
352.4452910964828
 20
430.6166891217072
 30
0.0
 10
368.7489999999998
 20
430.6166891217072
 30
0.0
 10
368.7489999999998
 20
430.6166891217072
 30
0.0
 10
368.7489999999998
 20
430.6166891217072
 30
0.0
 10
368.7597906843439
 20
430.6166891217072
 30
0.0
 10
368.7597906843439
 20
430.6166891217072
 30
0.0
 10
368.7597906843439
 20
430.6166891217072
 30
0.0
 10
368.7851906837022
 20
430.6200891216213
 30
0.0
 10
368.7851906837022
 20
430.6200891216213
 30
0.0
 10
369.188490673514
 20
430.6728891202874
 30
0.0
 10
369.5155906652508
 20
430.8407891160459
 30
0.0
 10
369.7479999999996
 20
431.0814891099653
 30
0.0
 10
369.8983906555804
 20
431.2377891060169
 30
0.0
 10
370.0087906527915
 20
431.4242891013055
 30
0.0
 10
370.0741906511394
 20
431.6293890961242
 30
0.0
 10
370.1366906495605
 20
431.8300890910541
 30
0.0
 10
370.1552906490906
 20
432.0492890855166
 30
0.0
 10
370.125
 20
432.2777890797443
 30
0.0
 10
370.0702906512379
 20
432.6898890693337
 30
0.0
 10
369.8534906567147
 20
433.1264890583043
 30
0.0
 10
369.4491906669282
 20
433.5180890484116
 30
0.0
 10
369.4491906669282
 20
433.5180890484116
 30
0.0
 10
367.9110907057839
 20
435.0478890097656
 30
0.0
 10
367.9110907057839
 20
435.0478890097656
 30
0.0
 10
367.6288907129128
 20
435.3285890026746
 30
0.0
 10
367.3603907196957
 20
435.4848889987261
 30
0.0
 10
367.0585907273198
 20
435.5722889965182
 30
0.0
 10
366.7655907347216
 20
435.6566889943861
 30
0.0
 10
366.4647907423205
 20
435.67038899404
 30
0.0
 10
366.092790751718
 20
435.67038899404
 30
0.0
 10
366.092790751718
 20
435.67038899404
 30
0.0
 10
354.947291033277
 20
435.67038899404
 30
0.0
 10
354.947291033277
 20
435.67038899404
 30
0.0
 10
354.947291033277
 20
435.67038899404
 30
0.0
 10
354.8700910352272
 20
435.67038899404
 30
0.0
 10
354.8700910352272
 20
435.67038899404
 30
0.0
 10
354.8700910352272
 20
435.67038899404
 30
0.0
 10
354.8700910352272
 20
435.6693889940652
 30
0.0
 10
354.8700910352272
 20
435.6693889940652
 30
0.0
 10
353.8554910608582
 20
435.6693889940652
 30
0.0
 10
353.6034910672242
 20
435.67038899404
 30
0.0
 10
353.0800910804464
 20
435.0717890091619
 30
0.0
 10
353.0800910804464
 20
435.0717890091619
 30
0.0
 10
351.7655911136535
 20
433.5746890469818
 30
0.0
 10
351.7655911136535
 20
433.5746890469818
 30
0.0
 10
351.7655911136535
 20
433.5746890469818
 30
0.0
 10
351.7567911138758
 20
433.5614890473153
 30
0.0
 10
351.7567911138758
 20
433.5614890473153
 30
0.0
 10
351.4960911204616
 20
433.2290000000003
 30
0.0
 10
351.3378911244581
 20
432.8778890645845
 30
0.0
 10
351.2704911261608
 20
432.5385890731559
 30
0.0
 10
351.2030911278634
 20
432.2089999999998
 30
0.0
 10
351.2226911273683
 20
431.8900890895384
 30
0.0
 10
351.311491125125
 20
431.6107890965941
 30
0.0
 10
351.4022911228312
 20
431.3217891038948
 30
0.0
 10
351.5702911185872
 20
431.0722891101977
 30
0.0
 10
351.8007911127643
 20
430.8925891147373
 30
0.0
 10
351.9667911085708
 20
430.7616891180442
 30
0.0
 10
352.1659999999993
 20
430.6679999999997
 30
0.0
 10
352.3905910978647
 20
430.6229999999996
 30
0.0
 10
352.3905910978647
 20
430.6229999999996
 30
0.0
 10
352.4228910970487
 20
430.6166891217072
 30
0.0
 10
352.4228910970487
 20
430.6166891217072
 30
0.0
 10
352.4228910970487
 20
430.6166891217072
 30
0.0
 10
352.4452910964828
 20
430.6166891217072
 30
0.0
 10
352.4452910964828
 20
430.6166891217072
 30
0.0
 10
352.4452910964828
 20
430.6166891217072
 30
0.0
 10
352.4452910964828
 20
430.6166891217072
 30
0.0
 10
352.4452910964828
 20
430.6166891217072
 30
0.0
  0
SPLINE
  5
5B
330
14
100
AcDbEntity
  8
Layer 1
370
     0
100
AcDbSpline
210
0.0
220
0.0
230
1.0
 70
    11
 71
     3
 72
    26
 73
    22
 74
     0
 42
0.000000001
 43
0.0000000001
 40
0.0
 40
0.0
 40
0.0
 40
0.0
 40
1.0
 40
1.0
 40
1.0
 40
2.0
 40
2.0
 40
2.0
 40
3.0
 40
3.0
 40
3.0
 40
4.0
 40
4.0
 40
4.0
 40
5.0
 40
5.0
 40
5.0
 40
6.0
 40
6.0
 40
6.0
 40
7.0
 40
7.0
 40
7.0
 40
7.0
 10
358.1952909512256
 20
446.8915887105686
 30
0.0
 10
358.1952909512256
 20
446.8915887105686
 30
0.0
 10
355.4960910194131
 20
446.8915887105686
 30
0.0
 10
355.4960910194131
 20
446.8915887105686
 30
0.0
 10
355.1757910275046
 20
446.2094887277999
 30
0.0
 10
354.9022910344138
 20
445.5033887456375
 30
0.0
 10
354.7147910391504
 20
444.7538887645715
 30
0.0
 10
354.5155910441827
 20
443.9516887848367
 30
0.0
 10
354.4140910467468
 20
443.0956888064611
 30
0.0
 10
354.462891045514
 20
442.1586888301317
 30
0.0
 10
354.462891045514
 20
442.1586888301317
 30
0.0
 10
354.4823910450214
 20
442.0995888316247
 30
0.0
 10
354.4823910450214
 20
442.0995888316247
 30
0.0
 10
354.4823910450214
 20
442.0995888316247
 30
0.0
 10
358.1952909512256
 20
442.0995888316247
 30
0.0
 10
358.1952909512256
 20
442.0995888316247
 30
0.0
 10
358.1952909512256
 20
442.0995888316247
 30
0.0
 10
358.1952909512256
 20
446.8915887105686
 30
0.0
 10
358.1952909512256
 20
446.8915887105686
 30
0.0
 10
358.1952909512256
 20
446.8915887105686
 30
0.0
 10
358.1952909512256
 20
446.8915887105686
 30
0.0
 10
358.1952909512256
 20
446.8915887105686
 30
0.0
  0
POLYLINE
  5
5C
330
14
100
AcDbEntity
  8
Layer 1
370
     0
100
AcDb2dPolyline
 66
     1
 10
0.0
 20
0.0
 30
0.0
  0
VERTEX
  5
5D
330
5C
100
AcDbEntity
  8
Layer 1
370
     0
100
AcDbVertex
100
AcDb2dVertex
 10
359.9257909075095
 20
446.8915887105686
 30
0.0
  0
VERTEX
  5
5E
330
5C
100
AcDbEntity
  8
Layer 1
370
     0
100
AcDbVertex
100
AcDb2dVertex
 10
358.7265909378038
 20
446.8915887105686
 30
0.0
  0
VERTEX
  5
5F
330
5C
100
AcDbEntity
  8
Layer 1
370
     0
100
AcDbVertex
100
AcDb2dVertex
 10
358.7265909378038
 20
442.2221888285276
 30
0.0
  0
VERTEX
  5
60
330
5C
100
AcDbEntity
  8
Layer 1
370
     0
100
AcDbVertex
100
AcDb2dVertex
 10
359.9257909075095
 20
442.8324888131101
 30
0.0
  0
VERTEX
  5
61
330
5C
100
AcDbEntity
  8
Layer 1
370
     0
100
AcDbVertex
100
AcDb2dVertex
 10
359.9257909075095
 20
446.8915887105686
 30
0.0
  0
VERTEX
  5
62
330
5C
100
AcDbEntity
  8
Layer 1
370
     0
100
AcDbVertex
100
AcDb2dVertex
 10
359.9257909075095
 20
446.8915887105686
 30
0.0
  0
SEQEND
  5
63
330
5C
100
AcDbEntity
  8
Layer 1
370
     0
  0
POLYLINE
  5
64
330
14
100
AcDbEntity
  8
Layer 1
370
     0
100
AcDb2dPolyline
 66
     1
 10
0.0
 20
0.0
 30
0.0
  0
VERTEX
  5
65
330
64
100
AcDbEntity
  8
Layer 1
370
     0
100
AcDbVertex
100
AcDb2dVertex
 10
345.5761912700109
 20
448.9267886591551
 30
0.0
  0
VERTEX
  5
66
330
64
100
AcDbEntity
  8
Layer 1
370
     0
100
AcDbVertex
100
AcDb2dVertex
 10
341.6991913679522
 20
448.320788674464
 30
0.0
  0
VERTEX
  5
67
330
64
100
AcDbEntity
  8
Layer 1
370
     0
100
AcDbVertex
100
AcDb2dVertex
 10
341.6757913685433
 20
448.4726886706267
 30
0.0
  0
VERTEX
  5
68
330
64
100
AcDbEntity
  8
Layer 1
370
     0
100
AcDbVertex
100
AcDb2dVertex
 10
339.2831914289854
 20
448.099588680052
 30
0.0
  0
VERTEX
  5
69
330
64
100
AcDbEntity
  8
Layer 1
370
     0
100
AcDbVertex
100
AcDb2dVertex
 10
339.3280914278512
 20
447.9013886850589
 30
0.0
  0
VERTEX
  5
6A
330
64
100
AcDbEntity
  8
Layer 1
370
     0
100
AcDbVertex
100
AcDb2dVertex
 10
345.5360912710239
 20
448.7636886632754
 30
0.0
  0
VERTEX
  5
6B
330
64
100
AcDbEntity
  8
Layer 1
370
     0
100
AcDbVertex
100
AcDb2dVertex
 10
345.5761912700109
 20
448.9267886591551
 30
0.0
  0
VERTEX
  5
6C
330
64
100
AcDbEntity
  8
Layer 1
370
     0
100
AcDbVertex
100
AcDb2dVertex
 10
345.5761912700109
 20
448.9267886591551
 30
0.0
  0
SEQEND
  5
6D
330
64
100
AcDbEntity
  8
Layer 1
370
     0
  0
POLYLINE
  5
6E
330
14
100
AcDbEntity
  8
Layer 1
370
     0
100
AcDb2dPolyline
 66
     1
 10
0.0
 20
0.0
 30
0.0
  0
VERTEX
  5
6F
330
6E
100
AcDbEntity
  8
Layer 1
370
     0
100
AcDbVertex
100
AcDb2dVertex
 10
339.6260000000002
 20
439.8140000000003
 30
0.0
  0
VERTEX
  5
70
330
6E
100
AcDbEntity
  8
Layer 1
370
     0
100
AcDbVertex
100
AcDb2dVertex
 10
340.3202914027861
 20
439.9857888850238
 30
0.0
  0
VERTEX
  5
71
330
6E
100
AcDbEntity
  8
Layer 1
370
     0
100
AcDbVertex
100
AcDb2dVertex
 10
338.5761914468458
 20
445.438488747277
 30
0.0
  0
VERTEX
  5
72
330
6E
100
AcDbEntity
  8
Layer 1
370
     0
100
AcDbVertex
100
AcDb2dVertex
 10
338.3866914516329
 20
445.4608887467111
 30
0.0
  0
VERTEX
  5
73
330
6E
100
AcDbEntity
  8
Layer 1
370
     0
100
AcDbVertex
100
AcDb2dVertex
 10
339.2304914303168
 20
442.0531888327969
 30
0.0
  0
VERTEX
  5
74
330
6E
100
AcDbEntity
  8
Layer 1
370
     0
100
AcDbVertex
100
AcDb2dVertex
 10
339.0810914340909
 20
442.0160888337341
 30
0.0
  0
VERTEX
  5
75
330
6E
100
AcDbEntity
  8
Layer 1
370
     0
100
AcDbVertex
100
AcDb2dVertex
 10
339.6260000000002
 20
439.8140000000003
 30
0.0
  0
VERTEX
  5
76
330
6E
100
AcDbEntity
  8
Layer 1
370
     0
100
AcDbVertex
100
AcDb2dVertex
 10
339.6260000000002
 20
439.8140000000003
 30
0.0
  0
SEQEND
  5
77
330
6E
100
AcDbEntity
  8
Layer 1
370
     0
  0
POLYLINE
  5
78
330
14
100
AcDbEntity
  8
Layer 1
370
     0
100
AcDb2dPolyline
 66
     1
 10
0.0
 20
0.0
 30
0.0
  0
VERTEX
  5
79
330
78
100
AcDbEntity
  8
Layer 1
370
     0
100
AcDbVertex
100
AcDb2dVertex
 10
340.5185913977766
 20
439.3651889007015
 30
0.0
  0
VERTEX
  5
7A
330
78
100
AcDbEntity
  8
Layer 1
370
     0
100
AcDbVertex
100
AcDb2dVertex
 10
339.7616914168975
 20
439.1776889054381
 30
0.0
  0
VERTEX
  5
7B
330
78
100
AcDbEntity
  8
Layer 1
370
     0
100
AcDbVertex
100
AcDb2dVertex
 10
338.8397914401867
 20
438.5692889208076
 30
0.0
  0
VERTEX
  5
7C
330
78
100
AcDbEntity
  8
Layer 1
370
     0
100
AcDbVertex
100
AcDb2dVertex
 10
339.1503914323403
 20
437.5575889463653
 30
0.0
  0
VERTEX
  5
7D
330
78
100
AcDbEntity
  8
Layer 1
370
     0
100
AcDbVertex
100
AcDb2dVertex
 10
340.580091396223
 20
437.4262889496822
 30
0.0
  0
VERTEX
  5
7E
330
78
100
AcDbEntity
  8
Layer 1
370
     0
100
AcDbVertex
100
AcDb2dVertex
 10
340.1405914073257
 20
438.8734889131229
 30
0.0
  0
VERTEX
  5
7F
330
78
100
AcDbEntity
  8
Layer 1
370
     0
100
AcDbVertex
100
AcDb2dVertex
 10
340.6532913943738
 20
438.9437889113469
 30
0.0
  0
VERTEX
  5
80
330
78
100
AcDbEntity
  8
Layer 1
370
     0
100
AcDbVertex
100
AcDb2dVertex
 10
340.5185913977766
 20
439.3651889007015
 30
0.0
  0
VERTEX
  5
81
330
78
100
AcDbEntity
  8
Layer 1
370
     0
100
AcDbVertex
100
AcDb2dVertex
 10
340.5185913977766
 20
439.3651889007015
 30
0.0
  0
SEQEND
  5
82
330
78
100
AcDbEntity
  8
Layer 1
370
     0
  0
HATCH
  5
83
330
14
100
AcDbEntity
  8
Layer 1
 62
     7
100
AcDbHatch
 10
0.0
 20
0.0
 30
0.0
210
0.0
220
0.0
230
1.0
  2
SOLID
 70
     1
 71
     0
 91
       19
 92
        1
 93
        4
 72
     1
 10
359.9257909075095
 20
446.8915887105686
 11
358.7265909378038
 21
446.8915887105686
 72
     1
 10
358.7265909378038
 20
446.8915887105686
 11
358.7265909378038
 21
442.2221888285276
 72
     1
 10
358.7265909378038
 20
442.2221888285276
 11
359.9257909075095
 21
442.8324888131101
 72
     1
 10
359.9257909075095
 20
442.8324888131101
 11
359.9257909075095
 21
446.8915887105686
 97
        0
 92
        1
 93
        1
 72
     4
 94
        3
 73
     0
 74
     1
 95
      263
 96
      259
 40
0.0
 40
0.0
 40
0.0
 40
0.0
 40
1.0
 40
1.0
 40
1.0
 40
2.0
 40
2.0
 40
2.0
 40
3.0
 40
3.0
 40
3.0
 40
4.0
 40
4.0
 40
4.0
 40
5.0
 40
5.0
 40
5.0
 40
6.0
 40
6.0
 40
6.0
 40
7.0
 40
7.0
 40
7.0
 40
8.0
 40
8.0
 40
8.0
 40
9.0
 40
9.0
 40
9.0
 40
10.0
 40
10.0
 40
10.0
 40
11.0
 40
11.0
 40
11.0
 40
12.0
 40
12.0
 40
12.0
 40
13.0
 40
13.0
 40
13.0
 40
14.0
 40
14.0
 40
14.0
 40
15.0
 40
15.0
 40
15.0
 40
16.0
 40
16.0
 40
16.0
 40
17.0
 40
17.0
 40
17.0
 40
18.0
 40
18.0
 40
18.0
 40
19.0
 40
19.0
 40
19.0
 40
20.0
 40
20.0
 40
20.0
 40
21.0
 40
21.0
 40
21.0
 40
22.0
 40
22.0
 40
22.0
 40
23.0
 40
23.0
 40
23.0
 40
24.0
 40
24.0
 40
24.0
 40
25.0
 40
25.0
 40
25.0
 40
26.0
 40
26.0
 40
26.0
 40
27.0
 40
27.0
 40
27.0
 40
28.0
 40
28.0
 40
28.0
 40
29.0
 40
29.0
 40
29.0
 40
30.0
 40
30.0
 40
30.0
 40
31.0
 40
31.0
 40
31.0
 40
32.0
 40
32.0
 40
32.0
 40
33.0
 40
33.0
 40
33.0
 40
34.0
 40
34.0
 40
34.0
 40
35.0
 40
35.0
 40
35.0
 40
36.0
 40
36.0
 40
36.0
 40
37.0
 40
37.0
 40
37.0
 40
38.0
 40
38.0
 40
38.0
 40
39.0
 40
39.0
 40
39.0
 40
40.0
 40
40.0
 40
40.0
 40
41.0
 40
41.0
 40
41.0
 40
42.0
 40
42.0
 40
42.0
 40
43.0
 40
43.0
 40
43.0
 40
44.0
 40
44.0
 40
44.0
 40
45.0
 40
45.0
 40
45.0
 40
46.0
 40
46.0
 40
46.0
 40
47.0
 40
47.0
 40
47.0
 40
48.0
 40
48.0
 40
48.0
 40
49.0
 40
49.0
 40
49.0
 40
50.0
 40
50.0
 40
50.0
 40
51.0
 40
51.0
 40
51.0
 40
52.0
 40
52.0
 40
52.0
 40
53.0
 40
53.0
 40
53.0
 40
54.0
 40
54.0
 40
54.0
 40
55.0
 40
55.0
 40
55.0
 40
56.0
 40
56.0
 40
56.0
 40
57.0
 40
57.0
 40
57.0
 40
58.0
 40
58.0
 40
58.0
 40
59.0
 40
59.0
 40
59.0
 40
60.0
 40
60.0
 40
60.0
 40
61.0
 40
61.0
 40
61.0
 40
62.0
 40
62.0
 40
62.0
 40
63.0
 40
63.0
 40
63.0
 40
64.0
 40
64.0
 40
64.0
 40
65.0
 40
65.0
 40
65.0
 40
66.0
 40
66.0
 40
66.0
 40
67.0
 40
67.0
 40
67.0
 40
68.0
 40
68.0
 40
68.0
 40
69.0
 40
69.0
 40
69.0
 40
70.0
 40
70.0
 40
70.0
 40
71.0
 40
71.0
 40
71.0
 40
72.0
 40
72.0
 40
72.0
 40
73.0
 40
73.0
 40
73.0
 40
74.0
 40
74.0
 40
74.0
 40
75.0
 40
75.0
 40
75.0
 40
76.0
 40
76.0
 40
76.0
 40
77.0
 40
77.0
 40
77.0
 40
78.0
 40
78.0
 40
78.0
 40
79.0
 40
79.0
 40
79.0
 40
80.0
 40
80.0
 40
80.0
 40
81.0
 40
81.0
 40
81.0
 40
82.0
 40
82.0
 40
82.0
 40
83.0
 40
83.0
 40
83.0
 40
84.0
 40
84.0
 40
84.0
 40
85.0
 40
85.0
 40
85.0
 40
86.0
 40
86.0
 40
86.0
 40
86.0
 10
350.5038911455267
 20
440.856888863018
 10
350.5038911455267
 20
440.856888863018
 10
349.2011911784357
 20
445.3671887490782
 10
349.2011911784357
 20
445.3671887490782
 10
349.2011911784357
 20
445.3671887490782
 10
348.3798911991835
 20
446.0482887318722
 10
348.3798911991835
 20
446.0482887318722
 10
347.7128912160333
 20
446.567888718746
 10
346.9940912341917
 20
446.909188710124
 10
346.1933912544191
 20
446.968288708631
 10
346.1933912544191
 20
446.968288708631
 10
339.6054914208435
 20
446.6356887170332
 10
339.6054914208435
 20
446.6356887170332
 10
339.6054914208435
 20
446.6356887170332
 10
341.2812913785092
 20
439.029288909187
 10
341.2812913785092
 20
439.029288909187
 10
341.2812913785092
 20
439.029288909187
 10
342.0390913593656
 20
439.1332889065598
 10
342.0390913593656
 20
439.1332889065598
 10
343.8866913126913
 20
438.0067889350175
 10
345.4921912721329
 20
438.3314889268149
 10
346.9570000000003
 20
439.506288897137
 10
346.9570000000003
 20
439.506288897137
 10
347.3515912251605
 20
439.2690000000002
 10
347.3515912251605
 20
439.2690000000002
 10
347.3515912251605
 20
439.2690000000002
 10
348.2353912028339
 20
440.4696888727995
 10
348.2353912028339
 20
440.4696888727995
 10
348.2353912028339
 20
440.4696888727995
 10
348.5526911948182
 20
440.152788880805
 10
348.5526911948182
 20
440.152788880805
 10
348.5526911948182
 20
440.152788880805
 10
347.4159999999993
 20
438.2118889298363
 10
347.4159999999993
 20
438.2118889298363
 10
347.4159999999993
 20
438.2118889298363
 10
347.0507912327594
 20
438.4267889244074
 10
347.0507912327594
 20
438.4267889244074
 10
347.0507912327594
 20
438.4267889244074
 10
344.6562912932495
 20
434.7709999999997
 10
344.6562912932495
 20
434.7709999999997
 10
343.5820000000003
 20
434.0741890343634
 10
342.5077913475252
 20
433.9916890364475
 10
341.4354913746138
 20
434.5985890211159
 10
341.4354913746138
 20
434.5985890211159
 10
340.7821913911175
 20
436.7553889666306
 10
340.7821913911175
 20
436.7553889666306
 10
340.7821913911175
 20
436.7553889666306
 10
338.875
 20
436.9315889621794
 10
338.875
 20
436.9315889621794
 10
338.875
 20
436.9315889621794
 10
338.6562914448223
 20
436.9506889616969
 10
338.6562914448223
 20
436.9506889616969
 10
338.6562914448223
 20
436.9506889616969
 10
338.5937914464012
 20
437.1591889564297
 10
338.5937914464012
 20
437.1591889564297
 10
338.5937914464012
 20
437.1591889564297
 10
338.1474914576756
 20
438.6112889197466
 10
338.1474914576756
 20
438.6112889197466
 10
338.1474914576756
 20
438.6112889197466
 10
338.0761914594768
 20
438.8446889138504
 10
338.0761914594768
 20
438.8446889138504
 10
338.0761914594768
 20
438.8446889138504
 10
338.2772914543966
 20
438.9780000000001
 10
338.2772914543966
 20
438.9780000000001
 10
338.2772914543966
 20
438.9780000000001
 10
339.3280914278512
 20
439.6698888930041
 10
339.3280914278512
 20
439.6698888930041
 10
339.3280914278512
 20
439.6698888930041
 10
338.7655914420611
 20
441.9384888356944
 10
338.7655914420611
 20
441.9384888356944
 10
338.7655914420611
 20
441.9384888356944
 10
338.6005914462294
 20
441.8974888367302
 10
338.6005914462294
 20
441.8974888367302
 10
338.6005914462294
 20
441.8974888367302
 10
337.6972914690487
 20
445.5404887447003
 10
337.6972914690487
 20
445.5404887447003
 10
337.6972914690487
 20
445.5404887447003
 10
337.2870914794112
 20
445.5888887434776
 10
337.2870914794112
 20
445.5888887434776
 10
337.2870914794112
 20
445.5888887434776
 10
336.625
 20
447.9032886850109
 10
336.625
 20
447.9032886850109
 10
336.625
 20
447.9032886850109
 10
338.2538914549878
 20
448.475088670566
 10
338.2538914549878
 20
448.475088670566
 10
338.2538914549878
 20
448.475088670566
 10
339.1210914330804
 20
448.839388661363
 10
339.1210914330804
 20
448.839388661363
 10
339.1210914330804
 20
448.839388661363
 10
339.2138914307361
 20
448.4174886720211
 10
339.2138914307361
 20
448.4174886720211
 10
339.2138914307361
 20
448.4174886720211
 10
341.6270000000004
 20
448.7943886624998
 10
341.6270000000004
 20
448.7943886624998
 10
341.6270000000004
 20
448.7943886624998
 10
341.600591370443
 20
448.9623886582558
 10
341.600591370443
 20
448.9623886582558
 10
341.600591370443
 20
448.9623886582558
 10
345.5536912705793
 20
449.5810886426261
 10
345.5536912705793
 20
449.5810886426261
 10
345.5536912705793
 20
449.5810886426261
 10
345.625
 20
449.1288886540497
 10
345.625
 20
449.1288886540497
 10
345.625
 20
449.1288886540497
 10
345.7050912667546
 20
449.4633886455995
 10
345.7050912667546
 20
449.4633886455995
 10
345.7050912667546
 20
449.4633886455995
 10
347.0702912322668
 20
449.6645886405167
 10
347.0702912322668
 20
449.6645886405167
 10
347.0702912322668
 20
449.6645886405167
 10
347.313491226123
 20
448.9813886577758
 10
347.313491226123
 20
448.9813886577758
 10
347.7763912144292
 20
448.9926886574904
 10
348.1913912039454
 20
448.9467886586499
 10
348.5526911948182
 20
448.839388661363
 10
350.2196911527062
 20
447.7113886898587
 10
351.887691110569
 20
446.5834887183519
 10
353.554691068457
 20
445.4560887468324
 10
353.5175910693943
 20
445.3270887500912
 10
353.4823910702835
 20
445.1967887533829
 10
353.4501910710969
 20
445.066388756677
 10
353.2050910772887
 20
444.085
 10
353.1083910797315
 20
443.0937888065091
 10
353.1620910783749
 20
442.0834888320314
 10
353.1620910783749
 20
442.0834888320314
 10
350.0897911559878
 20
444.6308887676787
 10
350.0897911559878
 20
444.6308887676787
 10
350.0897911559878
 20
444.6308887676787
 10
351.1308911296874
 20
441.0190000000002
 10
351.1308911296874
 20
441.0190000000002
 10
351.1308911296874
 20
441.0190000000002
 10
351.4550911214974
 20
441.1034888567883
 10
351.4550911214974
 20
441.1034888567883
 10
351.4550911214974
 20
441.1034888567883
 10
352.5010000000002
 20
437.3446889517436
 10
352.5010000000002
 20
437.3446889517436
 10
352.5010000000002
 20
437.3446889517436
 10
358.9335909325746
 20
437.3446889517436
 10
358.9335909325746
 20
437.3446889517436
 10
358.9335909325746
 20
437.3446889517436
 10
358.9335909325746
 20
438.2841889280098
 10
358.9335909325746
 20
438.2841889280098
 10
358.9335909325746
 20
438.2841889280098
 10
353.9003910597239
 20
438.2841889280098
 10
353.9003910597239
 20
438.2841889280098
 10
353.9003910597239
 20
438.2841889280098
 10
353.9003910597239
 20
439.3187889018736
 10
353.9003910597239
 20
439.3187889018736
 10
353.9003910597239
 20
439.3187889018736
 10
354.7245910389029
 20
439.3187889018736
 10
354.7245910389029
 20
439.3187889018736
 10
354.7245910389029
 20
439.3187889018736
 10
353.8320000000003
 20
441.9975888342015
 10
353.8320000000003
 20
441.9975888342015
 10
353.8320000000003
 20
441.9975888342015
 10
353.8183910617954
 20
442.0390888331531
 10
353.8183910617954
 20
442.0390888331531
 10
353.8183910617954
 20
442.0390888331531
 10
353.8153910618712
 20
442.0805888321047
 10
353.8153910618712
 20
442.0805888321047
 10
353.7577910633263
 20
443.1044888062388
 10
353.8651910606131
 20
444.036588782692
 10
354.0830000000005
 20
444.9086887606609
 10
354.300791049609
 20
445.7768887387283
 10
354.6229999999996
 20
446.5824887183771
 10
354.9979999999996
 20
447.3588886987636
 10
354.9979999999996
 20
447.3588886987636
 10
355.0868910297504
 20
447.5434886941002
 10
355.0868910297504
 20
447.5434886941002
 10
355.0868910297504
 20
447.5434886941002
 10
355.2909999999993
 20
447.5434886941002
 10
355.2909999999993
 20
447.5434886941002
 10
355.2909999999993
 20
447.5434886941002
 10
361.6737908633513
 20
447.5434886941002
 10
361.6737908633513
 20
447.5434886941002
 10
361.6737908633513
 20
447.5434886941002
 10
362.0
 20
447.5434886941002
 10
362.0
 20
447.5434886941002
 10
362.0
 20
447.5434886941002
 10
362.0
 20
447.2177887023281
 10
362.0
 20
447.2177887023281
 10
362.0
 20
447.2177887023281
 10
362.0
 20
443.0
 10
362.0
 20
443.0
 10
362.0
 20
443.0
 10
369.6015906630782
 20
443.0
 10
369.6015906630782
 20
443.0
 10
369.6015906630782
 20
443.0
 10
369.6015906630782
 20
439.3187889018736
 10
369.6015906630782
 20
439.3187889018736
 10
369.6015906630782
 20
439.3187889018736
 10
370.1757906485727
 20
439.3187889018736
 10
370.1757906485727
 20
439.3187889018736
 10
370.1757906485727
 20
439.3187889018736
 10
370.1757906485727
 20
438.2841889280098
 10
370.1757906485727
 20
438.2841889280098
 10
370.1757906485727
 20
438.2841889280098
 10
363.7070000000003
 20
438.2841889280098
 10
363.7070000000003
 20
438.2841889280098
 10
363.7070000000003
 20
438.2841889280098
 10
363.7070000000003
 20
437.3446889517436
 10
363.7070000000003
 20
437.3446889517436
 10
363.7070000000003
 20
437.3446889517436
 10
370.1483906492649
 20
437.3446889517436
 10
370.1483906492649
 20
437.3446889517436
 10
370.1483906492649
 20
437.3446889517436
 10
370.1483906492649
 20
433.951689037458
 10
370.1483906492649
 20
433.951689037458
 10
370.1483906492649
 20
433.951689037458
 10
369.9374906545927
 20
433.951689037458
 10
369.9374906545927
 20
433.951689037458
 10
369.9374906545927
 20
433.951689037458
 10
369.9003906555299
 20
433.9867890365713
 10
369.9003906555299
 20
433.9867890365713
 10
369.9003906555299
 20
433.9867890365713
 10
368.3710906941633
 20
435.5102889980844
 10
368.3710906941633
 20
435.5102889980844
 10
368.0438907024291
 20
435.8353889898717
 10
367.683590711531
 20
436.070788983925
 10
367.2382907227802
 20
436.198688980694
 10
366.8632907322535
 20
436.3075889779429
 10
366.4823907418759
 20
436.322788977559
 10
366.092790751718
 20
436.322788977559
 10
366.092790751718
 20
436.322788977559
 10
354.2177910517057
 20
436.322788977559
 10
354.2177910517057
 20
436.322788977559
 10
354.2177910517057
 20
436.322788977559
 10
354.2177910517057
 20
436.3124889778192
 10
354.2177910517057
 20
436.3124889778192
 10
353.5761910679139
 20
436.2797889786452
 10
353.146491078769
 20
436.1366889822602
 10
352.5897910928325
 20
435.5020000000004
 10
352.5897910928325
 20
435.5020000000004
 10
351.269491126186
 20
433.9960890363363
 10
351.269491126186
 20
433.9960890363363
 10
351.269491126186
 20
433.9960890363363
 10
351.2440911268277
 20
433.9643890371372
 10
351.2440911268277
 20
433.9643890371372
 10
351.2440911268277
 20
433.9643890371372
 10
351.233391127098
 20
433.951689037458
 10
351.233391127098
 20
433.951689037458
 10
351.233391127098
 20
433.951689037458
 10
350.1913911534211
 20
433.951689037458
 10
350.1913911534211
 20
433.951689037458
 10
350.1913911534211
 20
433.951689037458
 10
350.1913911534211
 20
437.3446889517436
 10
350.1913911534211
 20
437.3446889517436
 10
350.1913911534211
 20
437.3446889517436
 10
351.1288911297379
 20
437.3446889517436
 10
351.1288911297379
 20
437.3446889517436
 10
351.1288911297379
 20
437.3446889517436
 10
350.1757911538152
 20
440.77288886514
 10
350.1757911538152
 20
440.77288886514
 10
350.1757911538152
 20
440.77288886514
 10
350.5038911455267
 20
440.856888863018
 10
350.5038911455267
 20
440.856888863018
 10
350.5038911455267
 20
440.856888863018
 10
350.5038911455267
 20
440.856888863018
 10
350.5038911455267
 20
440.856888863018
 97
        0
 92
        1
 93
        7
 72
     1
 10
340.5185913977766
 20
439.3651889007015
 11
339.7616914168975
 21
439.1776889054381
 72
     1
 10
339.7616914168975
 20
439.1776889054381
 11
338.8397914401867
 21
438.5692889208076
 72
     1
 10
338.8397914401867
 20
438.5692889208076
 11
339.1503914323403
 21
437.5575889463653
 72
     1
 10
339.1503914323403
 20
437.5575889463653
 11
340.580091396223
 21
437.4262889496822
 72
     1
 10
340.580091396223
 20
437.4262889496822
 11
340.1405914073257
 21
438.8734889131229
 72
     1
 10
340.1405914073257
 20
438.8734889131229
 11
340.6532913943738
 21
438.9437889113469
 72
     1
 10
340.6532913943738
 20
438.9437889113469
 11
340.5185913977766
 21
439.3651889007015
 97
        0
 92
        1
 93
        6
 72
     1
 10
339.6260000000002
 20
439.8140000000003
 11
340.3202914027861
 21
439.9857888850238
 72
     1
 10
340.3202914027861
 20
439.9857888850238
 11
338.5761914468458
 21
445.438488747277
 72
     1
 10
338.5761914468458
 20
445.438488747277
 11
338.3866914516329
 21
445.4608887467111
 72
     1
 10
338.3866914516329
 20
445.4608887467111
 11
339.2304914303168
 21
442.0531888327969
 72
     1
 10
339.2304914303168
 20
442.0531888327969
 11
339.0810914340909
 21
442.0160888337341
 72
     1
 10
339.0810914340909
 20
442.0160888337341
 11
339.6260000000002
 21
439.8140000000003
 97
        0
 92
        1
 93
        6
 72
     1
 10
345.5761912700109
 20
448.9267886591551
 11
341.6991913679522
 21
448.320788674464
 72
     1
 10
341.6991913679522
 20
448.320788674464
 11
341.6757913685433
 21
448.4726886706267
 72
     1
 10
341.6757913685433
 20
448.4726886706267
 11
339.2831914289854
 21
448.099588680052
 72
     1
 10
339.2831914289854
 20
448.099588680052
 11
339.3280914278512
 21
447.9013886850589
 72
     1
 10
339.3280914278512
 20
447.9013886850589
 11
345.5360912710239
 21
448.7636886632754
 72
     1
 10
345.5360912710239
 20
448.7636886632754
 11
345.5761912700109
 21
448.9267886591551
 97
        0
 92
        1
 93
        1
 72
     4
 94
        3
 73
     0
 74
     1
 95
       26
 96
       22
 40
0.0
 40
0.0
 40
0.0
 40
0.0
 40
1.0
 40
1.0
 40
1.0
 40
2.0
 40
2.0
 40
2.0
 40
3.0
 40
3.0
 40
3.0
 40
4.0
 40
4.0
 40
4.0
 40
5.0
 40
5.0
 40
5.0
 40
6.0
 40
6.0
 40
6.0
 40
7.0
 40
7.0
 40
7.0
 40
7.0
 10
358.1952909512256
 20
446.8915887105686
 10
358.1952909512256
 20
446.8915887105686
 10
355.4960910194131
 20
446.8915887105686
 10
355.4960910194131
 20
446.8915887105686
 10
355.1757910275046
 20
446.2094887277999
 10
354.9022910344138
 20
445.5033887456375
 10
354.7147910391504
 20
444.7538887645715
 10
354.5155910441827
 20
443.9516887848367
 10
354.4140910467468
 20
443.0956888064611
 10
354.462891045514
 20
442.1586888301317
 10
354.462891045514
 20
442.1586888301317
 10
354.4823910450214
 20
442.0995888316247
 10
354.4823910450214
 20
442.0995888316247
 10
354.4823910450214
 20
442.0995888316247
 10
358.1952909512256
 20
442.0995888316247
 10
358.1952909512256
 20
442.0995888316247
 10
358.1952909512256
 20
442.0995888316247
 10
358.1952909512256
 20
446.8915887105686
 10
358.1952909512256
 20
446.8915887105686
 10
358.1952909512256
 20
446.8915887105686
 10
358.1952909512256
 20
446.8915887105686
 10
358.1952909512256
 20
446.8915887105686
 97
        0
 92
        1
 93
        1
 72
     4
 94
        3
 73
     0
 74
     1
 95
       74
 96
       70
 40
0.0
 40
0.0
 40
0.0
 40
0.0
 40
1.0
 40
1.0
 40
1.0
 40
2.0
 40
2.0
 40
2.0
 40
3.0
 40
3.0
 40
3.0
 40
4.0
 40
4.0
 40
4.0
 40
5.0
 40
5.0
 40
5.0
 40
6.0
 40
6.0
 40
6.0
 40
7.0
 40
7.0
 40
7.0
 40
8.0
 40
8.0
 40
8.0
 40
9.0
 40
9.0
 40
9.0
 40
10.0
 40
10.0
 40
10.0
 40
11.0
 40
11.0
 40
11.0
 40
12.0
 40
12.0
 40
12.0
 40
13.0
 40
13.0
 40
13.0
 40
14.0
 40
14.0
 40
14.0
 40
15.0
 40
15.0
 40
15.0
 40
16.0
 40
16.0
 40
16.0
 40
17.0
 40
17.0
 40
17.0
 40
18.0
 40
18.0
 40
18.0
 40
19.0
 40
19.0
 40
19.0
 40
20.0
 40
20.0
 40
20.0
 40
21.0
 40
21.0
 40
21.0
 40
22.0
 40
22.0
 40
22.0
 40
23.0
 40
23.0
 40
23.0
 40
23.0
 10
352.4452910964828
 20
430.6166891217072
 10
352.4452910964828
 20
430.6166891217072
 10
368.7489999999998
 20
430.6166891217072
 10
368.7489999999998
 20
430.6166891217072
 10
368.7489999999998
 20
430.6166891217072
 10
368.7597906843439
 20
430.6166891217072
 10
368.7597906843439
 20
430.6166891217072
 10
368.7597906843439
 20
430.6166891217072
 10
368.7851906837022
 20
430.6200891216213
 10
368.7851906837022
 20
430.6200891216213
 10
369.188490673514
 20
430.6728891202874
 10
369.5155906652508
 20
430.8407891160459
 10
369.7479999999996
 20
431.0814891099653
 10
369.8983906555804
 20
431.2377891060169
 10
370.0087906527915
 20
431.4242891013055
 10
370.0741906511394
 20
431.6293890961242
 10
370.1366906495605
 20
431.8300890910541
 10
370.1552906490906
 20
432.0492890855166
 10
370.125
 20
432.2777890797443
 10
370.0702906512379
 20
432.6898890693337
 10
369.8534906567147
 20
433.1264890583043
 10
369.4491906669282
 20
433.5180890484116
 10
369.4491906669282
 20
433.5180890484116
 10
367.9110907057839
 20
435.0478890097656
 10
367.9110907057839
 20
435.0478890097656
 10
367.6288907129128
 20
435.3285890026746
 10
367.3603907196957
 20
435.4848889987261
 10
367.0585907273198
 20
435.5722889965182
 10
366.7655907347216
 20
435.6566889943861
 10
366.4647907423205
 20
435.67038899404
 10
366.092790751718
 20
435.67038899404
 10
366.092790751718
 20
435.67038899404
 10
354.947291033277
 20
435.67038899404
 10
354.947291033277
 20
435.67038899404
 10
354.947291033277
 20
435.67038899404
 10
354.8700910352272
 20
435.67038899404
 10
354.8700910352272
 20
435.67038899404
 10
354.8700910352272
 20
435.67038899404
 10
354.8700910352272
 20
435.6693889940652
 10
354.8700910352272
 20
435.6693889940652
 10
353.8554910608582
 20
435.6693889940652
 10
353.6034910672242
 20
435.67038899404
 10
353.0800910804464
 20
435.0717890091619
 10
353.0800910804464
 20
435.0717890091619
 10
351.7655911136535
 20
433.5746890469818
 10
351.7655911136535
 20
433.5746890469818
 10
351.7655911136535
 20
433.5746890469818
 10
351.7567911138758
 20
433.5614890473153
 10
351.7567911138758
 20
433.5614890473153
 10
351.4960911204616
 20
433.2290000000003
 10
351.3378911244581
 20
432.8778890645845
 10
351.2704911261608
 20
432.5385890731559
 10
351.2030911278634
 20
432.2089999999998
 10
351.2226911273683
 20
431.8900890895384
 10
351.311491125125
 20
431.6107890965941
 10
351.4022911228312
 20
431.3217891038948
 10
351.5702911185872
 20
431.0722891101977
 10
351.8007911127643
 20
430.8925891147373
 10
351.9667911085708
 20
430.7616891180442
 10
352.1659999999993
 20
430.6679999999997
 10
352.3905910978647
 20
430.6229999999996
 10
352.3905910978647
 20
430.6229999999996
 10
352.4228910970487
 20
430.6166891217072
 10
352.4228910970487
 20
430.6166891217072
 10
352.4228910970487
 20
430.6166891217072
 10
352.4452910964828
 20
430.6166891217072
 10
352.4452910964828
 20
430.6166891217072
 10
352.4452910964828
 20
430.6166891217072
 10
352.4452910964828
 20
430.6166891217072
 10
352.4452910964828
 20
430.6166891217072
 97
        0
 92
        1
 93
        1
 72
     4
 94
        3
 73
     0
 74
     1
 95
       23
 96
       19
 40
0.0
 40
0.0
 40
0.0
 40
0.0
 40
1.0
 40
1.0
 40
1.0
 40
2.0
 40
2.0
 40
2.0
 40
3.0
 40
3.0
 40
3.0
 40
4.0
 40
4.0
 40
4.0
 40
5.0
 40
5.0
 40
5.0
 40
6.0
 40
6.0
 40
6.0
 40
6.0
 10
368.337890695002
 20
433.8344890404187
 10
368.337890695002
 20
433.8344890404187
 10
367.5429999999997
 20
434.6254890204364
 10
367.5429999999997
 20
434.6254890204364
 10
367.5800907141456
 20
434.5160890232
 10
367.599590713653
 20
434.3974890261961
 10
367.599590713653
 20
434.2753890292806
 10
367.599590713653
 20
433.9916890364475
 10
367.4940907163182
 20
433.7318890430106
 10
367.319290720734
 20
433.5346890479923
 10
367.5761907142441
 20
433.724589043195
 10
367.8944907062032
 20
433.8373890403454
 10
368.2382906975181
 20
433.8373890403454
 10
368.2714906966794
 20
433.8373890403454
 10
368.3046906958407
 20
433.8358890403833
 10
368.337890695002
 20
433.8344890404187
 10
368.337890695002
 20
433.8344890404187
 10
368.337890695002
 20
433.8344890404187
 10
368.337890695002
 20
433.8344890404187
 97
        0
 92
        1
 93
        1
 72
     4
 94
        3
 73
     0
 74
     1
 95
      251
 96
      247
 40
0.0
 40
0.0
 40
0.0
 40
0.0
 40
1.0
 40
1.0
 40
1.0
 40
2.0
 40
2.0
 40
2.0
 40
3.0
 40
3.0
 40
3.0
 40
4.0
 40
4.0
 40
4.0
 40
5.0
 40
5.0
 40
5.0
 40
6.0
 40
6.0
 40
6.0
 40
7.0
 40
7.0
 40
7.0
 40
8.0
 40
8.0
 40
8.0
 40
9.0
 40
9.0
 40
9.0
 40
10.0
 40
10.0
 40
10.0
 40
11.0
 40
11.0
 40
11.0
 40
12.0
 40
12.0
 40
12.0
 40
13.0
 40
13.0
 40
13.0
 40
14.0
 40
14.0
 40
14.0
 40
15.0
 40
15.0
 40
15.0
 40
16.0
 40
16.0
 40
16.0
 40
17.0
 40
17.0
 40
17.0
 40
18.0
 40
18.0
 40
18.0
 40
19.0
 40
19.0
 40
19.0
 40
20.0
 40
20.0
 40
20.0
 40
21.0
 40
21.0
 40
21.0
 40
22.0
 40
22.0
 40
22.0
 40
23.0
 40
23.0
 40
23.0
 40
24.0
 40
24.0
 40
24.0
 40
25.0
 40
25.0
 40
25.0
 40
26.0
 40
26.0
 40
26.0
 40
27.0
 40
27.0
 40
27.0
 40
28.0
 40
28.0
 40
28.0
 40
29.0
 40
29.0
 40
29.0
 40
30.0
 40
30.0
 40
30.0
 40
31.0
 40
31.0
 40
31.0
 40
32.0
 40
32.0
 40
32.0
 40
33.0
 40
33.0
 40
33.0
 40
34.0
 40
34.0
 40
34.0
 40
35.0
 40
35.0
 40
35.0
 40
36.0
 40
36.0
 40
36.0
 40
37.0
 40
37.0
 40
37.0
 40
38.0
 40
38.0
 40
38.0
 40
39.0
 40
39.0
 40
39.0
 40
40.0
 40
40.0
 40
40.0
 40
41.0
 40
41.0
 40
41.0
 40
42.0
 40
42.0
 40
42.0
 40
43.0
 40
43.0
 40
43.0
 40
44.0
 40
44.0
 40
44.0
 40
45.0
 40
45.0
 40
45.0
 40
46.0
 40
46.0
 40
46.0
 40
47.0
 40
47.0
 40
47.0
 40
48.0
 40
48.0
 40
48.0
 40
49.0
 40
49.0
 40
49.0
 40
50.0
 40
50.0
 40
50.0
 40
51.0
 40
51.0
 40
51.0
 40
52.0
 40
52.0
 40
52.0
 40
53.0
 40
53.0
 40
53.0
 40
54.0
 40
54.0
 40
54.0
 40
55.0
 40
55.0
 40
55.0
 40
56.0
 40
56.0
 40
56.0
 40
57.0
 40
57.0
 40
57.0
 40
58.0
 40
58.0
 40
58.0
 40
59.0
 40
59.0
 40
59.0
 40
60.0
 40
60.0
 40
60.0
 40
61.0
 40
61.0
 40
61.0
 40
62.0
 40
62.0
 40
62.0
 40
63.0
 40
63.0
 40
63.0
 40
64.0
 40
64.0
 40
64.0
 40
65.0
 40
65.0
 40
65.0
 40
66.0
 40
66.0
 40
66.0
 40
67.0
 40
67.0
 40
67.0
 40
68.0
 40
68.0
 40
68.0
 40
69.0
 40
69.0
 40
69.0
 40
70.0
 40
70.0
 40
70.0
 40
71.0
 40
71.0
 40
71.0
 40
72.0
 40
72.0
 40
72.0
 40
73.0
 40
73.0
 40
73.0
 40
74.0
 40
74.0
 40
74.0
 40
75.0
 40
75.0
 40
75.0
 40
76.0
 40
76.0
 40
76.0
 40
77.0
 40
77.0
 40
77.0
 40
78.0
 40
78.0
 40
78.0
 40
79.0
 40
79.0
 40
79.0
 40
80.0
 40
80.0
 40
80.0
 40
81.0
 40
81.0
 40
81.0
 40
82.0
 40
82.0
 40
82.0
 40
82.0
 10
367.1112907259885
 20
433.3515890526178
 10
366.9315907305281
 20
433.2284890557276
 10
366.7147907360049
 20
433.1557890575641
 10
366.4804907419239
 20
433.1557890575641
 10
366.1718907497198
 20
433.1557890575641
 10
365.8915907568007
 20
433.282189054371
 10
365.6894907619062
 20
433.4838890492756
 10
365.4862907670395
 20
433.6869999999999
 10
365.3612907701972
 20
433.9662890370892
 10
365.3612907701972
 20
434.2753890292806
 10
365.3612907701972
 20
434.5844890214721
 10
365.4862907670395
 20
434.8642890144038
 10
365.6894907619062
 20
435.0663890092983
 10
365.7030907615626
 20
435.0820000000003
 10
365.718790761166
 20
435.0971890085202
 10
365.7362907607239
 20
435.1107890081767
 10
365.7362907607239
 20
435.1107890081767
 10
364.9784907798676
 20
435.1107890081767
 10
364.9784907798676
 20
435.1107890081767
 10
364.9940907794735
 20
435.0971890085202
 10
365.0097907790769
 20
435.0820000000003
 10
365.0233907787333
 20
435.0663890092983
 10
365.2265907736
 20
434.8642890144038
 10
365.3524907704195
 20
434.5844890214721
 10
365.3524907704195
 20
434.2753890292806
 10
365.3524907704195
 20
433.9662890370892
 10
365.2265907736
 20
433.6869999999999
 10
365.0233907787333
 20
433.4838890492756
 10
364.8222907838135
 20
433.282189054371
 10
364.5419999999995
 20
433.1557890575641
 10
364.2323907987156
 20
433.1557890575641
 10
363.9237908065115
 20
433.1557890575641
 10
363.64359081359
 20
433.282189054371
 10
363.441390818698
 20
433.4838890492756
 10
363.2392908238035
 20
433.6869999999999
 10
363.1132908269865
 20
433.9662890370892
 10
363.1132908269865
 20
434.2753890292806
 10
363.1132908269865
 20
434.5844890214721
 10
363.2392908238035
 20
434.8642890144038
 10
363.441390818698
 20
435.0663890092983
 10
363.4570000000003
 20
435.0820000000003
 10
363.4726908179073
 20
435.0971890085202
 10
363.4882908175132
 20
435.1107890081767
 10
363.4882908175132
 20
435.1107890081767
 10
362.668890838213
 20
435.1107890081767
 10
362.668890838213
 20
435.1107890081767
 10
362.6845908378164
 20
435.0971890085202
 10
362.701190837397
 20
435.0820000000003
 10
362.7157908370282
 20
435.0663890092983
 10
362.9179999999997
 20
434.8642890144038
 10
363.0429999999997
 20
434.5844890214721
 10
363.0429999999997
 20
434.2753890292806
 10
363.0429999999997
 20
433.9662890370892
 10
362.9179999999997
 20
433.6869999999999
 10
362.7157908370282
 20
433.4838890492756
 10
362.5136908421337
 20
433.282189054371
 10
362.2323908492399
 20
433.1557890575641
 10
361.9237908570358
 20
433.1557890575641
 10
361.6151908648317
 20
433.1557890575641
 10
361.3349999999991
 20
433.282189054371
 10
361.1327908770181
 20
433.4838890492756
 10
360.9296908821489
 20
433.6869999999999
 10
360.8046908853066
 20
433.9662890370892
 10
360.8046908853066
 20
434.2753890292806
 10
360.8046908853066
 20
434.5844890214721
 10
360.9296908821489
 20
434.8642890144038
 10
361.1327908770181
 20
435.0663890092983
 10
361.148390876624
 20
435.0820000000003
 10
361.1640908762274
 20
435.0971890085202
 10
361.1796908758333
 20
435.1107890081767
 10
361.1796908758333
 20
435.1107890081767
 10
360.3144908976901
 20
435.1107890081767
 10
360.3144908976901
 20
435.1107890081767
 10
360.330090897296
 20
435.0971890085202
 10
360.3456908969019
 20
435.0820000000003
 10
360.3603908965306
 20
435.0663890092983
 10
360.5634908913999
 20
434.8642890144038
 10
360.6884908882421
 20
434.5844890214721
 10
360.6884908882421
 20
434.2753890292806
 10
360.6884908882421
 20
433.9662890370892
 10
360.5634908913999
 20
433.6869999999999
 10
360.3603908965306
 20
433.4838890492756
 10
360.1581909016386
 20
433.282189054371
 10
359.8788909086943
 20
433.1557890575641
 10
359.5692909165155
 20
433.1557890575641
 10
359.2606909243113
 20
433.1557890575641
 10
358.9804909313898
 20
433.282189054371
 10
358.7772909365231
 20
433.4838890492756
 10
358.5741909416538
 20
433.6869999999999
 10
358.4491909448116
 20
433.9662890370892
 10
358.4491909448116
 20
434.2753890292806
 10
358.4491909448116
 20
434.5844890214721
 10
358.5741909416538
 20
434.8642890144038
 10
358.7772909365231
 20
435.0663890092983
 10
358.7929999999997
 20
435.0820000000003
 10
358.8085909357324
 20
435.0971890085202
 10
358.8241909353383
 20
435.1107890081767
 10
358.8241909353383
 20
435.1107890081767
 10
357.966790956998
 20
435.1107890081767
 10
357.966790956998
 20
435.1107890081767
 10
357.9823909566039
 20
435.0971890085202
 10
357.9979999999996
 20
435.0820000000003
 10
358.0136909558132
 20
435.0663890092983
 10
358.2157909507077
 20
434.8642890144038
 10
358.34079094755
 20
434.5844890214721
 10
358.34079094755
 20
434.2753890292806
 10
358.34079094755
 20
433.9662890370892
 10
358.2157909507077
 20
433.6869999999999
 10
358.0136909558132
 20
433.4838890492756
 10
357.8104909609465
 20
433.282189054371
 10
357.5312909679997
 20
433.1557890575641
 10
357.2226909757956
 20
433.1557890575641
 10
356.9130909836167
 20
433.1557890575641
 10
356.6327909906977
 20
433.282189054371
 10
356.4296909958284
 20
433.4838890492756
 10
356.2284910009112
 20
433.6869999999999
 10
356.1015910041169
 20
433.9662890370892
 10
356.1015910041169
 20
434.2753890292806
 10
356.1015910041169
 20
434.5844890214721
 10
356.2284910009112
 20
434.8642890144038
 10
356.4296909958284
 20
435.0663890092983
 10
356.4452909954343
 20
435.0820000000003
 10
356.4608909950402
 20
435.0971890085202
 10
356.4765909946436
 20
435.1107890081767
 10
356.4765909946436
 20
435.1107890081767
 10
355.5849999999991
 20
435.1107890081767
 10
355.5849999999991
 20
435.1107890081767
 10
355.601591016748
 20
435.0971890085202
 10
355.6171910163539
 20
435.0820000000003
 10
355.6308910160078
 20
435.0663890092983
 10
355.8340000000007
 20
434.8642890144038
 10
355.9590000000007
 20
434.5844890214721
 10
355.9590000000007
 20
434.2753890292806
 10
355.9590000000007
 20
433.9662890370892
 10
355.8340000000007
 20
433.6869999999999
 10
355.6308910160078
 20
433.4838890492756
 10
355.4296910210905
 20
433.282189054371
 10
355.1483910281968
 20
433.1557890575641
 10
354.8397910359927
 20
433.1557890575641
 10
354.531291043786
 20
433.1557890575641
 10
354.2510000000002
 20
433.282189054371
 10
354.048791055975
 20
433.4838890492756
 10
353.8456910611058
 20
433.6869999999999
 10
353.7206910642635
 20
433.9662890370892
 10
353.7206910642635
 20
434.2753890292806
 10
353.7206910642635
 20
434.5844890214721
 10
353.8456910611058
 20
434.8642890144038
 10
354.048791055975
 20
435.0663890092983
 10
354.048791055975
 20
435.0663890092983
 10
354.0517910558992
 20
435.0702890091998
 10
354.0517910558992
 20
435.0702890091998
 10
353.8358910613533
 20
435.0228890103972
 10
353.6894910650517
 20
434.9208890129739
 10
353.5
 20
434.7035890184634
 10
353.5
 20
434.7035890184634
 10
352.7274910893539
 20
433.8246890406663
 10
352.7274910893539
 20
433.8246890406663
 10
352.7929999999997
 20
433.8329999999996
 10
352.8593910860218
 20
433.8373890403454
 10
352.9267910843191
 20
433.8373890403454
 10
353.3534910735398
 20
433.8373890403454
 10
353.7392910637936
 20
433.663589044736
 10
354.0214910566647
 20
433.3837890518043
 10
354.0214910566647
 20
433.3837890518043
 10
354.0214910566647
 20
433.3827890518296
 10
354.0214910566647
 20
433.3827890518296
 10
354.0214910566647
 20
433.3827890518296
 10
354.0233910566167
 20
433.3817890518549
 10
354.0233910566167
 20
433.3817890518549
 10
354.3036910495357
 20
433.1000890589712
 10
354.4765910451679
 20
432.7138890687274
 10
354.4765910451679
 20
432.2880890794841
 10
354.4765910451679
 20
431.8612890902659
 10
354.3036910495357
 20
431.4750891000222
 10
354.0233910566167
 20
431.1933891071385
 10
354.0233910566167
 20
431.1933891071385
 10
354.0214910566647
 20
431.1923891071638
 10
354.0214910566647
 20
431.1923891071638
 10
354.0214910566647
 20
431.1923891071638
 10
354.0214910566647
 20
431.1918891071764
 10
354.0214910566647
 20
431.1918891071764
 10
354.0214910566647
 20
431.1918891071764
 10
354.0058910570588
 20
431.1767891075579
 10
354.0058910570588
 20
431.1767891075579
 10
354.0058910570588
 20
431.1767891075579
 10
356.009791006436
 20
431.1767891075579
 10
356.009791006436
 20
431.1767891075579
 10
355.9198910087071
 20
431.3085891042283
 10
355.8690910099904
 20
431.4667891002318
 10
355.8690910099904
 20
431.6361890959524
 10
355.8690910099904
 20
431.8651890901674
 10
355.9628910076208
 20
432.0717890849483
 10
356.1112910038719
 20
432.2211890811741
 10
356.2606910000977
 20
432.3700890774126
 10
356.4667909948912
 20
432.4628890750682
 10
356.6952909891188
 20
432.4628890750682
 10
356.9237909833464
 20
432.4628890750682
 10
357.1308909781146
 20
432.3700890774126
 10
357.2792909743657
 20
432.2211890811741
 10
357.4296909705663
 20
432.0717890849483
 10
357.522490968222
 20
431.8651890901674
 10
357.522490968222
 20
431.6361890959524
 10
357.522490968222
 20
431.4667891002318
 10
357.4706909695306
 20
431.3085891042283
 10
357.3827909717511
 20
431.1767891075579
 10
357.3827909717511
 20
431.1767891075579
 10
363.4667908180563
 20
431.1767891075579
 10
363.4667908180563
 20
431.1767891075579
 10
363.3778908203021
 20
431.3085891042283
 10
363.3261908216082
 20
431.4667891002318
 10
363.3261908216082
 20
431.6361890959524
 10
363.3261908216082
 20
431.8651890901674
 10
363.4198908192411
 20
432.0717890849483
 10
363.5683908154897
 20
432.2211890811741
 10
363.7177908117155
 20
432.3700890774126
 10
363.9247908064863
 20
432.4628890750682
 10
364.1532908007139
 20
432.4628890750682
 10
364.3808907949642
 20
432.4628890750682
 10
364.587890789735
 20
432.3700890774126
 10
364.7382907859355
 20
432.2211890811741
 10
364.8866907821866
 20
432.0717890849483
 10
364.980490779817
 20
431.8651890901674
 10
364.980490779817
 20
431.6361890959524
 10
364.980490779817
 20
431.4667891002318
 10
364.9276907811509
 20
431.3085891042283
 10
364.8397907833714
 20
431.1767891075579
 10
364.8397907833714
 20
431.1767891075579
 10
367.1591907247785
 20
431.1767891075579
 10
367.1591907247785
 20
431.1767891075579
 10
367.1591907247785
 20
431.1767891075579
 10
367.1435907251725
 20
431.1918891071764
 10
367.1435907251725
 20
431.1918891071764
 10
367.1435907251725
 20
431.1918891071764
 10
367.1425907251978
 20
431.1923891071638
 10
367.1425907251978
 20
431.1923891071638
 10
367.1425907251978
 20
431.1923891071638
 10
367.1405907252483
 20
431.1933891071385
 10
367.1405907252483
 20
431.1933891071385
 10
366.861290732304
 20
431.4750891000222
 10
366.6874907366946
 20
431.8612890902659
 10
366.6874907366946
 20
432.2880890794841
 10
366.6874907366946
 20
432.6981890691241
 10
366.8485907326249
 20
433.0736890596381
 10
367.1112907259885
 20
433.3515890526178
 10
367.1112907259885
 20
433.3515890526178
 10
367.1112907259885
 20
433.3515890526178
 10
367.1112907259885
 20
433.3515890526178
 97
        0
 92
        1
 93
        1
 72
     4
 94
        3
 73
     0
 74
     1
 95
       44
 96
       40
 40
0.0
 40
0.0
 40
0.0
 40
0.0
 40
1.0
 40
1.0
 40
1.0
 40
2.0
 40
2.0
 40
2.0
 40
3.0
 40
3.0
 40
3.0
 40
4.0
 40
4.0
 40
4.0
 40
5.0
 40
5.0
 40
5.0
 40
6.0
 40
6.0
 40
6.0
 40
7.0
 40
7.0
 40
7.0
 40
8.0
 40
8.0
 40
8.0
 40
9.0
 40
9.0
 40
9.0
 40
10.0
 40
10.0
 40
10.0
 40
11.0
 40
11.0
 40
11.0
 40
12.0
 40
12.0
 40
12.0
 40
13.0
 40
13.0
 40
13.0
 40
13.0
 10
368.738290684887
 20
431.784689092201
 10
368.6112906880953
 20
431.6566890954346
 10
368.4335906925844
 20
431.5780890974202
 10
368.2382906975181
 20
431.5780890974202
 10
368.0400000000009
 20
431.5780890974202
 10
367.8622907070167
 20
431.6566890954346
 10
367.7353907102224
 20
431.784689092201
 10
367.7353907102224
 20
431.784689092201
 10
367.7333907102729
 20
431.7855890921783
 10
367.7333907102729
 20
431.7855890921783
 10
367.6063907134812
 20
431.9135890889447
 10
367.5272907154795
 20
432.0907890844683
 10
367.5272907154795
 20
432.2880890794841
 10
367.5272907154795
 20
432.4853890744998
 10
367.6063907134812
 20
432.662089070036
 10
367.7333907102729
 20
432.79
 10
367.7333907102729
 20
432.79
 10
367.7353907102224
 20
432.7904890667924
 10
367.7353907102224
 20
432.7904890667924
 10
367.8622907070167
 20
432.9188890635487
 10
368.0400000000009
 20
432.9975890615606
 10
368.2382906975181
 20
432.9975890615606
 10
368.4335906925844
 20
432.9975890615606
 10
368.6112906880953
 20
432.9188890635487
 10
368.738290684887
 20
432.7904890667924
 10
368.738290684887
 20
432.7904890667924
 10
368.740190684839
 20
432.79
 10
368.740190684839
 20
432.79
 10
368.8690906815827
 20
432.662089070036
 10
368.9472906796072
 20
432.4853890744998
 10
368.9472906796072
 20
432.2880890794841
 10
368.9472906796072
 20
432.0907890844683
 10
368.8690906815827
 20
431.9135890889447
 10
368.740190684839
 20
431.7855890921783
 10
368.740190684839
 20
431.7855890921783
 10
368.738290684887
 20
431.784689092201
 10
368.738290684887
 20
431.784689092201
 10
368.738290684887
 20
431.784689092201
 10
368.738290684887
 20
431.784689092201
 10
368.738290684887
 20
431.784689092201
 97
        0
 92
        1
 93
        1
 72
     4
 94
        3
 73
     0
 74
     1
 95
       32
 96
       28
 40
0.0
 40
0.0
 40
0.0
 40
0.0
 40
1.0
 40
1.0
 40
1.0
 40
2.0
 40
2.0
 40
2.0
 40
3.0
 40
3.0
 40
3.0
 40
4.0
 40
4.0
 40
4.0
 40
5.0
 40
5.0
 40
5.0
 40
6.0
 40
6.0
 40
6.0
 40
7.0
 40
7.0
 40
7.0
 40
8.0
 40
8.0
 40
8.0
 40
9.0
 40
9.0
 40
9.0
 40
9.0
 10
364.341790795952
 20
431.4486891006891
 10
364.2929999999997
 20
431.4003891019092
 10
364.2265907988622
 20
431.3705891026621
 10
364.1532908007139
 20
431.3705891026621
 10
364.0790908025883
 20
431.3705891026621
 10
364.0126908042657
 20
431.4003891019092
 10
363.9647908054758
 20
431.4486891006891
 10
363.9159999999993
 20
431.496589099479
 10
363.8866908074488
 20
431.563489097789
 10
363.8866908074488
 20
431.6361890959524
 10
363.8866908074488
 20
431.710389094078
 10
363.9159999999993
 20
431.7772890923879
 10
363.9647908054758
 20
431.8256890911653
 10
364.0126908042657
 20
431.8734890899577
 10
364.0790908025883
 20
431.9032890892049
 10
364.1532908007139
 20
431.9032890892049
 10
364.2265907988622
 20
431.9032890892049
 10
364.2929999999997
 20
431.8734890899577
 10
364.341790795952
 20
431.8256890911653
 10
364.3895907947444
 20
431.7772890923879
 10
364.419890793979
 20
431.710389094078
 10
364.419890793979
 20
431.6361890959524
 10
364.419890793979
 20
431.563489097789
 10
364.3895907947444
 20
431.496589099479
 10
364.341790795952
 20
431.4486891006891
 10
364.341790795952
 20
431.4486891006891
 10
364.341790795952
 20
431.4486891006891
 10
364.341790795952
 20
431.4486891006891
 97
        0
 92
        1
 93
        1
 72
     4
 94
        3
 73
     0
 74
     1
 95
       32
 96
       28
 40
0.0
 40
0.0
 40
0.0
 40
0.0
 40
1.0
 40
1.0
 40
1.0
 40
2.0
 40
2.0
 40
2.0
 40
3.0
 40
3.0
 40
3.0
 40
4.0
 40
4.0
 40
4.0
 40
5.0
 40
5.0
 40
5.0
 40
6.0
 40
6.0
 40
6.0
 40
7.0
 40
7.0
 40
7.0
 40
8.0
 40
8.0
 40
8.0
 40
9.0
 40
9.0
 40
9.0
 40
9.0
 10
356.8837909843569
 20
431.4486891006891
 10
356.8358909855669
 20
431.4003891019092
 10
356.7694909872444
 20
431.3705891026621
 10
356.6952909891188
 20
431.3705891026621
 10
356.6210909909933
 20
431.3705891026621
 10
356.5546909926707
 20
431.4003891019092
 10
356.5067909938807
 20
431.4486891006891
 10
356.4590000000007
 20
431.496589099479
 10
356.4296909958284
 20
431.563489097789
 10
356.4296909958284
 20
431.6361890959524
 10
356.4296909958284
 20
431.710389094078
 10
356.4590000000007
 20
431.7772890923879
 10
356.5067909938807
 20
431.8256890911653
 10
356.5546909926707
 20
431.8734890899577
 10
356.6210909909933
 20
431.9032890892049
 10
356.6952909891188
 20
431.9032890892049
 10
356.7694909872444
 20
431.9032890892049
 10
356.8358909855669
 20
431.8734890899577
 10
356.8837909843569
 20
431.8256890911653
 10
356.9315909831494
 20
431.7772890923879
 10
356.9618909823839
 20
431.710389094078
 10
356.9618909823839
 20
431.6361890959524
 10
356.9618909823839
 20
431.563489097789
 10
356.9315909831494
 20
431.496589099479
 10
356.8837909843569
 20
431.4486891006891
 10
356.8837909843569
 20
431.4486891006891
 10
356.8837909843569
 20
431.4486891006891
 10
356.8837909843569
 20
431.4486891006891
 97
        0
 92
        1
 93
        1
 72
     4
 94
        3
 73
     0
 74
     1
 95
       32
 96
       28
 40
0.0
 40
0.0
 40
0.0
 40
0.0
 40
1.0
 40
1.0
 40
1.0
 40
2.0
 40
2.0
 40
2.0
 40
3.0
 40
3.0
 40
3.0
 40
4.0
 40
4.0
 40
4.0
 40
5.0
 40
5.0
 40
5.0
 40
6.0
 40
6.0
 40
6.0
 40
7.0
 40
7.0
 40
7.0
 40
8.0
 40
8.0
 40
8.0
 40
9.0
 40
9.0
 40
9.0
 40
9.0
 10
355.2362910259762
 20
433.8793890392844
 10
355.3368910234349
 20
433.9813890367077
 10
355.4003910218307
 20
434.1215890331659
 10
355.4003910218307
 20
434.2753890292806
 10
355.4003910218307
 20
434.4301890253701
 10
355.3368910234349
 20
434.5697890218435
 10
355.2362910259762
 20
434.6708890192895
 10
355.1347910285403
 20
434.7714890167481
 10
354.9950910320695
 20
434.835
 10
354.8397910359927
 20
434.835
 10
354.6854910398906
 20
434.835
 10
354.5448910434425
 20
434.7714890167481
 10
354.4452910459586
 20
434.6708890192895
 10
354.3437910485227
 20
434.5697890218435
 10
354.2812910501016
 20
434.4301890253701
 10
354.2812910501016
 20
434.2753890292806
 10
354.2812910501016
 20
434.1215890331659
 10
354.3437910485227
 20
433.9813890367077
 10
354.4452910459586
 20
433.8793890392844
 10
354.5448910434425
 20
433.7782890418384
 10
354.6854910398906
 20
433.7162890434047
 10
354.8397910359927
 20
433.7162890434047
 10
354.9950910320695
 20
433.7162890434047
 10
355.1347910285403
 20
433.7782890418384
 10
355.2362910259762
 20
433.8793890392844
 10
355.2362910259762
 20
433.8793890392844
 10
355.2362910259762
 20
433.8793890392844
 10
355.2362910259762
 20
433.8793890392844
 97
        0
 92
        1
 93
        1
 72
     4
 94
        3
 73
     0
 74
     1
 95
       32
 96
       28
 40
0.0
 40
0.0
 40
0.0
 40
0.0
 40
1.0
 40
1.0
 40
1.0
 40
2.0
 40
2.0
 40
2.0
 40
3.0
 40
3.0
 40
3.0
 40
4.0
 40
4.0
 40
4.0
 40
5.0
 40
5.0
 40
5.0
 40
6.0
 40
6.0
 40
6.0
 40
7.0
 40
7.0
 40
7.0
 40
8.0
 40
8.0
 40
8.0
 40
9.0
 40
9.0
 40
9.0
 40
9.0
 10
366.875
 20
433.8793890392844
 10
366.9765907293913
 20
433.9813890367077
 10
367.0390907278124
 20
434.1215890331659
 10
367.0390907278124
 20
434.2753890292806
 10
367.0390907278124
 20
434.4301890253701
 10
366.9765907293913
 20
434.5697890218435
 10
366.875
 20
434.6708890192895
 10
366.7743907344993
 20
434.7714890167481
 10
366.6347907380259
 20
434.835
 10
366.4804907419239
 20
434.835
 10
366.3261907458218
 20
434.835
 10
366.1864907493509
 20
434.7714890167481
 10
366.0849999999991
 20
434.6708890192895
 10
365.9833907544817
 20
434.5697890218435
 10
365.9218907560353
 20
434.4301890253701
 10
365.9218907560353
 20
434.2753890292806
 10
365.9218907560353
 20
434.1215890331659
 10
365.9833907544817
 20
433.9813890367077
 10
366.0849999999991
 20
433.8793890392844
 10
366.1864907493509
 20
433.7782890418384
 10
366.3261907458218
 20
433.7162890434047
 10
366.4804907419239
 20
433.7162890434047
 10
366.6347907380259
 20
433.7162890434047
 10
366.7743907344993
 20
433.7782890418384
 10
366.875
 20
433.8793890392844
 10
366.875
 20
433.8793890392844
 10
366.875
 20
433.8793890392844
 10
366.875
 20
433.8793890392844
 97
        0
 92
        1
 93
        1
 72
     4
 94
        3
 73
     0
 74
     1
 95
       32
 96
       28
 40
0.0
 40
0.0
 40
0.0
 40
0.0
 40
1.0
 40
1.0
 40
1.0
 40
2.0
 40
2.0
 40
2.0
 40
3.0
 40
3.0
 40
3.0
 40
4.0
 40
4.0
 40
4.0
 40
5.0
 40
5.0
 40
5.0
 40
6.0
 40
6.0
 40
6.0
 40
7.0
 40
7.0
 40
7.0
 40
8.0
 40
8.0
 40
8.0
 40
9.0
 40
9.0
 40
9.0
 40
9.0
 10
364.6288907886992
 20
433.8793890392844
 10
364.7294907861578
 20
433.9813890367077
 10
364.7929999999997
 20
434.1215890331659
 10
364.7929999999997
 20
434.2753890292806
 10
364.7929999999997
 20
434.4301890253701
 10
364.7294907861578
 20
434.5697890218435
 10
364.6288907886992
 20
434.6708890192895
 10
364.5272907912658
 20
434.7714890167481
 10
364.3876907947924
 20
434.835
 10
364.2323907987156
 20
434.835
 10
364.0780908026136
 20
434.835
 10
363.9384908061402
 20
434.7714890167481
 10
363.8378908086815
 20
434.6708890192895
 10
363.7362908112482
 20
434.5697890218435
 10
363.6737908128271
 20
434.4301890253701
 10
363.6737908128271
 20
434.2753890292806
 10
363.6737908128271
 20
434.1215890331659
 10
363.7362908112482
 20
433.9813890367077
 10
363.8378908086815
 20
433.8793890392844
 10
363.9384908061402
 20
433.7782890418384
 10
364.0780908026136
 20
433.7162890434047
 10
364.2323907987156
 20
433.7162890434047
 10
364.3876907947924
 20
433.7162890434047
 10
364.5272907912658
 20
433.7782890418384
 10
364.6288907886992
 20
433.8793890392844
 10
364.6288907886992
 20
433.8793890392844
 10
364.6288907886992
 20
433.8793890392844
 10
364.6288907886992
 20
433.8793890392844
 97
        0
 92
        1
 93
        1
 72
     4
 94
        3
 73
     0
 74
     1
 95
       32
 96
       28
 40
0.0
 40
0.0
 40
0.0
 40
0.0
 40
1.0
 40
1.0
 40
1.0
 40
2.0
 40
2.0
 40
2.0
 40
3.0
 40
3.0
 40
3.0
 40
4.0
 40
4.0
 40
4.0
 40
5.0
 40
5.0
 40
5.0
 40
6.0
 40
6.0
 40
6.0
 40
7.0
 40
7.0
 40
7.0
 40
8.0
 40
8.0
 40
8.0
 40
9.0
 40
9.0
 40
9.0
 40
9.0
 10
362.3202908470194
 20
433.8793890392844
 10
362.420890844478
 20
433.9813890367077
 10
362.4843908428738
 20
434.1215890331659
 10
362.4843908428738
 20
434.2753890292806
 10
362.4843908428738
 20
434.4301890253701
 10
362.420890844478
 20
434.5697890218435
 10
362.3202908470194
 20
434.6708890192895
 10
362.2187908495835
 20
434.7714890167481
 10
362.0790908531126
 20
434.835
 10
361.9237908570358
 20
434.835
 10
361.7694908609337
 20
434.835
 10
361.6298908644603
 20
434.7714890167481
 10
361.5292908670017
 20
434.6708890192895
 10
361.4276908695683
 20
434.5697890218435
 10
361.3651908711472
 20
434.4301890253701
 10
361.3651908711472
 20
434.2753890292806
 10
361.3651908711472
 20
434.1215890331659
 10
361.4276908695683
 20
433.9813890367077
 10
361.5292908670017
 20
433.8793890392844
 10
361.6298908644603
 20
433.7782890418384
 10
361.7694908609337
 20
433.7162890434047
 10
361.9237908570358
 20
433.7162890434047
 10
362.0790908531126
 20
433.7162890434047
 10
362.2187908495835
 20
433.7782890418384
 10
362.3202908470194
 20
433.8793890392844
 10
362.3202908470194
 20
433.8793890392844
 10
362.3202908470194
 20
433.8793890392844
 10
362.3202908470194
 20
433.8793890392844
 97
        0
 92
        1
 93
        1
 72
     4
 94
        3
 73
     0
 74
     1
 95
       32
 96
       28
 40
0.0
 40
0.0
 40
0.0
 40
0.0
 40
1.0
 40
1.0
 40
1.0
 40
2.0
 40
2.0
 40
2.0
 40
3.0
 40
3.0
 40
3.0
 40
4.0
 40
4.0
 40
4.0
 40
5.0
 40
5.0
 40
5.0
 40
6.0
 40
6.0
 40
6.0
 40
7.0
 40
7.0
 40
7.0
 40
8.0
 40
8.0
 40
8.0
 40
9.0
 40
9.0
 40
9.0
 40
9.0
 10
359.9647909065243
 20
433.8793890392844
 10
360.0663909039577
 20
433.9813890367077
 10
360.1288909023788
 20
434.1215890331659
 10
360.1288909023788
 20
434.2753890292806
 10
360.1288909023788
 20
434.4301890253701
 10
360.0663909039577
 20
434.5697890218435
 10
359.9647909065243
 20
434.6708890192895
 10
359.8632909090884
 20
434.7714890167481
 10
359.7245909125922
 20
434.835
 10
359.5692909165155
 20
434.835
 10
359.4140909204361
 20
434.835
 10
359.2743909239653
 20
434.7714890167481
 10
359.1737909265066
 20
434.6708890192895
 10
359.0722909290707
 20
434.5697890218435
 10
359.0097909306496
 20
434.4301890253701
 10
359.0097909306496
 20
434.2753890292806
 10
359.0097909306496
 20
434.1215890331659
 10
359.0722909290707
 20
433.9813890367077
 10
359.1737909265066
 20
433.8793890392844
 10
359.2743909239653
 20
433.7782890418384
 10
359.4140909204361
 20
433.7162890434047
 10
359.5692909165155
 20
433.7162890434047
 10
359.7245909125922
 20
433.7162890434047
 10
359.8632909090884
 20
433.7782890418384
 10
359.9647909065243
 20
433.8793890392844
 10
359.9647909065243
 20
433.8793890392844
 10
359.9647909065243
 20
433.8793890392844
 10
359.9647909065243
 20
433.8793890392844
 97
        0
 92
        1
 93
        1
 72
     4
 94
        3
 73
     0
 74
     1
 95
       32
 96
       28
 40
0.0
 40
0.0
 40
0.0
 40
0.0
 40
1.0
 40
1.0
 40
1.0
 40
2.0
 40
2.0
 40
2.0
 40
3.0
 40
3.0
 40
3.0
 40
4.0
 40
4.0
 40
4.0
 40
5.0
 40
5.0
 40
5.0
 40
6.0
 40
6.0
 40
6.0
 40
7.0
 40
7.0
 40
7.0
 40
8.0
 40
8.0
 40
8.0
 40
9.0
 40
9.0
 40
9.0
 40
9.0
 10
357.6171909658296
 20
433.8793890392844
 10
357.718790963263
 20
433.9813890367077
 10
357.7812909616841
 20
434.1215890331659
 10
357.7812909616841
 20
434.2753890292806
 10
357.7812909616841
 20
434.4301890253701
 10
357.718790963263
 20
434.5697890218435
 10
357.6171909658296
 20
434.6708890192895
 10
357.5155909683963
 20
434.7714890167481
 10
357.3760000000002
 20
434.835
 10
357.2226909757956
 20
434.835
 10
357.0683909796935
 20
434.835
 10
356.9276909832479
 20
434.7714890167481
 10
356.826190985812
 20
434.6708890192895
 10
356.7245909883786
 20
434.5697890218435
 10
356.6630909899322
 20
434.4301890253701
 10
356.6630909899322
 20
434.2753890292806
 10
356.6630909899322
 20
434.1215890331659
 10
356.7245909883786
 20
433.9813890367077
 10
356.826190985812
 20
433.8793890392844
 10
356.9276909832479
 20
433.7782890418384
 10
357.0683909796935
 20
433.7162890434047
 10
357.2226909757956
 20
433.7162890434047
 10
357.3760000000002
 20
433.7162890434047
 10
357.5155909683963
 20
433.7782890418384
 10
357.6171909658296
 20
433.8793890392844
 10
357.6171909658296
 20
433.8793890392844
 10
357.6171909658296
 20
433.8793890392844
 10
357.6171909658296
 20
433.8793890392844
 97
        0
 92
        1
 93
        1
 72
     4
 94
        3
 73
     0
 74
     1
 95
       41
 96
       37
 40
0.0
 40
0.0
 40
0.0
 40
0.0
 40
1.0
 40
1.0
 40
1.0
 40
2.0
 40
2.0
 40
2.0
 40
3.0
 40
3.0
 40
3.0
 40
4.0
 40
4.0
 40
4.0
 40
5.0
 40
5.0
 40
5.0
 40
6.0
 40
6.0
 40
6.0
 40
7.0
 40
7.0
 40
7.0
 40
8.0
 40
8.0
 40
8.0
 40
9.0
 40
9.0
 40
9.0
 40
10.0
 40
10.0
 40
10.0
 40
11.0
 40
11.0
 40
11.0
 40
12.0
 40
12.0
 40
12.0
 40
12.0
 10
353.4296910716148
 20
431.784689092201
 10
353.3007910748711
 20
431.6566890954346
 10
353.125
 20
431.5780890974202
 10
352.9267910843191
 20
431.5780890974202
 10
352.7294910893033
 20
431.5780890974202
 10
352.5526910937697
 20
431.6566890954346
 10
352.4257910969754
 20
431.784689092201
 10
352.4257910969754
 20
431.784689092201
 10
352.423791097026
 20
431.7855890921783
 10
352.423791097026
 20
431.7855890921783
 10
352.295891100257
 20
431.9135890889447
 10
352.2167911022552
 20
432.0907890844683
 10
352.2167911022552
 20
432.2880890794841
 10
352.2167911022552
 20
432.4853890744998
 10
352.295891100257
 20
432.662089070036
 10
352.423791097026
 20
432.79
 10
352.423791097026
 20
432.79
 10
352.4257910969754
 20
432.7904890667924
 10
352.4257910969754
 20
432.7904890667924
 10
352.5526910937697
 20
432.9188890635487
 10
352.7294910893033
 20
432.9975890615606
 10
352.9267910843191
 20
432.9975890615606
 10
353.125
 20
432.9975890615606
 10
353.3007910748711
 20
432.9188890635487
 10
353.4296910716148
 20
432.7904890667924
 10
353.4296910716148
 20
432.7904890667924
 10
353.4306910715895
 20
432.79
 10
353.4306910715895
 20
432.79
 10
353.5575910683838
 20
432.662089070036
 10
353.6366910663855
 20
432.4853890744998
 10
353.6366910663855
 20
432.2880890794841
 10
353.6366910663855
 20
432.0907890844683
 10
353.5575910683838
 20
431.9135890889447
 10
353.4306910715895
 20
431.7855890921783
 10
353.4306910715895
 20
431.7855890921783
 10
353.4296910716148
 20
431.784689092201
 10
353.4296910716148
 20
431.784689092201
 97
        0
 75
     0
 76
     1
 98
        0
  0
SPLINE
  5
84
330
14
100
AcDbEntity
  8
Layer 1
370
     0
100
AcDbSpline
210
0.0
220
0.0
230
1.0
 70
    11
 71
     3
 72
   263
 73
   259
 74
     0
 42
0.000000001
 43
0.0000000001
 40
0.0
 40
0.0
 40
0.0
 40
0.0
 40
1.0
 40
1.0
 40
1.0
 40
2.0
 40
2.0
 40
2.0
 40
3.0
 40
3.0
 40
3.0
 40
4.0
 40
4.0
 40
4.0
 40
5.0
 40
5.0
 40
5.0
 40
6.0
 40
6.0
 40
6.0
 40
7.0
 40
7.0
 40
7.0
 40
8.0
 40
8.0
 40
8.0
 40
9.0
 40
9.0
 40
9.0
 40
10.0
 40
10.0
 40
10.0
 40
11.0
 40
11.0
 40
11.0
 40
12.0
 40
12.0
 40
12.0
 40
13.0
 40
13.0
 40
13.0
 40
14.0
 40
14.0
 40
14.0
 40
15.0
 40
15.0
 40
15.0
 40
16.0
 40
16.0
 40
16.0
 40
17.0
 40
17.0
 40
17.0
 40
18.0
 40
18.0
 40
18.0
 40
19.0
 40
19.0
 40
19.0
 40
20.0
 40
20.0
 40
20.0
 40
21.0
 40
21.0
 40
21.0
 40
22.0
 40
22.0
 40
22.0
 40
23.0
 40
23.0
 40
23.0
 40
24.0
 40
24.0
 40
24.0
 40
25.0
 40
25.0
 40
25.0
 40
26.0
 40
26.0
 40
26.0
 40
27.0
 40
27.0
 40
27.0
 40
28.0
 40
28.0
 40
28.0
 40
29.0
 40
29.0
 40
29.0
 40
30.0
 40
30.0
 40
30.0
 40
31.0
 40
31.0
 40
31.0
 40
32.0
 40
32.0
 40
32.0
 40
33.0
 40
33.0
 40
33.0
 40
34.0
 40
34.0
 40
34.0
 40
35.0
 40
35.0
 40
35.0
 40
36.0
 40
36.0
 40
36.0
 40
37.0
 40
37.0
 40
37.0
 40
38.0
 40
38.0
 40
38.0
 40
39.0
 40
39.0
 40
39.0
 40
40.0
 40
40.0
 40
40.0
 40
41.0
 40
41.0
 40
41.0
 40
42.0
 40
42.0
 40
42.0
 40
43.0
 40
43.0
 40
43.0
 40
44.0
 40
44.0
 40
44.0
 40
45.0
 40
45.0
 40
45.0
 40
46.0
 40
46.0
 40
46.0
 40
47.0
 40
47.0
 40
47.0
 40
48.0
 40
48.0
 40
48.0
 40
49.0
 40
49.0
 40
49.0
 40
50.0
 40
50.0
 40
50.0
 40
51.0
 40
51.0
 40
51.0
 40
52.0
 40
52.0
 40
52.0
 40
53.0
 40
53.0
 40
53.0
 40
54.0
 40
54.0
 40
54.0
 40
55.0
 40
55.0
 40
55.0
 40
56.0
 40
56.0
 40
56.0
 40
57.0
 40
57.0
 40
57.0
 40
58.0
 40
58.0
 40
58.0
 40
59.0
 40
59.0
 40
59.0
 40
60.0
 40
60.0
 40
60.0
 40
61.0
 40
61.0
 40
61.0
 40
62.0
 40
62.0
 40
62.0
 40
63.0
 40
63.0
 40
63.0
 40
64.0
 40
64.0
 40
64.0
 40
65.0
 40
65.0
 40
65.0
 40
66.0
 40
66.0
 40
66.0
 40
67.0
 40
67.0
 40
67.0
 40
68.0
 40
68.0
 40
68.0
 40
69.0
 40
69.0
 40
69.0
 40
70.0
 40
70.0
 40
70.0
 40
71.0
 40
71.0
 40
71.0
 40
72.0
 40
72.0
 40
72.0
 40
73.0
 40
73.0
 40
73.0
 40
74.0
 40
74.0
 40
74.0
 40
75.0
 40
75.0
 40
75.0
 40
76.0
 40
76.0
 40
76.0
 40
77.0
 40
77.0
 40
77.0
 40
78.0
 40
78.0
 40
78.0
 40
79.0
 40
79.0
 40
79.0
 40
80.0
 40
80.0
 40
80.0
 40
81.0
 40
81.0
 40
81.0
 40
82.0
 40
82.0
 40
82.0
 40
83.0
 40
83.0
 40
83.0
 40
84.0
 40
84.0
 40
84.0
 40
85.0
 40
85.0
 40
85.0
 40
86.0
 40
86.0
 40
86.0
 40
86.0
 10
350.5038911455267
 20
440.856888863018
 30
0.0
 10
350.5038911455267
 20
440.856888863018
 30
0.0
 10
349.2011911784357
 20
445.3671887490782
 30
0.0
 10
349.2011911784357
 20
445.3671887490782
 30
0.0
 10
349.2011911784357
 20
445.3671887490782
 30
0.0
 10
348.3798911991835
 20
446.0482887318722
 30
0.0
 10
348.3798911991835
 20
446.0482887318722
 30
0.0
 10
347.7128912160333
 20
446.567888718746
 30
0.0
 10
346.9940912341917
 20
446.909188710124
 30
0.0
 10
346.1933912544191
 20
446.968288708631
 30
0.0
 10
346.1933912544191
 20
446.968288708631
 30
0.0
 10
339.6054914208435
 20
446.6356887170332
 30
0.0
 10
339.6054914208435
 20
446.6356887170332
 30
0.0
 10
339.6054914208435
 20
446.6356887170332
 30
0.0
 10
341.2812913785092
 20
439.029288909187
 30
0.0
 10
341.2812913785092
 20
439.029288909187
 30
0.0
 10
341.2812913785092
 20
439.029288909187
 30
0.0
 10
342.0390913593656
 20
439.1332889065598
 30
0.0
 10
342.0390913593656
 20
439.1332889065598
 30
0.0
 10
343.8866913126913
 20
438.0067889350175
 30
0.0
 10
345.4921912721329
 20
438.3314889268149
 30
0.0
 10
346.9570000000003
 20
439.506288897137
 30
0.0
 10
346.9570000000003
 20
439.506288897137
 30
0.0
 10
347.3515912251605
 20
439.2690000000002
 30
0.0
 10
347.3515912251605
 20
439.2690000000002
 30
0.0
 10
347.3515912251605
 20
439.2690000000002
 30
0.0
 10
348.2353912028339
 20
440.4696888727995
 30
0.0
 10
348.2353912028339
 20
440.4696888727995
 30
0.0
 10
348.2353912028339
 20
440.4696888727995
 30
0.0
 10
348.5526911948182
 20
440.152788880805
 30
0.0
 10
348.5526911948182
 20
440.152788880805
 30
0.0
 10
348.5526911948182
 20
440.152788880805
 30
0.0
 10
347.4159999999993
 20
438.2118889298363
 30
0.0
 10
347.4159999999993
 20
438.2118889298363
 30
0.0
 10
347.4159999999993
 20
438.2118889298363
 30
0.0
 10
347.0507912327594
 20
438.4267889244074
 30
0.0
 10
347.0507912327594
 20
438.4267889244074
 30
0.0
 10
347.0507912327594
 20
438.4267889244074
 30
0.0
 10
344.6562912932495
 20
434.7709999999997
 30
0.0
 10
344.6562912932495
 20
434.7709999999997
 30
0.0
 10
343.5820000000003
 20
434.0741890343634
 30
0.0
 10
342.5077913475252
 20
433.9916890364475
 30
0.0
 10
341.4354913746138
 20
434.5985890211159
 30
0.0
 10
341.4354913746138
 20
434.5985890211159
 30
0.0
 10
340.7821913911175
 20
436.7553889666306
 30
0.0
 10
340.7821913911175
 20
436.7553889666306
 30
0.0
 10
340.7821913911175
 20
436.7553889666306
 30
0.0
 10
338.875
 20
436.9315889621794
 30
0.0
 10
338.875
 20
436.9315889621794
 30
0.0
 10
338.875
 20
436.9315889621794
 30
0.0
 10
338.6562914448223
 20
436.9506889616969
 30
0.0
 10
338.6562914448223
 20
436.9506889616969
 30
0.0
 10
338.6562914448223
 20
436.9506889616969
 30
0.0
 10
338.5937914464012
 20
437.1591889564297
 30
0.0
 10
338.5937914464012
 20
437.1591889564297
 30
0.0
 10
338.5937914464012
 20
437.1591889564297
 30
0.0
 10
338.1474914576756
 20
438.6112889197466
 30
0.0
 10
338.1474914576756
 20
438.6112889197466
 30
0.0
 10
338.1474914576756
 20
438.6112889197466
 30
0.0
 10
338.0761914594768
 20
438.8446889138504
 30
0.0
 10
338.0761914594768
 20
438.8446889138504
 30
0.0
 10
338.0761914594768
 20
438.8446889138504
 30
0.0
 10
338.2772914543966
 20
438.9780000000001
 30
0.0
 10
338.2772914543966
 20
438.9780000000001
 30
0.0
 10
338.2772914543966
 20
438.9780000000001
 30
0.0
 10
339.3280914278512
 20
439.6698888930041
 30
0.0
 10
339.3280914278512
 20
439.6698888930041
 30
0.0
 10
339.3280914278512
 20
439.6698888930041
 30
0.0
 10
338.7655914420611
 20
441.9384888356944
 30
0.0
 10
338.7655914420611
 20
441.9384888356944
 30
0.0
 10
338.7655914420611
 20
441.9384888356944
 30
0.0
 10
338.6005914462294
 20
441.8974888367302
 30
0.0
 10
338.6005914462294
 20
441.8974888367302
 30
0.0
 10
338.6005914462294
 20
441.8974888367302
 30
0.0
 10
337.6972914690487
 20
445.5404887447003
 30
0.0
 10
337.6972914690487
 20
445.5404887447003
 30
0.0
 10
337.6972914690487
 20
445.5404887447003
 30
0.0
 10
337.2870914794112
 20
445.5888887434776
 30
0.0
 10
337.2870914794112
 20
445.5888887434776
 30
0.0
 10
337.2870914794112
 20
445.5888887434776
 30
0.0
 10
336.625
 20
447.9032886850109
 30
0.0
 10
336.625
 20
447.9032886850109
 30
0.0
 10
336.625
 20
447.9032886850109
 30
0.0
 10
338.2538914549878
 20
448.475088670566
 30
0.0
 10
338.2538914549878
 20
448.475088670566
 30
0.0
 10
338.2538914549878
 20
448.475088670566
 30
0.0
 10
339.1210914330804
 20
448.839388661363
 30
0.0
 10
339.1210914330804
 20
448.839388661363
 30
0.0
 10
339.1210914330804
 20
448.839388661363
 30
0.0
 10
339.2138914307361
 20
448.4174886720211
 30
0.0
 10
339.2138914307361
 20
448.4174886720211
 30
0.0
 10
339.2138914307361
 20
448.4174886720211
 30
0.0
 10
341.6270000000004
 20
448.7943886624998
 30
0.0
 10
341.6270000000004
 20
448.7943886624998
 30
0.0
 10
341.6270000000004
 20
448.7943886624998
 30
0.0
 10
341.600591370443
 20
448.9623886582558
 30
0.0
 10
341.600591370443
 20
448.9623886582558
 30
0.0
 10
341.600591370443
 20
448.9623886582558
 30
0.0
 10
345.5536912705793
 20
449.5810886426261
 30
0.0
 10
345.5536912705793
 20
449.5810886426261
 30
0.0
 10
345.5536912705793
 20
449.5810886426261
 30
0.0
 10
345.625
 20
449.1288886540497
 30
0.0
 10
345.625
 20
449.1288886540497
 30
0.0
 10
345.625
 20
449.1288886540497
 30
0.0
 10
345.7050912667546
 20
449.4633886455995
 30
0.0
 10
345.7050912667546
 20
449.4633886455995
 30
0.0
 10
345.7050912667546
 20
449.4633886455995
 30
0.0
 10
347.0702912322668
 20
449.6645886405167
 30
0.0
 10
347.0702912322668
 20
449.6645886405167
 30
0.0
 10
347.0702912322668
 20
449.6645886405167
 30
0.0
 10
347.313491226123
 20
448.9813886577758
 30
0.0
 10
347.313491226123
 20
448.9813886577758
 30
0.0
 10
347.7763912144292
 20
448.9926886574904
 30
0.0
 10
348.1913912039454
 20
448.9467886586499
 30
0.0
 10
348.5526911948182
 20
448.839388661363
 30
0.0
 10
350.2196911527062
 20
447.7113886898587
 30
0.0
 10
351.887691110569
 20
446.5834887183519
 30
0.0
 10
353.554691068457
 20
445.4560887468324
 30
0.0
 10
353.5175910693943
 20
445.3270887500912
 30
0.0
 10
353.4823910702835
 20
445.1967887533829
 30
0.0
 10
353.4501910710969
 20
445.066388756677
 30
0.0
 10
353.2050910772887
 20
444.085
 30
0.0
 10
353.1083910797315
 20
443.0937888065091
 30
0.0
 10
353.1620910783749
 20
442.0834888320314
 30
0.0
 10
353.1620910783749
 20
442.0834888320314
 30
0.0
 10
350.0897911559878
 20
444.6308887676787
 30
0.0
 10
350.0897911559878
 20
444.6308887676787
 30
0.0
 10
350.0897911559878
 20
444.6308887676787
 30
0.0
 10
351.1308911296874
 20
441.0190000000002
 30
0.0
 10
351.1308911296874
 20
441.0190000000002
 30
0.0
 10
351.1308911296874
 20
441.0190000000002
 30
0.0
 10
351.4550911214974
 20
441.1034888567883
 30
0.0
 10
351.4550911214974
 20
441.1034888567883
 30
0.0
 10
351.4550911214974
 20
441.1034888567883
 30
0.0
 10
352.5010000000002
 20
437.3446889517436
 30
0.0
 10
352.5010000000002
 20
437.3446889517436
 30
0.0
 10
352.5010000000002
 20
437.3446889517436
 30
0.0
 10
358.9335909325746
 20
437.3446889517436
 30
0.0
 10
358.9335909325746
 20
437.3446889517436
 30
0.0
 10
358.9335909325746
 20
437.3446889517436
 30
0.0
 10
358.9335909325746
 20
438.2841889280098
 30
0.0
 10
358.9335909325746
 20
438.2841889280098
 30
0.0
 10
358.9335909325746
 20
438.2841889280098
 30
0.0
 10
353.9003910597239
 20
438.2841889280098
 30
0.0
 10
353.9003910597239
 20
438.2841889280098
 30
0.0
 10
353.9003910597239
 20
438.2841889280098
 30
0.0
 10
353.9003910597239
 20
439.3187889018736
 30
0.0
 10
353.9003910597239
 20
439.3187889018736
 30
0.0
 10
353.9003910597239
 20
439.3187889018736
 30
0.0
 10
354.7245910389029
 20
439.3187889018736
 30
0.0
 10
354.7245910389029
 20
439.3187889018736
 30
0.0
 10
354.7245910389029
 20
439.3187889018736
 30
0.0
 10
353.8320000000003
 20
441.9975888342015
 30
0.0
 10
353.8320000000003
 20
441.9975888342015
 30
0.0
 10
353.8320000000003
 20
441.9975888342015
 30
0.0
 10
353.8183910617954
 20
442.0390888331531
 30
0.0
 10
353.8183910617954
 20
442.0390888331531
 30
0.0
 10
353.8183910617954
 20
442.0390888331531
 30
0.0
 10
353.8153910618712
 20
442.0805888321047
 30
0.0
 10
353.8153910618712
 20
442.0805888321047
 30
0.0
 10
353.7577910633263
 20
443.1044888062388
 30
0.0
 10
353.8651910606131
 20
444.036588782692
 30
0.0
 10
354.0830000000005
 20
444.9086887606609
 30
0.0
 10
354.300791049609
 20
445.7768887387283
 30
0.0
 10
354.6229999999996
 20
446.5824887183771
 30
0.0
 10
354.9979999999996
 20
447.3588886987636
 30
0.0
 10
354.9979999999996
 20
447.3588886987636
 30
0.0
 10
355.0868910297504
 20
447.5434886941002
 30
0.0
 10
355.0868910297504
 20
447.5434886941002
 30
0.0
 10
355.0868910297504
 20
447.5434886941002
 30
0.0
 10
355.2909999999993
 20
447.5434886941002
 30
0.0
 10
355.2909999999993
 20
447.5434886941002
 30
0.0
 10
355.2909999999993
 20
447.5434886941002
 30
0.0
 10
361.6737908633513
 20
447.5434886941002
 30
0.0
 10
361.6737908633513
 20
447.5434886941002
 30
0.0
 10
361.6737908633513
 20
447.5434886941002
 30
0.0
 10
362.0
 20
447.5434886941002
 30
0.0
 10
362.0
 20
447.5434886941002
 30
0.0
 10
362.0
 20
447.5434886941002
 30
0.0
 10
362.0
 20
447.2177887023281
 30
0.0
 10
362.0
 20
447.2177887023281
 30
0.0
 10
362.0
 20
447.2177887023281
 30
0.0
 10
362.0
 20
443.0
 30
0.0
 10
362.0
 20
443.0
 30
0.0
 10
362.0
 20
443.0
 30
0.0
 10
369.6015906630782
 20
443.0
 30
0.0
 10
369.6015906630782
 20
443.0
 30
0.0
 10
369.6015906630782
 20
443.0
 30
0.0
 10
369.6015906630782
 20
439.3187889018736
 30
0.0
 10
369.6015906630782
 20
439.3187889018736
 30
0.0
 10
369.6015906630782
 20
439.3187889018736
 30
0.0
 10
370.1757906485727
 20
439.3187889018736
 30
0.0
 10
370.1757906485727
 20
439.3187889018736
 30
0.0
 10
370.1757906485727
 20
439.3187889018736
 30
0.0
 10
370.1757906485727
 20
438.2841889280098
 30
0.0
 10
370.1757906485727
 20
438.2841889280098
 30
0.0
 10
370.1757906485727
 20
438.2841889280098
 30
0.0
 10
363.7070000000003
 20
438.2841889280098
 30
0.0
 10
363.7070000000003
 20
438.2841889280098
 30
0.0
 10
363.7070000000003
 20
438.2841889280098
 30
0.0
 10
363.7070000000003
 20
437.3446889517436
 30
0.0
 10
363.7070000000003
 20
437.3446889517436
 30
0.0
 10
363.7070000000003
 20
437.3446889517436
 30
0.0
 10
370.1483906492649
 20
437.3446889517436
 30
0.0
 10
370.1483906492649
 20
437.3446889517436
 30
0.0
 10
370.1483906492649
 20
437.3446889517436
 30
0.0
 10
370.1483906492649
 20
433.951689037458
 30
0.0
 10
370.1483906492649
 20
433.951689037458
 30
0.0
 10
370.1483906492649
 20
433.951689037458
 30
0.0
 10
369.9374906545927
 20
433.951689037458
 30
0.0
 10
369.9374906545927
 20
433.951689037458
 30
0.0
 10
369.9374906545927
 20
433.951689037458
 30
0.0
 10
369.9003906555299
 20
433.9867890365713
 30
0.0
 10
369.9003906555299
 20
433.9867890365713
 30
0.0
 10
369.9003906555299
 20
433.9867890365713
 30
0.0
 10
368.3710906941633
 20
435.5102889980844
 30
0.0
 10
368.3710906941633
 20
435.5102889980844
 30
0.0
 10
368.0438907024291
 20
435.8353889898717
 30
0.0
 10
367.683590711531
 20
436.070788983925
 30
0.0
 10
367.2382907227802
 20
436.198688980694
 30
0.0
 10
366.8632907322535
 20
436.3075889779429
 30
0.0
 10
366.4823907418759
 20
436.322788977559
 30
0.0
 10
366.092790751718
 20
436.322788977559
 30
0.0
 10
366.092790751718
 20
436.322788977559
 30
0.0
 10
354.2177910517057
 20
436.322788977559
 30
0.0
 10
354.2177910517057
 20
436.322788977559
 30
0.0
 10
354.2177910517057
 20
436.322788977559
 30
0.0
 10
354.2177910517057
 20
436.3124889778192
 30
0.0
 10
354.2177910517057
 20
436.3124889778192
 30
0.0
 10
353.5761910679139
 20
436.2797889786452
 30
0.0
 10
353.146491078769
 20
436.1366889822602
 30
0.0
 10
352.5897910928325
 20
435.5020000000004
 30
0.0
 10
352.5897910928325
 20
435.5020000000004
 30
0.0
 10
351.269491126186
 20
433.9960890363363
 30
0.0
 10
351.269491126186
 20
433.9960890363363
 30
0.0
 10
351.269491126186
 20
433.9960890363363
 30
0.0
 10
351.2440911268277
 20
433.9643890371372
 30
0.0
 10
351.2440911268277
 20
433.9643890371372
 30
0.0
 10
351.2440911268277
 20
433.9643890371372
 30
0.0
 10
351.233391127098
 20
433.951689037458
 30
0.0
 10
351.233391127098
 20
433.951689037458
 30
0.0
 10
351.233391127098
 20
433.951689037458
 30
0.0
 10
350.1913911534211
 20
433.951689037458
 30
0.0
 10
350.1913911534211
 20
433.951689037458
 30
0.0
 10
350.1913911534211
 20
433.951689037458
 30
0.0
 10
350.1913911534211
 20
437.3446889517436
 30
0.0
 10
350.1913911534211
 20
437.3446889517436
 30
0.0
 10
350.1913911534211
 20
437.3446889517436
 30
0.0
 10
351.1288911297379
 20
437.3446889517436
 30
0.0
 10
351.1288911297379
 20
437.3446889517436
 30
0.0
 10
351.1288911297379
 20
437.3446889517436
 30
0.0
 10
350.1757911538152
 20
440.77288886514
 30
0.0
 10
350.1757911538152
 20
440.77288886514
 30
0.0
 10
350.1757911538152
 20
440.77288886514
 30
0.0
 10
350.5038911455267
 20
440.856888863018
 30
0.0
 10
350.5038911455267
 20
440.856888863018
 30
0.0
 10
350.5038911455267
 20
440.856888863018
 30
0.0
 10
350.5038911455267
 20
440.856888863018
 30
0.0
 10
350.5038911455267
 20
440.856888863018
 30
0.0
  0
ENDSEC
  0
SECTION
  2
OBJECTS
  0
DICTIONARY
  5
5
330
0
100
AcDbDictionary
281
     1
  3
ACAD_GROUP
350
21
  3
ACAD_LAYOUT
350
18
  3
ACAD_MATERIAL
350
7
  3
ACAD_MLEADERSTYLE
350
88
  3
ACAD_MLINESTYLE
350
12
  3
ACAD_PLOTSETTINGS
350
22
  3
ACAD_PLOTSTYLENAME
350
4
  3
ACAD_SCALELIST
350
29
  3
ACAD_TABLESTYLE
350
87
  3
ACAD_VISUALSTYLE
350
23
  3
AcDbVariableDictionary
350
85
  0
DICTIONARY
  5
A8
330
1F
100
AcDbDictionary
280
     1
281
     1
  3
ACAD_XREC_ROUNDTRIP
360
A9
  0
DICTIONARY
  5
21
102
{ACAD_REACTORS
330
5
102
}
330
5
100
AcDbDictionary
281
     1
  0
DICTIONARY
  5
18
102
{ACAD_REACTORS
330
5
102
}
330
5
100
AcDbDictionary
281
     1
  3
Layout1
350
1C
  3
Model
350
17
  0
DICTIONARY
  5
7
102
{ACAD_REACTORS
330
5
102
}
330
5
100
AcDbDictionary
281
     1
  3
ByBlock
350
4C
  3
ByLayer
350
E
  3
Global
350
6
  0
DICTIONARY
  5
88
102
{ACAD_REACTORS
330
5
102
}
330
5
100
AcDbDictionary
281
     1
  3
Standard
350
8B
  0
DICTIONARY
  5
12
102
{ACAD_REACTORS
330
5
102
}
330
5
100
AcDbDictionary
281
     1
  3
Standard
350
11
  0
DICTIONARY
  5
22
102
{ACAD_REACTORS
330
5
102
}
330
5
100
AcDbDictionary
281
     1
  0
ACDBDICTIONARYWDFLT
  5
4
102
{ACAD_REACTORS
330
5
102
}
330
5
100
AcDbDictionary
281
     1
  3
Normal
350
3
100
AcDbDictionaryWithDefault
340
3
  0
DICTIONARY
  5
29
102
{ACAD_REACTORS
330
5
102
}
330
5
100
AcDbDictionary
281
     1
  3
*A1
350
4B
  0
DICTIONARY
  5
87
102
{ACAD_REACTORS
330
5
102
}
330
5
100
AcDbDictionary
281
     1
  3
Standard
350
A3
  0
DICTIONARY
  5
23
102
{ACAD_REACTORS
330
5
102
}
330
5
100
AcDbDictionary
281
     1
  3
2dWireframe
350
26
  3
Basic
350
92
  3
Brighten
350
96
  3
ColorChange
350
9A
  3
Conceptual
350
94
  3
Dim
350
95
  3
EdgeColorOff
350
9D
  3
Facepattern
350
99
  3
Flat
350
8C
  3
FlatWithEdges
350
8D
  3
Gouraud
350
8E
  3
GouraudWithEdges
350
8F
  3
Hidden
350
91
  3
JitterOff
350
9B
  3
Linepattern
350
98
  3
OverhangOff
350
9C
  3
Realistic
350
93
  3
Shaded
350
A2
  3
Shaded with edges
350
A1
  3
Shades of Gray
350
9E
  3
Sketchy
350
9F
  3
Thicken
350
97
  3
Wireframe
350
90
  3
X-Ray
350
A0
  0
DICTIONARY
  5
85
102
{ACAD_REACTORS
330
5
102
}
330
5
100
AcDbDictionary
281
     1
  3
CANNOSCALE
350
86
  3
CMLEADERSTYLE
350
A5
  3
CTABLESTYLE
350
A4
  3
DIMASSOC
350
A6
  3
HIDETEXT
350
A7
  3
MSLTSCALE
350
AA
  0
XRECORD
  5
A9
102
{ACAD_REACTORS
330
A8
102
}
330
A8
100
AcDbXrecord
280
     1
102
VTR_0.000_0.000_1.000_1.000_VISUALSTYLE
340
26
102
VTR_0.000_0.000_1.000_1.000_GRIDDISPLAY
 70
     3
102
VTR_0.000_0.000_1.000_1.000_GRIDMAJOR
 70
     5
102
VTR_0.000_0.000_1.000_1.000_DEFAULTLIGHTING
280
     1
102
VTR_0.000_0.000_1.000_1.000_DEFAULTLIGHTINGTYPE
 70
     1
102
VTR_0.000_0.000_1.000_1.000_BRIGHTNESS
141
0.0
102
VTR_0.000_0.000_1.000_1.000_CONTRAST
142
0.0
  0
LAYOUT
  5
1C
102
{ACAD_REACTORS
330
18
102
}
330
18
100
AcDbPlotSettings
  1

  2
none_device
  4
Letter_(8.50_x_11.00_Inches)
  6

 40
6.35
 41
6.35
 42
6.35001
 43
6.35001
 44
215.9
 45
279.4
 46
0.0
 47
0.0
 48
0.0
 49
0.0
140
0.0
141
0.0
142
1.0
143
1.0
 70
   688
 72
     0
 73
     1
 74
     5
  7

 75
    16
147
1.0
148
0.0
149
0.0
100
AcDbLayout
  1
Layout1
 70
     1
 71
     1
 10
0.0
 20
0.0
 11
12.0
 21
9.0
 12
0.0
 22
0.0
 32
0.0
 14
1.000000000000000E+20
 24
1.000000000000000E+20
 34
1.000000000000000E+20
 15
-1.000000000000000E+20
 25
-1.000000000000000E+20
 35
-1.000000000000000E+20
146
0.0
 13
0.0
 23
0.0
 33
0.0
 16
1.0
 26
0.0
 36
0.0
 17
0.0
 27
1.0
 37
0.0
 76
     0
330
19
  0
LAYOUT
  5
17
102
{ACAD_REACTORS
330
18
102
}
330
18
100
AcDbPlotSettings
  1

  2
none_device
  4

  6

 40
0.0
 41
0.0
 42
0.0
 43
0.0
 44
0.0
 45
0.0
 46
0.0
 47
0.0
 48
0.0
 49
0.0
140
0.0
141
0.0
142
1.0
143
1.0
 70
  1712
 72
     0
 73
     0
 74
     0
  7

 75
     0
147
1.0
148
0.0
149
0.0
100
AcDbLayout
  1
Model
 70
     1
 71
     0
 10
0.0
 20
0.0
 11
12.0
 21
9.0
 12
0.0
 22
0.0
 32
0.0
 14
336.6282501043348
 24
430.6166891217071
 34
0.0
 15
370.1757906485727
 25
449.6628492549558
 35
0.0
146
0.0
 13
0.0
 23
0.0
 33
0.0
 16
1.0
 26
0.0
 36
0.0
 17
0.0
 27
1.0
 37
0.0
 76
     0
330
14
331
25
  0
MATERIAL
  5
4C
102
{ACAD_REACTORS
330
7
102
}
102
{ACAD_XDICTIONARY
360
AF
102
}
330
7
100
AcDbMaterial
  1
ByBlock
  0
MATERIAL
  5
E
102
{ACAD_REACTORS
330
7
102
}
102
{ACAD_XDICTIONARY
360
AB
102
}
330
7
100
AcDbMaterial
  1
ByLayer
  0
MATERIAL
  5
6
102
{ACAD_REACTORS
330
7
102
}
102
{ACAD_XDICTIONARY
360
AD
102
}
330
7
100
AcDbMaterial
  1
Global
  0
MLEADERSTYLE
  5
8B
102
{ACAD_REACTORS
330
88
102
}
102
{ACAD_XDICTIONARY
360
E2
102
}
330
88
100
AcDbMLeaderStyle
170
     2
171
     1
172
     0
 90
        2
 40
0.0
 41
0.0
173
     1
 91
-1056964608
340
A
 92
       -2
290
     1
 42
0.09
291
     1
 43
0.36
  3
Standard
341
0
 44
0.18
300

342
C
174
     1
178
     6
175
     1
176
     0
 93
-1056964608
 45
0.18
292
     0
297
     0
 46
0.18
343
0
 94
-1056964608
 47
1.0
 49
1.0
140
1.0
293
     1
141
0.0
294
     1
177
     0
142
1.0
295
     0
296
     0
143
0.125
1001
ACAD_MLEADERVER
1070
     2
  0
MLINESTYLE
  5
11
102
{ACAD_REACTORS
330
12
102
}
330
12
100
AcDbMlineStyle
  2
Standard
 70
     0
  3

 62
   256
 51
90.0
 52
90.0
 71
     2
 49
0.5
 62
   256
  6
BYLAYER
 49
-0.5
 62
   256
  6
BYLAYER
  0
ACDBPLACEHOLDER
  5
3
102
{ACAD_REACTORS
330
4
102
}
330
4
  0
SCALE
  5
4B
102
{ACAD_REACTORS
330
29
102
}
330
29
100
AcDbScale
 70
     0
300
1:1
140
1.0
141
1.0
290
     1
  0
TABLESTYLE
  5
A3
102
{ACAD_REACTORS
330
87
102
}
330
87
100
AcDbTableStyle
  3
Standard
 70
     0
 71
     0
 40
0.06
 41
0.06
280
     0
281
     0
  7
Standard
140
0.18
170
     2
 62
     0
 63
   257
283
     0
274
    -2
284
     1
 64
     0
275
    -2
285
     1
 65
     0
276
    -2
286
     1
 66
     0
277
    -2
287
     1
 67
     0
278
    -2
288
     1
 68
     0
279
    -2
289
     1
 69
     0
  7
Standard
140
0.25
170
     5
 62
     0
 63
   257
283
     0
274
    -2
284
     1
 64
     0
275
    -2
285
     1
 65
     0
276
    -2
286
     1
 66
     0
277
    -2
287
     1
 67
     0
278
    -2
288
     1
 68
     0
279
    -2
289
     1
 69
     0
  7
Standard
140
0.18
170
     5
 62
     0
 63
   257
283
     0
274
    -2
284
     1
 64
     0
275
    -2
285
     1
 65
     0
276
    -2
286
     1
 66
     0
277
    -2
287
     1
 67
     0
278
    -2
288
     1
 68
     0
279
    -2
289
     1
 69
     0
  0
VISUALSTYLE
  5
26
102
{ACAD_REACTORS
330
23
102
}
102
{ACAD_XDICTIONARY
360
B1
102
}
330
23
100
AcDbVisualStyle
  2
2dWireframe
 70
     4
 71
     0
 72
     2
 73
     0
 90
        0
 40
-0.6
 41
-30.0
 62
     5
 63
     7
 74
     1
 91
        4
 64
     7
 65
   257
 75
     1
175
     1
 42
1.0
 92
        0
 66
   257
 43
1.0
 76
     1
 77
     6
 78
     2
 67
     7
 79
     5
170
     0
171
     0
290
     0
174
     0
 93
        1
 44
0.0
173
     0
291
     0
 45
0.0
1001
ACAD
1000
AcDbSavedByObjectVersion
1070
     0
  0
VISUALSTYLE
  5
92
102
{ACAD_REACTORS
330
23
102
}
102
{ACAD_XDICTIONARY
360
BF
102
}
330
23
100
AcDbVisualStyle
  2
Basic
 70
     7
 71
     1
 72
     0
 73
     1
 90
        0
 40
0.6
 41
30.0
 62
     5
 63
     7
 74
     0
 91
        4
 64
     7
 65
   257
 75
     1
175
     1
 42
1.0
 92
        8
 66
     7
 43
1.0
 76
     1
 77
     6
 78
     2
 67
     7
 79
     5
170
     0
171
     0
290
     0
174
     0
 93
        1
 44
0.0
173
     0
291
     1
 45
0.0
1001
ACAD
1000
AcDbSavedByObjectVersion
1070
     0
  0
VISUALSTYLE
  5
96
102
{ACAD_REACTORS
330
23
102
}
102
{ACAD_XDICTIONARY
360
C7
102
}
330
23
100
AcDbVisualStyle
  2
Brighten
 70
    12
 71
     2
 72
     2
 73
     0
 90
        0
 40
0.6
 41
30.0
 62
     5
 63
     7
 74
     1
 91
        4
 64
     7
 65
   257
 75
     1
175
     1
 42
1.0
 92
        8
 66
     7
 43
1.0
 76
     1
 77
     6
 78
     2
 67
     7
 79
     5
170
     0
171
     0
290
     0
174
     0
 93
        1
 44
50.0
173
     0
291
     1
 45
0.0
1001
ACAD
1000
AcDbSavedByObjectVersion
1070
     0
  0
VISUALSTYLE
  5
9A
102
{ACAD_REACTORS
330
23
102
}
102
{ACAD_XDICTIONARY
360
CF
102
}
330
23
100
AcDbVisualStyle
  2
ColorChange
 70
    16
 71
     2
 72
     2
 73
     3
 90
        0
 40
0.6
 41
30.0
 62
     5
 63
     8
 74
     1
 91
        4
 64
     7
 65
   257
 75
     1
175
     1
 42
1.0
 92
        8
 66
     8
 43
1.0
 76
     1
 77
     6
 78
     2
 67
     7
 79
     5
170
     0
171
     0
290
     0
174
     0
 93
        1
 44
0.0
173
     0
291
     1
 45
0.0
1001
ACAD
1000
AcDbSavedByObjectVersion
1070
     0
  0
VISUALSTYLE
  5
94
102
{ACAD_REACTORS
330
23
102
}
102
{ACAD_XDICTIONARY
360
C3
102
}
330
23
100
AcDbVisualStyle
  2
Conceptual
 70
     9
 71
     3
 72
     2
 73
     0
 90
        0
 40
0.6
 41
30.0
 62
     5
 63
     7
 74
     2
 91
        2
 64
     7
 65
   257
 75
     1
175
     1
 42
179.0
 92
        8
 66
     7
 43
1.0
 76
     1
 77
     6
 78
     2
 67
     7
 79
     3
170
     0
171
     0
290
     0
174
     0
 93
        1
 44
0.0
173
     0
291
     0
 45
0.0
1001
ACAD
1000
AcDbSavedByObjectVersion
1070
     0
  0
VISUALSTYLE
  5
95
102
{ACAD_REACTORS
330
23
102
}
102
{ACAD_XDICTIONARY
360
C5
102
}
330
23
100
AcDbVisualStyle
  2
Dim
 70
    11
 71
     2
 72
     2
 73
     0
 90
        0
 40
0.6
 41
30.0
 62
     5
 63
     7
 74
     1
 91
        4
 64
     7
 65
   257
 75
     1
175
     1
 42
1.0
 92
        8
 66
     7
 43
1.0
 76
     1
 77
     6
 78
     2
 67
     7
 79
     5
170
     0
171
     0
290
     0
174
     0
 93
        1
 44
-50.0
173
     0
291
     1
 45
0.0
1001
ACAD
1000
AcDbSavedByObjectVersion
1070
     0
  0
VISUALSTYLE
  5
9D
102
{ACAD_REACTORS
330
23
102
}
102
{ACAD_XDICTIONARY
360
D5
102
}
330
23
100
AcDbVisualStyle
  2
EdgeColorOff
 70
    22
 71
     2
 72
     2
 73
     0
 90
        0
 40
0.6
 41
30.0
 62
     5
 63
     7
 74
     1
 91
        4
 64
     7
 65
   257
 75
     1
175
     1
 42
1.0
 92
        8
 66
     7
 43
1.0
 76
     1
 77
     6
 78
     2
 67
     7
 79
     5
170
     0
171
     0
290
     0
174
     0
 93
        1
 44
0.0
173
     0
291
     1
 45
0.0
1001
ACAD
1000
AcDbSavedByObjectVersion
1070
     0
  0
VISUALSTYLE
  5
99
102
{ACAD_REACTORS
330
23
102
}
102
{ACAD_XDICTIONARY
360
CD
102
}
330
23
100
AcDbVisualStyle
  2
Facepattern
 70
    15
 71
     2
 72
     2
 73
     0
 90
        0
 40
0.6
 41
30.0
 62
     5
 63
     7
 74
     1
 91
        4
 64
     7
 65
   257
 75
     1
175
     1
 42
1.0
 92
        8
 66
     7
 43
1.0
 76
     1
 77
     6
 78
     2
 67
     7
 79
     5
170
     0
171
     0
290
     0
174
     0
 93
        1
 44
0.0
173
     0
291
     1
 45
0.0
1001
ACAD
1000
AcDbSavedByObjectVersion
1070
     0
  0
VISUALSTYLE
  5
8C
102
{ACAD_REACTORS
330
23
102
}
102
{ACAD_XDICTIONARY
360
B3
102
}
330
23
100
AcDbVisualStyle
  2
Flat
 70
     0
 71
     2
 72
     1
 73
     1
 90
        2
 40
0.6
 41
30.0
 62
     5
 63
     7
 74
     0
 91
        0
 64
     7
 65
   257
 75
     1
175
     1
 42
1.0
 92
        8
 66
     7
 43
1.0
 76
     1
 77
     6
 78
     2
 67
     7
 79
     5
170
     0
171
     0
290
     0
174
     0
 93
       13
 44
0.0
173
     0
291
     1
 45
0.0
1001
ACAD
1000
AcDbSavedByObjectVersion
1070
     0
  0
VISUALSTYLE
  5
8D
102
{ACAD_REACTORS
330
23
102
}
102
{ACAD_XDICTIONARY
360
B5
102
}
330
23
100
AcDbVisualStyle
  2
FlatWithEdges
 70
     1
 71
     2
 72
     1
 73
     1
 90
        2
 40
0.6
 41
30.0
 62
     5
 63
     7
 74
     1
 91
        0
 64
     7
 65
   257
 75
     1
175
     1
 42
1.0
 92
        0
 66
   257
 43
1.0
 76
     1
 77
     6
 78
     2
 67
     7
 79
     5
170
     0
171
     0
290
     0
174
     0
 93
       13
 44
0.0
173
     0
291
     1
 45
0.0
1001
ACAD
1000
AcDbSavedByObjectVersion
1070
     0
  0
VISUALSTYLE
  5
8E
102
{ACAD_REACTORS
330
23
102
}
102
{ACAD_XDICTIONARY
360
B7
102
}
330
23
100
AcDbVisualStyle
  2
Gouraud
 70
     2
 71
     2
 72
     2
 73
     1
 90
        2
 40
0.6
 41
30.0
 62
     5
 63
     7
 74
     0
 91
        0
 64
     7
 65
   257
 75
     1
175
     1
 42
1.0
 92
        0
 66
     7
 43
1.0
 76
     1
 77
     6
 78
     2
 67
     7
 79
     5
170
     0
171
     0
290
     0
174
     0
 93
       13
 44
0.0
173
     0
291
     1
 45
0.0
1001
ACAD
1000
AcDbSavedByObjectVersion
1070
     0
  0
VISUALSTYLE
  5
8F
102
{ACAD_REACTORS
330
23
102
}
102
{ACAD_XDICTIONARY
360
B9
102
}
330
23
100
AcDbVisualStyle
  2
GouraudWithEdges
 70
     3
 71
     2
 72
     2
 73
     1
 90
        2
 40
0.6
 41
30.0
 62
     5
 63
     7
 74
     1
 91
        0
 64
     7
 65
   257
 75
     1
175
     1
 42
1.0
 92
        0
 66
   257
 43
1.0
 76
     1
 77
     6
 78
     2
 67
     7
 79
     5
170
     0
171
     0
290
     0
174
     0
 93
       13
 44
0.0
173
     0
291
     1
 45
0.0
1001
ACAD
1000
AcDbSavedByObjectVersion
1070
     0
  0
VISUALSTYLE
  5
91
102
{ACAD_REACTORS
330
23
102
}
102
{ACAD_XDICTIONARY
360
BD
102
}
330
23
100
AcDbVisualStyle
  2
Hidden
 70
     6
 71
     1
 72
     2
 73
     2
 90
        0
 40
0.6
 41
30.0
 62
     5
 63
     7
 74
     2
 91
        2
 64
     7
 65
   257
 75
     2
175
     1
 42
40.0
 92
        0
 66
   257
 43
1.0
 76
     1
 77
     6
 78
     2
 67
     7
 79
     3
170
     0
171
     0
290
     0
174
     0
 93
        1
 44
0.0
173
     0
291
     0
 45
0.0
1001
ACAD
1000
AcDbSavedByObjectVersion
1070
     0
  0
VISUALSTYLE
  5
9B
102
{ACAD_REACTORS
330
23
102
}
102
{ACAD_XDICTIONARY
360
D1
102
}
330
23
100
AcDbVisualStyle
  2
JitterOff
 70
    20
 71
     2
 72
     2
 73
     0
 90
        0
 40
0.6
 41
30.0
 62
     5
 63
     7
 74
     1
 91
        4
 64
     7
 65
   257
 75
     1
175
     1
 42
1.0
 92
       10
 66
     7
 43
1.0
 76
     1
 77
     6
 78
     2
 67
     7
 79
     5
170
     0
171
     0
290
     0
174
     0
 93
        1
 44
0.0
173
     0
291
     1
 45
0.0
1001
ACAD
1000
AcDbSavedByObjectVersion
1070
     0
  0
VISUALSTYLE
  5
98
102
{ACAD_REACTORS
330
23
102
}
102
{ACAD_XDICTIONARY
360
CB
102
}
330
23
100
AcDbVisualStyle
  2
Linepattern
 70
    14
 71
     2
 72
     2
 73
     0
 90
        0
 40
0.6
 41
30.0
 62
     5
 63
     7
 74
     1
 91
        4
 64
     7
 65
   257
 75
     7
175
     7
 42
1.0
 92
        8
 66
     7
 43
1.0
 76
     1
 77
     6
 78
     2
 67
     7
 79
     5
170
     0
171
     0
290
     0
174
     0
 93
        1
 44
0.0
173
     0
291
     1
 45
0.0
1001
ACAD
1000
AcDbSavedByObjectVersion
1070
     0
  0
VISUALSTYLE
  5
9C
102
{ACAD_REACTORS
330
23
102
}
102
{ACAD_XDICTIONARY
360
D3
102
}
330
23
100
AcDbVisualStyle
  2
OverhangOff
 70
    21
 71
     2
 72
     2
 73
     0
 90
        0
 40
0.6
 41
30.0
 62
     5
 63
     7
 74
     1
 91
        4
 64
     7
 65
   257
 75
     1
175
     1
 42
1.0
 92
        9
 66
     7
 43
1.0
 76
     1
 77
     6
 78
     2
 67
     7
 79
     5
170
     0
171
     0
290
     0
174
     0
 93
        1
 44
0.0
173
     0
291
     1
 45
0.0
1001
ACAD
1000
AcDbSavedByObjectVersion
1070
     0
  0
VISUALSTYLE
  5
93
102
{ACAD_REACTORS
330
23
102
}
102
{ACAD_XDICTIONARY
360
C1
102
}
330
23
100
AcDbVisualStyle
  2
Realistic
 70
     8
 71
     2
 72
     3
 73
     0
 90
        2
 40
0.6
 41
30.0
 62
     5
 63
     7
 74
     0
 91
        0
 64
     7
 65
   257
 75
     1
175
     1
 42
1.0
 92
        8
 66
   257
 43
1.0
 76
     1
 77
     6
 78
     2
 67
     7
 79
     3
170
     0
171
     0
290
     0
174
     0
 93
       13
 44
0.0
173
     0
291
     0
 45
0.0
1001
ACAD
1000
AcDbSavedByObjectVersion
1070
     0
  0
VISUALSTYLE
  5
A2
102
{ACAD_REACTORS
330
23
102
}
102
{ACAD_XDICTIONARY
360
DF
102
}
330
23
100
AcDbVisualStyle
  2
Shaded
 70
    27
 71
     2
 72
     2
 73
     1
 90
        2
 40
0.6
 41
30.0
 62
     5
 63
     7
 74
     0
 91
        4
 64
     7
 65
   257
 75
     1
175
     1
 42
1.0
 92
        8
 66
   257
 43
1.0
 76
     1
 77
     6
 78
     2
 67
     8
 79
     3
170
     0
171
     0
290
     0
174
     0
 93
        5
 44
0.0
173
     0
291
     0
 45
0.0
1001
ACAD
1000
AcDbSavedByObjectVersion
1070
     0
  0
VISUALSTYLE
  5
A1
102
{ACAD_REACTORS
330
23
102
}
102
{ACAD_XDICTIONARY
360
DD
102
}
330
23
100
AcDbVisualStyle
  2
Shaded with edges
 70
    26
 71
     2
 72
     2
 73
     1
 90
        2
 40
0.6
 41
30.0
 62
     5
 63
     7
 74
     1
 91
       10
 64
     7
 65
   257
 75
     2
175
     1
 42
1.0
 92
        8
 66
   257
 43
1.0
 76
     1
 77
     6
 78
     2
 67
     7
 79
     3
170
     0
171
     0
290
     0
174
     0
 93
        5
 44
0.0
173
     0
291
     0
 45
0.0
1001
ACAD
1000
AcDbSavedByObjectVersion
1070
     0
  0
VISUALSTYLE
  5
9E
102
{ACAD_REACTORS
330
23
102
}
102
{ACAD_XDICTIONARY
360
D7
102
}
330
23
100
AcDbVisualStyle
  2
Shades of Gray
 70
    23
 71
     2
 72
     2
 73
     3
 90
        0
 40
0.6
 41
30.0
 62
     5
 63
     7
 74
     2
 91
        2
 64
     7
 65
     7
 75
     1
175
     1
 42
40.0
 92
        8
 66
     7
 43
1.0
 76
     1
 77
     6
 78
     2
 67
     7
 79
     3
170
     0
171
     0
290
     0
174
     0
 93
        1
 44
0.0
173
     0
291
     0
 45
0.0
1001
ACAD
1000
AcDbSavedByObjectVersion
1070
     0
  0
VISUALSTYLE
  5
9F
102
{ACAD_REACTORS
330
23
102
}
102
{ACAD_XDICTIONARY
360
D9
102
}
330
23
100
AcDbVisualStyle
  2
Sketchy
 70
    24
 71
     1
 72
     2
 73
     2
 90
        0
 40
0.6
 41
30.0
 62
     5
 63
     7
 74
     2
 91
        2
 64
     7
 65
     7
 75
     1
175
     1
 42
40.0
 92
       11
 66
     7
 43
1.0
 76
     1
 77
     6
 78
     2
 67
     7
 79
     6
170
     0
171
     0
290
     0
174
     0
 93
        1
 44
0.0
173
     0
291
     0
 45
0.0
1001
ACAD
1000
AcDbSavedByObjectVersion
1070
     0
  0
VISUALSTYLE
  5
97
102
{ACAD_REACTORS
330
23
102
}
102
{ACAD_XDICTIONARY
360
C9
102
}
330
23
100
AcDbVisualStyle
  2
Thicken
 70
    13
 71
     2
 72
     2
 73
     0
 90
        0
 40
0.6
 41
30.0
 62
     5
 63
     7
 74
     1
 91
        4
 64
     7
 65
   257
 75
     1
175
     1
 42
1.0
 92
       12
 66
     7
 43
1.0
 76
     1
 77
     6
 78
     2
 67
     7
 79
     5
170
     0
171
     0
290
     0
174
     0
 93
        1
 44
0.0
173
     0
291
     1
 45
0.0
1001
ACAD
1000
AcDbSavedByObjectVersion
1070
     0
  0
VISUALSTYLE
  5
90
102
{ACAD_REACTORS
330
23
102
}
102
{ACAD_XDICTIONARY
360
BB
102
}
330
23
100
AcDbVisualStyle
  2
Wireframe
 70
     5
 71
     0
 72
     2
 73
     0
 90
        0
 40
0.6
 41
30.0
 62
     5
 63
     7
 74
     1
 91
        4
 64
     7
 65
   257
 75
     1
175
     1
 42
1.0
 92
        0
 66
   257
 43
1.0
 76
     1
 77
     6
 78
     2
 67
     7
 79
     3
170
     0
171
     0
290
     0
174
     0
 93
        1
 44
0.0
173
     0
291
     0
 45
0.0
1001
ACAD
1000
AcDbSavedByObjectVersion
1070
     0
  0
VISUALSTYLE
  5
A0
102
{ACAD_REACTORS
330
23
102
}
102
{ACAD_XDICTIONARY
360
DB
102
}
330
23
100
AcDbVisualStyle
  2
X-Ray
 70
    25
 71
     2
 72
     2
 73
     1
 90
        1
 40
0.5
 41
30.0
 62
     5
 63
     7
 74
     1
 91
        0
 64
     7
 65
   257
 75
     1
175
     1
 42
1.0
 92
        8
 66
     7
 43
1.0
 76
     1
 77
     6
 78
     2
 67
     7
 79
     3
170
     0
171
     0
290
     0
174
     0
 93
       13
 44
0.0
173
     0
291
     0
 45
0.0
1001
ACAD
1000
AcDbSavedByObjectVersion
1070
     0
  0
DICTIONARYVAR
  5
86
102
{ACAD_REACTORS
330
85
102
}
330
85
100
DictionaryVariables
280
     0
  1
1:1
  0
DICTIONARYVAR
  5
A5
102
{ACAD_REACTORS
330
85
102
}
330
85
100
DictionaryVariables
280
     0
  1
Standard
  0
DICTIONARYVAR
  5
A4
102
{ACAD_REACTORS
330
85
102
}
330
85
100
DictionaryVariables
280
     0
  1
Standard
  0
DICTIONARYVAR
  5
A6
102
{ACAD_REACTORS
330
85
102
}
330
85
100
DictionaryVariables
280
     0
  1
2
  0
DICTIONARYVAR
  5
A7
102
{ACAD_REACTORS
330
85
102
}
330
85
100
DictionaryVariables
280
     0
  1
1
  0
DICTIONARYVAR
  5
AA
102
{ACAD_REACTORS
330
85
102
}
330
85
100
DictionaryVariables
280
     0
  1
1
  0
DICTIONARY
  5
AF
330
4C
100
AcDbDictionary
280
     1
281
     1
  3
ACAD_XREC_ROUNDTRIP
360
B0
  0
DICTIONARY
  5
AB
330
E
100
AcDbDictionary
280
     1
281
     1
  3
ACAD_XREC_ROUNDTRIP
360
AC
  0
DICTIONARY
  5
AD
330
6
100
AcDbDictionary
280
     1
281
     1
  3
ACAD_XREC_ROUNDTRIP
360
AE
  0
DICTIONARY
  5
E2
330
8B
100
AcDbDictionary
280
     1
281
     1
  3
ACAD_XREC_ROUNDTRIP
360
E3
  0
DICTIONARY
  5
B1
330
26
100
AcDbDictionary
280
     1
281
     1
  3
ACAD_XREC_ROUNDTRIP
360
B2
  0
DICTIONARY
  5
BF
330
92
100
AcDbDictionary
280
     1
281
     1
  3
ACAD_XREC_ROUNDTRIP
360
C0
  0
DICTIONARY
  5
C7
330
96
100
AcDbDictionary
280
     1
281
     1
  3
ACAD_XREC_ROUNDTRIP
360
C8
  0
DICTIONARY
  5
CF
330
9A
100
AcDbDictionary
280
     1
281
     1
  3
ACAD_XREC_ROUNDTRIP
360
D0
  0
DICTIONARY
  5
C3
330
94
100
AcDbDictionary
280
     1
281
     1
  3
ACAD_XREC_ROUNDTRIP
360
C4
  0
DICTIONARY
  5
C5
330
95
100
AcDbDictionary
280
     1
281
     1
  3
ACAD_XREC_ROUNDTRIP
360
C6
  0
DICTIONARY
  5
D5
330
9D
100
AcDbDictionary
280
     1
281
     1
  3
ACAD_XREC_ROUNDTRIP
360
D6
  0
DICTIONARY
  5
CD
330
99
100
AcDbDictionary
280
     1
281
     1
  3
ACAD_XREC_ROUNDTRIP
360
CE
  0
DICTIONARY
  5
B3
330
8C
100
AcDbDictionary
280
     1
281
     1
  3
ACAD_XREC_ROUNDTRIP
360
B4
  0
DICTIONARY
  5
B5
330
8D
100
AcDbDictionary
280
     1
281
     1
  3
ACAD_XREC_ROUNDTRIP
360
B6
  0
DICTIONARY
  5
B7
330
8E
100
AcDbDictionary
280
     1
281
     1
  3
ACAD_XREC_ROUNDTRIP
360
B8
  0
DICTIONARY
  5
B9
330
8F
100
AcDbDictionary
280
     1
281
     1
  3
ACAD_XREC_ROUNDTRIP
360
BA
  0
DICTIONARY
  5
BD
330
91
100
AcDbDictionary
280
     1
281
     1
  3
ACAD_XREC_ROUNDTRIP
360
BE
  0
DICTIONARY
  5
D1
330
9B
100
AcDbDictionary
280
     1
281
     1
  3
ACAD_XREC_ROUNDTRIP
360
D2
  0
DICTIONARY
  5
CB
330
98
100
AcDbDictionary
280
     1
281
     1
  3
ACAD_XREC_ROUNDTRIP
360
CC
  0
DICTIONARY
  5
D3
330
9C
100
AcDbDictionary
280
     1
281
     1
  3
ACAD_XREC_ROUNDTRIP
360
D4
  0
DICTIONARY
  5
C1
330
93
100
AcDbDictionary
280
     1
281
     1
  3
ACAD_XREC_ROUNDTRIP
360
C2
  0
DICTIONARY
  5
DF
330
A2
100
AcDbDictionary
280
     1
281
     1
  3
ACAD_XREC_ROUNDTRIP
360
E0
  0
DICTIONARY
  5
DD
330
A1
100
AcDbDictionary
280
     1
281
     1
  3
ACAD_XREC_ROUNDTRIP
360
DE
  0
DICTIONARY
  5
D7
330
9E
100
AcDbDictionary
280
     1
281
     1
  3
ACAD_XREC_ROUNDTRIP
360
D8
  0
DICTIONARY
  5
D9
330
9F
100
AcDbDictionary
280
     1
281
     1
  3
ACAD_XREC_ROUNDTRIP
360
DA
  0
DICTIONARY
  5
C9
330
97
100
AcDbDictionary
280
     1
281
     1
  3
ACAD_XREC_ROUNDTRIP
360
CA
  0
DICTIONARY
  5
BB
330
90
100
AcDbDictionary
280
     1
281
     1
  3
ACAD_XREC_ROUNDTRIP
360
BC
  0
DICTIONARY
  5
DB
330
A0
100
AcDbDictionary
280
     1
281
     1
  3
ACAD_XREC_ROUNDTRIP
360
DC
  0
XRECORD
  5
B0
102
{ACAD_REACTORS
330
AF
102
}
330
AF
100
AcDbXrecord
280
     1
102
MATERIAL
148
0.0
149
0.0
149
0.0
 93
        0
 94
      127
282
     0
 72
     1
 77
     1
171
     1
175
     1
179
     1
273
     0
  0
XRECORD
  5
AC
102
{ACAD_REACTORS
330
AB
102
}
330
AB
100
AcDbXrecord
280
     1
102
MATERIAL
148
0.0
149
0.0
149
0.0
 93
        0
 94
      127
282
     0
 72
     1
 77
     1
171
     1
175
     1
179
     1
273
     0
  0
XRECORD
  5
AE
102
{ACAD_REACTORS
330
AD
102
}
330
AD
100
AcDbXrecord
280
     1
102
MATERIAL
148
0.0
149
0.0
149
0.0
 93
        0
 94
      127
282
     0
 72
     1
 77
     1
171
     1
175
     1
179
     1
273
     0
  0
XRECORD
  5
E3
102
{ACAD_REACTORS
330
E2
102
}
330
E2
100
AcDbXrecord
280
     1
102
ACAD_ROUNDTRIP_2010_MLEADER_STYLE
  0
XRECORD
  5
B2
102
{ACAD_REACTORS
330
B1
102
}
330
B1
100
AcDbXrecord
280
     1
102
RTVSPropertyOp0
 70
     1
102
RTVSPropertyOp1
 70
     1
102
RTVSPropertyOp2
 70
     1
102
RTVSPropertyOp3
 70
     1
102
RTVSPropertyOp4
 70
     1
102
RTVSPropertyOp5
 70
     1
102
RTVSPropertyOp6
 70
     1
102
RTVSPropertyOp7
 70
     1
102
RTVSPropertyOp8
 70
     1
102
RTVSPropertyOp9
 70
     1
102
RTVSPropertyOp10
 70
     1
102
RTVSPropertyOp11
 70
     1
102
RTVSPropertyOp12
 70
     1
102
RTVSPropertyOp13
 70
     1
102
RTVSPropertyOp14
 70
     1
102
RTVSPropertyOp15
 70
     1
102
RTVSPropertyOp16
 70
     1
102
RTVSPropertyOp17
 70
     1
102
RTVSPropertyOp18
 70
     1
102
RTVSPropertyOp19
 70
     1
102
RTVSPropertyOp20
 70
     1
102
RTVSPropertyOp21
 70
     1
102
RTVSPropertyOp22
 70
     1
102
RTVSPropertyOp23
 70
     1
102
RTVSPropertyOp24
 70
     1
102
RTVSPropertyOp25
 70
     1
102
RTVSPropertyOp26
 70
     1
102
RTVSPropertyOp27
 70
     1
102
RTVSPropertyOp28
 70
     1
102
RTVSPropertyOp29
 70
     1
102
RTVSPropertyOp30
 70
     1
102
RTVSPropertyOp31
 70
     1
102
RTVSPropertyOp32
 70
     1
102
RTVSPropertyOp33
 70
     1
102
RTVSPropertyOp34
 70
     1
102
RTVSPropertyOp35
 70
     1
102
RTVSPropertyOp36
 70
     1
102
RTVSPropertyOp37
 70
     1
102
RTVSPropertyOp38
 70
     1
102
RTVSPropertyOp39
 70
     1
102
RTVSPropertyOp40
 70
     1
102
RTVSPropertyOp41
 70
     1
102
RTVSPropertyOp42
 70
     1
102
RTVSPropertyOp43
 70
     1
102
RTVSPropertyOp44
 70
     1
102
RTVSPropertyOp45
 70
     1
102
RTVSPropertyOp46
 70
     1
102
RTVSPropertyOp47
 70
     1
102
RTVSPropertyOp48
 70
     1
102
RTVSPropertyOp49
 70
     1
102
RTVSPropertyOp50
 70
     1
102
RTVSPropertyOp51
 70
     0
102
RTVSPropertyOp52
 70
     0
102
RTVSPropertyOp53
 70
     1
102
RTVSPropertyOp54
 70
     1
102
RTVSPropertyOp55
 70
     1
102
RTVSPropertyOp56
 70
     1
102
RTVSPropertyOp57
 70
     1
102
RTVSPost2010Prop28
280
     1
102
RTVSPost2010PropOp28
 70
     1
102
RTVSPost2010Prop29
280
     1
102
RTVSPost2010PropOp29
 70
     1
102
RTVSPost2010Prop30
280
     0
102
RTVSPost2010PropOp30
 70
     1
102
RTVSPost2010Prop31
280
     0
102
RTVSPost2010PropOp31
 70
     1
102
RTVSPost2010Prop32
280
     0
102
RTVSPost2010PropOp32
 70
     1
102
RTVSPost2010Prop33
280
     0
102
RTVSPost2010PropOp33
 70
     1
102
RTVSPost2010Prop34
280
     0
102
RTVSPost2010PropOp34
 70
     1
102
RTVSPost2010Prop35
280
     0
102
RTVSPost2010PropOp35
 70
     1
102
RTVSPost2010Prop36
280
     0
102
RTVSPost2010PropOp36
 70
     1
102
RTVSPost2010Prop37
 90
       50
102
RTVSPost2010PropOp37
 70
     1
102
RTVSPost2010Prop38
140
0.0
102
RTVSPost2010PropOp38
 70
     1
102
RTVSPost2010Prop39
140
1.0
102
RTVSPost2010PropOp39
 70
     1
102
RTVSPost2010Prop40
 90
        0
102
RTVSPost2010PropOp40
 70
     1
102
RTVSPost2010Prop41ColorIndex
 90
       18
102
RTVSPost2010Prop41ColorRGB
 90
        0
102
RTVSPost2010PropOp41
 70
     1
102
RTVSPost2010Prop42
 90
       50
102
RTVSPost2010PropOp42
 70
     1
102
RTVSPost2010Prop43
 90
        3
102
RTVSPost2010PropOp43
 70
     1
102
RTVSPost2010Prop44ColorIndex
 90
        5
102
RTVSPost2010Prop44ColorRGB
 90
      255
102
RTVSPost2010PropOp44
 70
     1
102
RTVSPost2010Prop45
280
     0
102
RTVSPost2010PropOp45
 70
     1
102
RTVSPost2010Prop46
 90
       50
102
RTVSPost2010PropOp46
 70
     1
102
RTVSPost2010Prop47
 90
       50
102
RTVSPost2010PropOp47
 70
     1
102
RTVSPost2010Prop48
 90
       50
102
RTVSPost2010PropOp48
 70
     1
102
RTVSPost2010Prop49
280
     0
102
RTVSPost2010PropOp49
 70
     1
102
RTVSPost2010Prop50
 90
       50
102
RTVSPost2010PropOp50
 70
     1
102
RTVSPost2010Prop51ColorIndex
 90
      256
102
RTVSPost2010Prop51ColorRGB
 90
-16777216
102
RTVSPost2010PropOp51
 70
     0
102
RTVSPost2010Prop52
140
1.0
102
RTVSPost2010PropOp52
 70
     0
102
RTVSPost2010Prop53
 90
        2
102
RTVSPost2010PropOp53
 70
     1
102
RTVSPost2010Prop54
  1
strokes_ogs.tif
102
RTVSPost2010PropOp54
 70
     1
102
RTVSPost2010Prop55
280
     0
102
RTVSPost2010PropOp55
 70
     1
102
RTVSPost2010Prop56
140
1.0
102
RTVSPost2010PropOp56
 70
     1
102
RTVSPost2010Prop57
140
1.0
102
RTVSPost2010PropOp57
 70
     1
  0
XRECORD
  5
C0
102
{ACAD_REACTORS
330
BF
102
}
330
BF
100
AcDbXrecord
280
     1
102
RTVSPropertyOp0
 70
     1
102
RTVSPropertyOp1
 70
     1
102
RTVSPropertyOp2
 70
     1
102
RTVSPropertyOp3
 70
     1
102
RTVSPropertyOp4
 70
     1
102
RTVSPropertyOp5
 70
     1
102
RTVSPropertyOp6
 70
     1
102
RTVSPropertyOp7
 70
     1
102
RTVSPropertyOp8
 70
     1
102
RTVSPropertyOp9
 70
     1
102
RTVSPropertyOp10
 70
     1
102
RTVSPropertyOp11
 70
     1
102
RTVSPropertyOp12
 70
     1
102
RTVSPropertyOp13
 70
     1
102
RTVSPropertyOp14
 70
     1
102
RTVSPropertyOp15
 70
     1
102
RTVSPropertyOp16
 70
     1
102
RTVSPropertyOp17
 70
     1
102
RTVSPropertyOp18
 70
     1
102
RTVSPropertyOp19
 70
     1
102
RTVSPropertyOp20
 70
     1
102
RTVSPropertyOp21
 70
     1
102
RTVSPropertyOp22
 70
     1
102
RTVSPropertyOp23
 70
     1
102
RTVSPropertyOp24
 70
     1
102
RTVSPropertyOp25
 70
     1
102
RTVSPropertyOp26
 70
     1
102
RTVSPropertyOp27
 70
     1
102
RTVSPropertyOp28
 70
     1
102
RTVSPropertyOp29
 70
     1
102
RTVSPropertyOp30
 70
     1
102
RTVSPropertyOp31
 70
     1
102
RTVSPropertyOp32
 70
     1
102
RTVSPropertyOp33
 70
     1
102
RTVSPropertyOp34
 70
     1
102
RTVSPropertyOp35
 70
     1
102
RTVSPropertyOp36
 70
     1
102
RTVSPropertyOp37
 70
     1
102
RTVSPropertyOp38
 70
     1
102
RTVSPropertyOp39
 70
     1
102
RTVSPropertyOp40
 70
     1
102
RTVSPropertyOp41
 70
     1
102
RTVSPropertyOp42
 70
     1
102
RTVSPropertyOp43
 70
     1
102
RTVSPropertyOp44
 70
     1
102
RTVSPropertyOp45
 70
     1
102
RTVSPropertyOp46
 70
     1
102
RTVSPropertyOp47
 70
     1
102
RTVSPropertyOp48
 70
     1
102
RTVSPropertyOp49
 70
     1
102
RTVSPropertyOp50
 70
     1
102
RTVSPropertyOp51
 70
     0
102
RTVSPropertyOp52
 70
     0
102
RTVSPropertyOp53
 70
     1
102
RTVSPropertyOp54
 70
     1
102
RTVSPropertyOp55
 70
     1
102
RTVSPropertyOp56
 70
     1
102
RTVSPropertyOp57
 70
     1
102
RTVSPost2010Prop28
280
     0
102
RTVSPost2010PropOp28
 70
     1
102
RTVSPost2010Prop29
280
     1
102
RTVSPost2010PropOp29
 70
     1
102
RTVSPost2010Prop30
280
     1
102
RTVSPost2010PropOp30
 70
     1
102
RTVSPost2010Prop31
280
     0
102
RTVSPost2010PropOp31
 70
     1
102
RTVSPost2010Prop32
280
     0
102
RTVSPost2010PropOp32
 70
     1
102
RTVSPost2010Prop33
280
     0
102
RTVSPost2010PropOp33
 70
     1
102
RTVSPost2010Prop34
280
     0
102
RTVSPost2010PropOp34
 70
     1
102
RTVSPost2010Prop35
280
     0
102
RTVSPost2010PropOp35
 70
     1
102
RTVSPost2010Prop36
280
     0
102
RTVSPost2010PropOp36
 70
     1
102
RTVSPost2010Prop37
 90
       50
102
RTVSPost2010PropOp37
 70
     1
102
RTVSPost2010Prop38
140
0.0
102
RTVSPost2010PropOp38
 70
     1
102
RTVSPost2010Prop39
140
1.0
102
RTVSPost2010PropOp39
 70
     1
102
RTVSPost2010Prop40
 90
        0
102
RTVSPost2010PropOp40
 70
     1
102
RTVSPost2010Prop41ColorIndex
 90
       18
102
RTVSPost2010Prop41ColorRGB
 90
        0
102
RTVSPost2010PropOp41
 70
     1
102
RTVSPost2010Prop42
 90
       50
102
RTVSPost2010PropOp42
 70
     1
102
RTVSPost2010Prop43
 90
        3
102
RTVSPost2010PropOp43
 70
     1
102
RTVSPost2010Prop44ColorIndex
 90
        5
102
RTVSPost2010Prop44ColorRGB
 90
      255
102
RTVSPost2010PropOp44
 70
     1
102
RTVSPost2010Prop45
280
     0
102
RTVSPost2010PropOp45
 70
     1
102
RTVSPost2010Prop46
 90
       50
102
RTVSPost2010PropOp46
 70
     1
102
RTVSPost2010Prop47
 90
       50
102
RTVSPost2010PropOp47
 70
     1
102
RTVSPost2010Prop48
 90
       50
102
RTVSPost2010PropOp48
 70
     1
102
RTVSPost2010Prop49
280
     0
102
RTVSPost2010PropOp49
 70
     1
102
RTVSPost2010Prop50
 90
       50
102
RTVSPost2010PropOp50
 70
     1
102
RTVSPost2010Prop51ColorIndex
 90
      256
102
RTVSPost2010Prop51ColorRGB
 90
-16777216
102
RTVSPost2010PropOp51
 70
     0
102
RTVSPost2010Prop52
140
1.0
102
RTVSPost2010PropOp52
 70
     0
102
RTVSPost2010Prop53
 90
        2
102
RTVSPost2010PropOp53
 70
     1
102
RTVSPost2010Prop54
  1
strokes_ogs.tif
102
RTVSPost2010PropOp54
 70
     1
102
RTVSPost2010Prop55
280
     0
102
RTVSPost2010PropOp55
 70
     1
102
RTVSPost2010Prop56
140
1.0
102
RTVSPost2010PropOp56
 70
     1
102
RTVSPost2010Prop57
140
1.0
102
RTVSPost2010PropOp57
 70
     1
  0
XRECORD
  5
C8
102
{ACAD_REACTORS
330
C7
102
}
330
C7
100
AcDbXrecord
280
     1
102
RTVSPropertyOp0
 70
     1
102
RTVSPropertyOp1
 70
     1
102
RTVSPropertyOp2
 70
     1
102
RTVSPropertyOp3
 70
     1
102
RTVSPropertyOp4
 70
     1
102
RTVSPropertyOp5
 70
     1
102
RTVSPropertyOp6
 70
     1
102
RTVSPropertyOp7
 70
     1
102
RTVSPropertyOp8
 70
     1
102
RTVSPropertyOp9
 70
     1
102
RTVSPropertyOp10
 70
     1
102
RTVSPropertyOp11
 70
     1
102
RTVSPropertyOp12
 70
     1
102
RTVSPropertyOp13
 70
     1
102
RTVSPropertyOp14
 70
     1
102
RTVSPropertyOp15
 70
     1
102
RTVSPropertyOp16
 70
     1
102
RTVSPropertyOp17
 70
     1
102
RTVSPropertyOp18
 70
     1
102
RTVSPropertyOp19
 70
     1
102
RTVSPropertyOp20
 70
     1
102
RTVSPropertyOp21
 70
     1
102
RTVSPropertyOp22
 70
     1
102
RTVSPropertyOp23
 70
     1
102
RTVSPropertyOp24
 70
     1
102
RTVSPropertyOp25
 70
     1
102
RTVSPropertyOp26
 70
     1
102
RTVSPropertyOp27
 70
     1
102
RTVSPropertyOp28
 70
     1
102
RTVSPropertyOp29
 70
     1
102
RTVSPropertyOp30
 70
     1
102
RTVSPropertyOp31
 70
     1
102
RTVSPropertyOp32
 70
     1
102
RTVSPropertyOp33
 70
     1
102
RTVSPropertyOp34
 70
     1
102
RTVSPropertyOp35
 70
     1
102
RTVSPropertyOp36
 70
     1
102
RTVSPropertyOp37
 70
     1
102
RTVSPropertyOp38
 70
     1
102
RTVSPropertyOp39
 70
     1
102
RTVSPropertyOp40
 70
     1
102
RTVSPropertyOp41
 70
     1
102
RTVSPropertyOp42
 70
     1
102
RTVSPropertyOp43
 70
     1
102
RTVSPropertyOp44
 70
     1
102
RTVSPropertyOp45
 70
     1
102
RTVSPropertyOp46
 70
     1
102
RTVSPropertyOp47
 70
     1
102
RTVSPropertyOp48
 70
     1
102
RTVSPropertyOp49
 70
     1
102
RTVSPropertyOp50
 70
     1
102
RTVSPropertyOp51
 70
     0
102
RTVSPropertyOp52
 70
     0
102
RTVSPropertyOp53
 70
     1
102
RTVSPropertyOp54
 70
     1
102
RTVSPropertyOp55
 70
     1
102
RTVSPropertyOp56
 70
     1
102
RTVSPropertyOp57
 70
     1
102
RTVSPost2010Prop28
280
     0
102
RTVSPost2010PropOp28
 70
     1
102
RTVSPost2010Prop29
280
     1
102
RTVSPost2010PropOp29
 70
     1
102
RTVSPost2010Prop30
280
     1
102
RTVSPost2010PropOp30
 70
     1
102
RTVSPost2010Prop31
280
     0
102
RTVSPost2010PropOp31
 70
     1
102
RTVSPost2010Prop32
280
     0
102
RTVSPost2010PropOp32
 70
     1
102
RTVSPost2010Prop33
280
     0
102
RTVSPost2010PropOp33
 70
     1
102
RTVSPost2010Prop34
280
     0
102
RTVSPost2010PropOp34
 70
     1
102
RTVSPost2010Prop35
280
     0
102
RTVSPost2010PropOp35
 70
     1
102
RTVSPost2010Prop36
280
     0
102
RTVSPost2010PropOp36
 70
     1
102
RTVSPost2010Prop37
 90
       50
102
RTVSPost2010PropOp37
 70
     1
102
RTVSPost2010Prop38
140
0.0
102
RTVSPost2010PropOp38
 70
     1
102
RTVSPost2010Prop39
140
1.0
102
RTVSPost2010PropOp39
 70
     1
102
RTVSPost2010Prop40
 90
        0
102
RTVSPost2010PropOp40
 70
     1
102
RTVSPost2010Prop41ColorIndex
 90
       18
102
RTVSPost2010Prop41ColorRGB
 90
        0
102
RTVSPost2010PropOp41
 70
     1
102
RTVSPost2010Prop42
 90
       50
102
RTVSPost2010PropOp42
 70
     1
102
RTVSPost2010Prop43
 90
        3
102
RTVSPost2010PropOp43
 70
     1
102
RTVSPost2010Prop44ColorIndex
 90
        5
102
RTVSPost2010Prop44ColorRGB
 90
      255
102
RTVSPost2010PropOp44
 70
     1
102
RTVSPost2010Prop45
280
     0
102
RTVSPost2010PropOp45
 70
     1
102
RTVSPost2010Prop46
 90
       50
102
RTVSPost2010PropOp46
 70
     1
102
RTVSPost2010Prop47
 90
       50
102
RTVSPost2010PropOp47
 70
     1
102
RTVSPost2010Prop48
 90
       50
102
RTVSPost2010PropOp48
 70
     1
102
RTVSPost2010Prop49
280
     0
102
RTVSPost2010PropOp49
 70
     1
102
RTVSPost2010Prop50
 90
       50
102
RTVSPost2010PropOp50
 70
     1
102
RTVSPost2010Prop51ColorIndex
 90
      256
102
RTVSPost2010Prop51ColorRGB
 90
-16777216
102
RTVSPost2010PropOp51
 70
     0
102
RTVSPost2010Prop52
140
1.0
102
RTVSPost2010PropOp52
 70
     0
102
RTVSPost2010Prop53
 90
        2
102
RTVSPost2010PropOp53
 70
     1
102
RTVSPost2010Prop54
  1
strokes_ogs.tif
102
RTVSPost2010PropOp54
 70
     1
102
RTVSPost2010Prop55
280
     0
102
RTVSPost2010PropOp55
 70
     1
102
RTVSPost2010Prop56
140
1.0
102
RTVSPost2010PropOp56
 70
     1
102
RTVSPost2010Prop57
140
1.0
102
RTVSPost2010PropOp57
 70
     1
  0
XRECORD
  5
D0
102
{ACAD_REACTORS
330
CF
102
}
330
CF
100
AcDbXrecord
280
     1
102
RTVSPropertyOp0
 70
     1
102
RTVSPropertyOp1
 70
     1
102
RTVSPropertyOp2
 70
     1
102
RTVSPropertyOp3
 70
     1
102
RTVSPropertyOp4
 70
     1
102
RTVSPropertyOp5
 70
     1
102
RTVSPropertyOp6
 70
     1
102
RTVSPropertyOp7
 70
     1
102
RTVSPropertyOp8
 70
     1
102
RTVSPropertyOp9
 70
     1
102
RTVSPropertyOp10
 70
     1
102
RTVSPropertyOp11
 70
     1
102
RTVSPropertyOp12
 70
     1
102
RTVSPropertyOp13
 70
     1
102
RTVSPropertyOp14
 70
     1
102
RTVSPropertyOp15
 70
     1
102
RTVSPropertyOp16
 70
     1
102
RTVSPropertyOp17
 70
     1
102
RTVSPropertyOp18
 70
     1
102
RTVSPropertyOp19
 70
     1
102
RTVSPropertyOp20
 70
     1
102
RTVSPropertyOp21
 70
     1
102
RTVSPropertyOp22
 70
     1
102
RTVSPropertyOp23
 70
     1
102
RTVSPropertyOp24
 70
     1
102
RTVSPropertyOp25
 70
     1
102
RTVSPropertyOp26
 70
     1
102
RTVSPropertyOp27
 70
     1
102
RTVSPropertyOp28
 70
     1
102
RTVSPropertyOp29
 70
     1
102
RTVSPropertyOp30
 70
     1
102
RTVSPropertyOp31
 70
     1
102
RTVSPropertyOp32
 70
     1
102
RTVSPropertyOp33
 70
     1
102
RTVSPropertyOp34
 70
     1
102
RTVSPropertyOp35
 70
     1
102
RTVSPropertyOp36
 70
     1
102
RTVSPropertyOp37
 70
     1
102
RTVSPropertyOp38
 70
     1
102
RTVSPropertyOp39
 70
     1
102
RTVSPropertyOp40
 70
     1
102
RTVSPropertyOp41
 70
     1
102
RTVSPropertyOp42
 70
     1
102
RTVSPropertyOp43
 70
     1
102
RTVSPropertyOp44
 70
     1
102
RTVSPropertyOp45
 70
     1
102
RTVSPropertyOp46
 70
     1
102
RTVSPropertyOp47
 70
     1
102
RTVSPropertyOp48
 70
     1
102
RTVSPropertyOp49
 70
     1
102
RTVSPropertyOp50
 70
     1
102
RTVSPropertyOp51
 70
     0
102
RTVSPropertyOp52
 70
     0
102
RTVSPropertyOp53
 70
     1
102
RTVSPropertyOp54
 70
     1
102
RTVSPropertyOp55
 70
     1
102
RTVSPropertyOp56
 70
     1
102
RTVSPropertyOp57
 70
     1
102
RTVSPost2010Prop28
280
     0
102
RTVSPost2010PropOp28
 70
     1
102
RTVSPost2010Prop29
280
     1
102
RTVSPost2010PropOp29
 70
     1
102
RTVSPost2010Prop30
280
     1
102
RTVSPost2010PropOp30
 70
     1
102
RTVSPost2010Prop31
280
     0
102
RTVSPost2010PropOp31
 70
     1
102
RTVSPost2010Prop32
280
     0
102
RTVSPost2010PropOp32
 70
     1
102
RTVSPost2010Prop33
280
     0
102
RTVSPost2010PropOp33
 70
     1
102
RTVSPost2010Prop34
280
     0
102
RTVSPost2010PropOp34
 70
     1
102
RTVSPost2010Prop35
280
     0
102
RTVSPost2010PropOp35
 70
     1
102
RTVSPost2010Prop36
280
     0
102
RTVSPost2010PropOp36
 70
     1
102
RTVSPost2010Prop37
 90
       50
102
RTVSPost2010PropOp37
 70
     1
102
RTVSPost2010Prop38
140
0.0
102
RTVSPost2010PropOp38
 70
     1
102
RTVSPost2010Prop39
140
1.0
102
RTVSPost2010PropOp39
 70
     1
102
RTVSPost2010Prop40
 90
        0
102
RTVSPost2010PropOp40
 70
     1
102
RTVSPost2010Prop41ColorIndex
 90
       18
102
RTVSPost2010Prop41ColorRGB
 90
        0
102
RTVSPost2010PropOp41
 70
     1
102
RTVSPost2010Prop42
 90
       50
102
RTVSPost2010PropOp42
 70
     1
102
RTVSPost2010Prop43
 90
        3
102
RTVSPost2010PropOp43
 70
     1
102
RTVSPost2010Prop44ColorIndex
 90
        5
102
RTVSPost2010Prop44ColorRGB
 90
      255
102
RTVSPost2010PropOp44
 70
     1
102
RTVSPost2010Prop45
280
     0
102
RTVSPost2010PropOp45
 70
     1
102
RTVSPost2010Prop46
 90
       50
102
RTVSPost2010PropOp46
 70
     1
102
RTVSPost2010Prop47
 90
       50
102
RTVSPost2010PropOp47
 70
     1
102
RTVSPost2010Prop48
 90
       50
102
RTVSPost2010PropOp48
 70
     1
102
RTVSPost2010Prop49
280
     0
102
RTVSPost2010PropOp49
 70
     1
102
RTVSPost2010Prop50
 90
       50
102
RTVSPost2010PropOp50
 70
     1
102
RTVSPost2010Prop51ColorIndex
 90
      256
102
RTVSPost2010Prop51ColorRGB
 90
-16777216
102
RTVSPost2010PropOp51
 70
     0
102
RTVSPost2010Prop52
140
1.0
102
RTVSPost2010PropOp52
 70
     0
102
RTVSPost2010Prop53
 90
        2
102
RTVSPost2010PropOp53
 70
     1
102
RTVSPost2010Prop54
  1
strokes_ogs.tif
102
RTVSPost2010PropOp54
 70
     1
102
RTVSPost2010Prop55
280
     0
102
RTVSPost2010PropOp55
 70
     1
102
RTVSPost2010Prop56
140
1.0
102
RTVSPost2010PropOp56
 70
     1
102
RTVSPost2010Prop57
140
1.0
102
RTVSPost2010PropOp57
 70
     1
  0
XRECORD
  5
C4
102
{ACAD_REACTORS
330
C3
102
}
330
C3
100
AcDbXrecord
280
     1
102
RTVSPropertyOp0
 70
     1
102
RTVSPropertyOp1
 70
     1
102
RTVSPropertyOp2
 70
     1
102
RTVSPropertyOp3
 70
     1
102
RTVSPropertyOp4
 70
     1
102
RTVSPropertyOp5
 70
     1
102
RTVSPropertyOp6
 70
     1
102
RTVSPropertyOp7
 70
     1
102
RTVSPropertyOp8
 70
     1
102
RTVSPropertyOp9
 70
     1
102
RTVSPropertyOp10
 70
     1
102
RTVSPropertyOp11
 70
     1
102
RTVSPropertyOp12
 70
     1
102
RTVSPropertyOp13
 70
     1
102
RTVSPropertyOp14
 70
     1
102
RTVSPropertyOp15
 70
     1
102
RTVSPropertyOp16
 70
     1
102
RTVSPropertyOp17
 70
     1
102
RTVSPropertyOp18
 70
     1
102
RTVSPropertyOp19
 70
     1
102
RTVSPropertyOp20
 70
     1
102
RTVSPropertyOp21
 70
     1
102
RTVSPropertyOp22
 70
     1
102
RTVSPropertyOp23
 70
     1
102
RTVSPropertyOp24
 70
     1
102
RTVSPropertyOp25
 70
     1
102
RTVSPropertyOp26
 70
     1
102
RTVSPropertyOp27
 70
     1
102
RTVSPropertyOp28
 70
     1
102
RTVSPropertyOp29
 70
     1
102
RTVSPropertyOp30
 70
     1
102
RTVSPropertyOp31
 70
     1
102
RTVSPropertyOp32
 70
     1
102
RTVSPropertyOp33
 70
     1
102
RTVSPropertyOp34
 70
     1
102
RTVSPropertyOp35
 70
     1
102
RTVSPropertyOp36
 70
     1
102
RTVSPropertyOp37
 70
     1
102
RTVSPropertyOp38
 70
     1
102
RTVSPropertyOp39
 70
     1
102
RTVSPropertyOp40
 70
     1
102
RTVSPropertyOp41
 70
     1
102
RTVSPropertyOp42
 70
     1
102
RTVSPropertyOp43
 70
     1
102
RTVSPropertyOp44
 70
     1
102
RTVSPropertyOp45
 70
     1
102
RTVSPropertyOp46
 70
     1
102
RTVSPropertyOp47
 70
     1
102
RTVSPropertyOp48
 70
     1
102
RTVSPropertyOp49
 70
     1
102
RTVSPropertyOp50
 70
     1
102
RTVSPropertyOp51
 70
     0
102
RTVSPropertyOp52
 70
     0
102
RTVSPropertyOp53
 70
     1
102
RTVSPropertyOp54
 70
     1
102
RTVSPropertyOp55
 70
     1
102
RTVSPropertyOp56
 70
     1
102
RTVSPropertyOp57
 70
     1
102
RTVSPost2010Prop28
280
     0
102
RTVSPost2010PropOp28
 70
     1
102
RTVSPost2010Prop29
280
     1
102
RTVSPost2010PropOp29
 70
     1
102
RTVSPost2010Prop30
280
     1
102
RTVSPost2010PropOp30
 70
     1
102
RTVSPost2010Prop31
280
     0
102
RTVSPost2010PropOp31
 70
     1
102
RTVSPost2010Prop32
280
     0
102
RTVSPost2010PropOp32
 70
     1
102
RTVSPost2010Prop33
280
     0
102
RTVSPost2010PropOp33
 70
     1
102
RTVSPost2010Prop34
280
     0
102
RTVSPost2010PropOp34
 70
     1
102
RTVSPost2010Prop35
280
     0
102
RTVSPost2010PropOp35
 70
     1
102
RTVSPost2010Prop36
280
     0
102
RTVSPost2010PropOp36
 70
     1
102
RTVSPost2010Prop37
 90
       50
102
RTVSPost2010PropOp37
 70
     1
102
RTVSPost2010Prop38
140
0.0
102
RTVSPost2010PropOp38
 70
     1
102
RTVSPost2010Prop39
140
1.0
102
RTVSPost2010PropOp39
 70
     1
102
RTVSPost2010Prop40
 90
        0
102
RTVSPost2010PropOp40
 70
     1
102
RTVSPost2010Prop41ColorIndex
 90
       18
102
RTVSPost2010Prop41ColorRGB
 90
        0
102
RTVSPost2010PropOp41
 70
     1
102
RTVSPost2010Prop42
 90
       50
102
RTVSPost2010PropOp42
 70
     1
102
RTVSPost2010Prop43
 90
        3
102
RTVSPost2010PropOp43
 70
     1
102
RTVSPost2010Prop44ColorIndex
 90
        5
102
RTVSPost2010Prop44ColorRGB
 90
      255
102
RTVSPost2010PropOp44
 70
     1
102
RTVSPost2010Prop45
280
     0
102
RTVSPost2010PropOp45
 70
     1
102
RTVSPost2010Prop46
 90
       50
102
RTVSPost2010PropOp46
 70
     1
102
RTVSPost2010Prop47
 90
       50
102
RTVSPost2010PropOp47
 70
     1
102
RTVSPost2010Prop48
 90
       50
102
RTVSPost2010PropOp48
 70
     1
102
RTVSPost2010Prop49
280
     0
102
RTVSPost2010PropOp49
 70
     1
102
RTVSPost2010Prop50
 90
       50
102
RTVSPost2010PropOp50
 70
     1
102
RTVSPost2010Prop51ColorIndex
 90
      256
102
RTVSPost2010Prop51ColorRGB
 90
-16777216
102
RTVSPost2010PropOp51
 70
     0
102
RTVSPost2010Prop52
140
1.0
102
RTVSPost2010PropOp52
 70
     0
102
RTVSPost2010Prop53
 90
        2
102
RTVSPost2010PropOp53
 70
     1
102
RTVSPost2010Prop54
  1
strokes_ogs.tif
102
RTVSPost2010PropOp54
 70
     1
102
RTVSPost2010Prop55
280
     0
102
RTVSPost2010PropOp55
 70
     1
102
RTVSPost2010Prop56
140
1.0
102
RTVSPost2010PropOp56
 70
     1
102
RTVSPost2010Prop57
140
1.0
102
RTVSPost2010PropOp57
 70
     1
  0
XRECORD
  5
C6
102
{ACAD_REACTORS
330
C5
102
}
330
C5
100
AcDbXrecord
280
     1
102
RTVSPropertyOp0
 70
     1
102
RTVSPropertyOp1
 70
     1
102
RTVSPropertyOp2
 70
     1
102
RTVSPropertyOp3
 70
     1
102
RTVSPropertyOp4
 70
     1
102
RTVSPropertyOp5
 70
     1
102
RTVSPropertyOp6
 70
     1
102
RTVSPropertyOp7
 70
     1
102
RTVSPropertyOp8
 70
     1
102
RTVSPropertyOp9
 70
     1
102
RTVSPropertyOp10
 70
     1
102
RTVSPropertyOp11
 70
     1
102
RTVSPropertyOp12
 70
     1
102
RTVSPropertyOp13
 70
     1
102
RTVSPropertyOp14
 70
     1
102
RTVSPropertyOp15
 70
     1
102
RTVSPropertyOp16
 70
     1
102
RTVSPropertyOp17
 70
     1
102
RTVSPropertyOp18
 70
     1
102
RTVSPropertyOp19
 70
     1
102
RTVSPropertyOp20
 70
     1
102
RTVSPropertyOp21
 70
     1
102
RTVSPropertyOp22
 70
     1
102
RTVSPropertyOp23
 70
     1
102
RTVSPropertyOp24
 70
     1
102
RTVSPropertyOp25
 70
     1
102
RTVSPropertyOp26
 70
     1
102
RTVSPropertyOp27
 70
     1
102
RTVSPropertyOp28
 70
     1
102
RTVSPropertyOp29
 70
     1
102
RTVSPropertyOp30
 70
     1
102
RTVSPropertyOp31
 70
     1
102
RTVSPropertyOp32
 70
     1
102
RTVSPropertyOp33
 70
     1
102
RTVSPropertyOp34
 70
     1
102
RTVSPropertyOp35
 70
     1
102
RTVSPropertyOp36
 70
     1
102
RTVSPropertyOp37
 70
     1
102
RTVSPropertyOp38
 70
     1
102
RTVSPropertyOp39
 70
     1
102
RTVSPropertyOp40
 70
     1
102
RTVSPropertyOp41
 70
     1
102
RTVSPropertyOp42
 70
     1
102
RTVSPropertyOp43
 70
     1
102
RTVSPropertyOp44
 70
     1
102
RTVSPropertyOp45
 70
     1
102
RTVSPropertyOp46
 70
     1
102
RTVSPropertyOp47
 70
     1
102
RTVSPropertyOp48
 70
     1
102
RTVSPropertyOp49
 70
     1
102
RTVSPropertyOp50
 70
     1
102
RTVSPropertyOp51
 70
     0
102
RTVSPropertyOp52
 70
     0
102
RTVSPropertyOp53
 70
     1
102
RTVSPropertyOp54
 70
     1
102
RTVSPropertyOp55
 70
     1
102
RTVSPropertyOp56
 70
     1
102
RTVSPropertyOp57
 70
     1
102
RTVSPost2010Prop28
280
     0
102
RTVSPost2010PropOp28
 70
     1
102
RTVSPost2010Prop29
280
     1
102
RTVSPost2010PropOp29
 70
     1
102
RTVSPost2010Prop30
280
     1
102
RTVSPost2010PropOp30
 70
     1
102
RTVSPost2010Prop31
280
     0
102
RTVSPost2010PropOp31
 70
     1
102
RTVSPost2010Prop32
280
     0
102
RTVSPost2010PropOp32
 70
     1
102
RTVSPost2010Prop33
280
     0
102
RTVSPost2010PropOp33
 70
     1
102
RTVSPost2010Prop34
280
     0
102
RTVSPost2010PropOp34
 70
     1
102
RTVSPost2010Prop35
280
     0
102
RTVSPost2010PropOp35
 70
     1
102
RTVSPost2010Prop36
280
     0
102
RTVSPost2010PropOp36
 70
     1
102
RTVSPost2010Prop37
 90
       50
102
RTVSPost2010PropOp37
 70
     1
102
RTVSPost2010Prop38
140
0.0
102
RTVSPost2010PropOp38
 70
     1
102
RTVSPost2010Prop39
140
1.0
102
RTVSPost2010PropOp39
 70
     1
102
RTVSPost2010Prop40
 90
        0
102
RTVSPost2010PropOp40
 70
     1
102
RTVSPost2010Prop41ColorIndex
 90
       18
102
RTVSPost2010Prop41ColorRGB
 90
        0
102
RTVSPost2010PropOp41
 70
     1
102
RTVSPost2010Prop42
 90
       50
102
RTVSPost2010PropOp42
 70
     1
102
RTVSPost2010Prop43
 90
        3
102
RTVSPost2010PropOp43
 70
     1
102
RTVSPost2010Prop44ColorIndex
 90
        5
102
RTVSPost2010Prop44ColorRGB
 90
      255
102
RTVSPost2010PropOp44
 70
     1
102
RTVSPost2010Prop45
280
     0
102
RTVSPost2010PropOp45
 70
     1
102
RTVSPost2010Prop46
 90
       50
102
RTVSPost2010PropOp46
 70
     1
102
RTVSPost2010Prop47
 90
       50
102
RTVSPost2010PropOp47
 70
     1
102
RTVSPost2010Prop48
 90
       50
102
RTVSPost2010PropOp48
 70
     1
102
RTVSPost2010Prop49
280
     0
102
RTVSPost2010PropOp49
 70
     1
102
RTVSPost2010Prop50
 90
       50
102
RTVSPost2010PropOp50
 70
     1
102
RTVSPost2010Prop51ColorIndex
 90
      256
102
RTVSPost2010Prop51ColorRGB
 90
-16777216
102
RTVSPost2010PropOp51
 70
     0
102
RTVSPost2010Prop52
140
1.0
102
RTVSPost2010PropOp52
 70
     0
102
RTVSPost2010Prop53
 90
        2
102
RTVSPost2010PropOp53
 70
     1
102
RTVSPost2010Prop54
  1
strokes_ogs.tif
102
RTVSPost2010PropOp54
 70
     1
102
RTVSPost2010Prop55
280
     0
102
RTVSPost2010PropOp55
 70
     1
102
RTVSPost2010Prop56
140
1.0
102
RTVSPost2010PropOp56
 70
     1
102
RTVSPost2010Prop57
140
1.0
102
RTVSPost2010PropOp57
 70
     1
  0
XRECORD
  5
D6
102
{ACAD_REACTORS
330
D5
102
}
330
D5
100
AcDbXrecord
280
     1
102
RTVSPropertyOp0
 70
     0
102
RTVSPropertyOp1
 70
     0
102
RTVSPropertyOp2
 70
     0
102
RTVSPropertyOp3
 70
     0
102
RTVSPropertyOp4
 70
     0
102
RTVSPropertyOp5
 70
     0
102
RTVSPropertyOp6
 70
     0
102
RTVSPropertyOp7
 70
     0
102
RTVSPropertyOp8
 70
     0
102
RTVSPropertyOp9
 70
     0
102
RTVSPropertyOp10
 70
     0
102
RTVSPropertyOp11
 70
     0
102
RTVSPropertyOp12
 70
     0
102
RTVSPropertyOp13
 70
     0
102
RTVSPropertyOp14
 70
     2
102
RTVSPropertyOp15
 70
     0
102
RTVSPropertyOp16
 70
     0
102
RTVSPropertyOp17
 70
     0
102
RTVSPropertyOp18
 70
     0
102
RTVSPropertyOp19
 70
     0
102
RTVSPropertyOp20
 70
     0
102
RTVSPropertyOp21
 70
     0
102
RTVSPropertyOp22
 70
     0
102
RTVSPropertyOp23
 70
     0
102
RTVSPropertyOp24
 70
     0
102
RTVSPropertyOp25
 70
     0
102
RTVSPropertyOp26
 70
     0
102
RTVSPropertyOp27
 70
     0
102
RTVSPropertyOp28
 70
     0
102
RTVSPropertyOp29
 70
     0
102
RTVSPropertyOp30
 70
     0
102
RTVSPropertyOp31
 70
     0
102
RTVSPropertyOp32
 70
     0
102
RTVSPropertyOp33
 70
     0
102
RTVSPropertyOp34
 70
     0
102
RTVSPropertyOp35
 70
     0
102
RTVSPropertyOp36
 70
     0
102
RTVSPropertyOp37
 70
     0
102
RTVSPropertyOp38
 70
     0
102
RTVSPropertyOp39
 70
     0
102
RTVSPropertyOp40
 70
     0
102
RTVSPropertyOp41
 70
     0
102
RTVSPropertyOp42
 70
     0
102
RTVSPropertyOp43
 70
     0
102
RTVSPropertyOp44
 70
     0
102
RTVSPropertyOp45
 70
     0
102
RTVSPropertyOp46
 70
     0
102
RTVSPropertyOp47
 70
     0
102
RTVSPropertyOp48
 70
     0
102
RTVSPropertyOp49
 70
     0
102
RTVSPropertyOp50
 70
     0
102
RTVSPropertyOp51
 70
     0
102
RTVSPropertyOp52
 70
     0
102
RTVSPropertyOp53
 70
     0
102
RTVSPropertyOp54
 70
     0
102
RTVSPropertyOp55
 70
     0
102
RTVSPropertyOp56
 70
     0
102
RTVSPropertyOp57
 70
     0
102
RTVSPost2010Prop28
280
     0
102
RTVSPost2010PropOp28
 70
     0
102
RTVSPost2010Prop29
280
     1
102
RTVSPost2010PropOp29
 70
     0
102
RTVSPost2010Prop30
280
     1
102
RTVSPost2010PropOp30
 70
     0
102
RTVSPost2010Prop31
280
     0
102
RTVSPost2010PropOp31
 70
     0
102
RTVSPost2010Prop32
280
     0
102
RTVSPost2010PropOp32
 70
     0
102
RTVSPost2010Prop33
280
     0
102
RTVSPost2010PropOp33
 70
     0
102
RTVSPost2010Prop34
280
     0
102
RTVSPost2010PropOp34
 70
     0
102
RTVSPost2010Prop35
280
     0
102
RTVSPost2010PropOp35
 70
     0
102
RTVSPost2010Prop36
280
     0
102
RTVSPost2010PropOp36
 70
     0
102
RTVSPost2010Prop37
 90
       50
102
RTVSPost2010PropOp37
 70
     0
102
RTVSPost2010Prop38
140
0.0
102
RTVSPost2010PropOp38
 70
     0
102
RTVSPost2010Prop39
140
1.0
102
RTVSPost2010PropOp39
 70
     0
102
RTVSPost2010Prop40
 90
        0
102
RTVSPost2010PropOp40
 70
     0
102
RTVSPost2010Prop41ColorIndex
 90
       18
102
RTVSPost2010Prop41ColorRGB
 90
        0
102
RTVSPost2010PropOp41
 70
     0
102
RTVSPost2010Prop42
 90
       50
102
RTVSPost2010PropOp42
 70
     0
102
RTVSPost2010Prop43
 90
        3
102
RTVSPost2010PropOp43
 70
     0
102
RTVSPost2010Prop44ColorIndex
 90
        5
102
RTVSPost2010Prop44ColorRGB
 90
      255
102
RTVSPost2010PropOp44
 70
     0
102
RTVSPost2010Prop45
280
     0
102
RTVSPost2010PropOp45
 70
     0
102
RTVSPost2010Prop46
 90
       50
102
RTVSPost2010PropOp46
 70
     0
102
RTVSPost2010Prop47
 90
       50
102
RTVSPost2010PropOp47
 70
     0
102
RTVSPost2010Prop48
 90
       50
102
RTVSPost2010PropOp48
 70
     0
102
RTVSPost2010Prop49
280
     0
102
RTVSPost2010PropOp49
 70
     0
102
RTVSPost2010Prop50
 90
       50
102
RTVSPost2010PropOp50
 70
     0
102
RTVSPost2010Prop51ColorIndex
 90
      256
102
RTVSPost2010Prop51ColorRGB
 90
-16777216
102
RTVSPost2010PropOp51
 70
     0
102
RTVSPost2010Prop52
140
1.0
102
RTVSPost2010PropOp52
 70
     0
102
RTVSPost2010Prop53
 90
        2
102
RTVSPost2010PropOp53
 70
     0
102
RTVSPost2010Prop54
  1
strokes_ogs.tif
102
RTVSPost2010PropOp54
 70
     0
102
RTVSPost2010Prop55
280
     0
102
RTVSPost2010PropOp55
 70
     0
102
RTVSPost2010Prop56
140
1.0
102
RTVSPost2010PropOp56
 70
     0
102
RTVSPost2010Prop57
140
1.0
102
RTVSPost2010PropOp57
 70
     0
  0
XRECORD
  5
CE
102
{ACAD_REACTORS
330
CD
102
}
330
CD
100
AcDbXrecord
280
     1
102
RTVSPropertyOp0
 70
     1
102
RTVSPropertyOp1
 70
     1
102
RTVSPropertyOp2
 70
     1
102
RTVSPropertyOp3
 70
     1
102
RTVSPropertyOp4
 70
     1
102
RTVSPropertyOp5
 70
     1
102
RTVSPropertyOp6
 70
     1
102
RTVSPropertyOp7
 70
     1
102
RTVSPropertyOp8
 70
     1
102
RTVSPropertyOp9
 70
     1
102
RTVSPropertyOp10
 70
     1
102
RTVSPropertyOp11
 70
     1
102
RTVSPropertyOp12
 70
     1
102
RTVSPropertyOp13
 70
     1
102
RTVSPropertyOp14
 70
     1
102
RTVSPropertyOp15
 70
     1
102
RTVSPropertyOp16
 70
     1
102
RTVSPropertyOp17
 70
     1
102
RTVSPropertyOp18
 70
     1
102
RTVSPropertyOp19
 70
     1
102
RTVSPropertyOp20
 70
     1
102
RTVSPropertyOp21
 70
     1
102
RTVSPropertyOp22
 70
     1
102
RTVSPropertyOp23
 70
     1
102
RTVSPropertyOp24
 70
     1
102
RTVSPropertyOp25
 70
     1
102
RTVSPropertyOp26
 70
     1
102
RTVSPropertyOp27
 70
     1
102
RTVSPropertyOp28
 70
     1
102
RTVSPropertyOp29
 70
     1
102
RTVSPropertyOp30
 70
     1
102
RTVSPropertyOp31
 70
     1
102
RTVSPropertyOp32
 70
     1
102
RTVSPropertyOp33
 70
     1
102
RTVSPropertyOp34
 70
     1
102
RTVSPropertyOp35
 70
     1
102
RTVSPropertyOp36
 70
     1
102
RTVSPropertyOp37
 70
     1
102
RTVSPropertyOp38
 70
     1
102
RTVSPropertyOp39
 70
     1
102
RTVSPropertyOp40
 70
     1
102
RTVSPropertyOp41
 70
     1
102
RTVSPropertyOp42
 70
     1
102
RTVSPropertyOp43
 70
     1
102
RTVSPropertyOp44
 70
     1
102
RTVSPropertyOp45
 70
     1
102
RTVSPropertyOp46
 70
     1
102
RTVSPropertyOp47
 70
     1
102
RTVSPropertyOp48
 70
     1
102
RTVSPropertyOp49
 70
     1
102
RTVSPropertyOp50
 70
     1
102
RTVSPropertyOp51
 70
     0
102
RTVSPropertyOp52
 70
     0
102
RTVSPropertyOp53
 70
     1
102
RTVSPropertyOp54
 70
     1
102
RTVSPropertyOp55
 70
     1
102
RTVSPropertyOp56
 70
     1
102
RTVSPropertyOp57
 70
     1
102
RTVSPost2010Prop28
280
     0
102
RTVSPost2010PropOp28
 70
     1
102
RTVSPost2010Prop29
280
     1
102
RTVSPost2010PropOp29
 70
     1
102
RTVSPost2010Prop30
280
     1
102
RTVSPost2010PropOp30
 70
     1
102
RTVSPost2010Prop31
280
     0
102
RTVSPost2010PropOp31
 70
     1
102
RTVSPost2010Prop32
280
     0
102
RTVSPost2010PropOp32
 70
     1
102
RTVSPost2010Prop33
280
     0
102
RTVSPost2010PropOp33
 70
     1
102
RTVSPost2010Prop34
280
     0
102
RTVSPost2010PropOp34
 70
     1
102
RTVSPost2010Prop35
280
     0
102
RTVSPost2010PropOp35
 70
     1
102
RTVSPost2010Prop36
280
     0
102
RTVSPost2010PropOp36
 70
     1
102
RTVSPost2010Prop37
 90
       50
102
RTVSPost2010PropOp37
 70
     1
102
RTVSPost2010Prop38
140
0.0
102
RTVSPost2010PropOp38
 70
     1
102
RTVSPost2010Prop39
140
1.0
102
RTVSPost2010PropOp39
 70
     1
102
RTVSPost2010Prop40
 90
        0
102
RTVSPost2010PropOp40
 70
     1
102
RTVSPost2010Prop41ColorIndex
 90
       18
102
RTVSPost2010Prop41ColorRGB
 90
        0
102
RTVSPost2010PropOp41
 70
     1
102
RTVSPost2010Prop42
 90
       50
102
RTVSPost2010PropOp42
 70
     1
102
RTVSPost2010Prop43
 90
        3
102
RTVSPost2010PropOp43
 70
     1
102
RTVSPost2010Prop44ColorIndex
 90
        5
102
RTVSPost2010Prop44ColorRGB
 90
      255
102
RTVSPost2010PropOp44
 70
     1
102
RTVSPost2010Prop45
280
     0
102
RTVSPost2010PropOp45
 70
     1
102
RTVSPost2010Prop46
 90
       50
102
RTVSPost2010PropOp46
 70
     1
102
RTVSPost2010Prop47
 90
       50
102
RTVSPost2010PropOp47
 70
     1
102
RTVSPost2010Prop48
 90
       50
102
RTVSPost2010PropOp48
 70
     1
102
RTVSPost2010Prop49
280
     0
102
RTVSPost2010PropOp49
 70
     1
102
RTVSPost2010Prop50
 90
       50
102
RTVSPost2010PropOp50
 70
     1
102
RTVSPost2010Prop51ColorIndex
 90
      256
102
RTVSPost2010Prop51ColorRGB
 90
-16777216
102
RTVSPost2010PropOp51
 70
     0
102
RTVSPost2010Prop52
140
1.0
102
RTVSPost2010PropOp52
 70
     0
102
RTVSPost2010Prop53
 90
        2
102
RTVSPost2010PropOp53
 70
     1
102
RTVSPost2010Prop54
  1
strokes_ogs.tif
102
RTVSPost2010PropOp54
 70
     1
102
RTVSPost2010Prop55
280
     0
102
RTVSPost2010PropOp55
 70
     1
102
RTVSPost2010Prop56
140
1.0
102
RTVSPost2010PropOp56
 70
     1
102
RTVSPost2010Prop57
140
1.0
102
RTVSPost2010PropOp57
 70
     1
  0
XRECORD
  5
B4
102
{ACAD_REACTORS
330
B3
102
}
330
B3
100
AcDbXrecord
280
     1
102
RTVSPropertyOp0
 70
     1
102
RTVSPropertyOp1
 70
     1
102
RTVSPropertyOp2
 70
     1
102
RTVSPropertyOp3
 70
     1
102
RTVSPropertyOp4
 70
     1
102
RTVSPropertyOp5
 70
     1
102
RTVSPropertyOp6
 70
     1
102
RTVSPropertyOp7
 70
     1
102
RTVSPropertyOp8
 70
     1
102
RTVSPropertyOp9
 70
     1
102
RTVSPropertyOp10
 70
     1
102
RTVSPropertyOp11
 70
     1
102
RTVSPropertyOp12
 70
     1
102
RTVSPropertyOp13
 70
     1
102
RTVSPropertyOp14
 70
     1
102
RTVSPropertyOp15
 70
     1
102
RTVSPropertyOp16
 70
     1
102
RTVSPropertyOp17
 70
     1
102
RTVSPropertyOp18
 70
     1
102
RTVSPropertyOp19
 70
     1
102
RTVSPropertyOp20
 70
     1
102
RTVSPropertyOp21
 70
     1
102
RTVSPropertyOp22
 70
     1
102
RTVSPropertyOp23
 70
     1
102
RTVSPropertyOp24
 70
     1
102
RTVSPropertyOp25
 70
     1
102
RTVSPropertyOp26
 70
     1
102
RTVSPropertyOp27
 70
     1
102
RTVSPropertyOp28
 70
     1
102
RTVSPropertyOp29
 70
     1
102
RTVSPropertyOp30
 70
     1
102
RTVSPropertyOp31
 70
     1
102
RTVSPropertyOp32
 70
     1
102
RTVSPropertyOp33
 70
     1
102
RTVSPropertyOp34
 70
     1
102
RTVSPropertyOp35
 70
     1
102
RTVSPropertyOp36
 70
     1
102
RTVSPropertyOp37
 70
     1
102
RTVSPropertyOp38
 70
     1
102
RTVSPropertyOp39
 70
     1
102
RTVSPropertyOp40
 70
     1
102
RTVSPropertyOp41
 70
     1
102
RTVSPropertyOp42
 70
     1
102
RTVSPropertyOp43
 70
     1
102
RTVSPropertyOp44
 70
     1
102
RTVSPropertyOp45
 70
     1
102
RTVSPropertyOp46
 70
     1
102
RTVSPropertyOp47
 70
     1
102
RTVSPropertyOp48
 70
     1
102
RTVSPropertyOp49
 70
     1
102
RTVSPropertyOp50
 70
     1
102
RTVSPropertyOp51
 70
     0
102
RTVSPropertyOp52
 70
     0
102
RTVSPropertyOp53
 70
     1
102
RTVSPropertyOp54
 70
     1
102
RTVSPropertyOp55
 70
     1
102
RTVSPropertyOp56
 70
     1
102
RTVSPropertyOp57
 70
     1
102
RTVSPost2010Prop28
280
     0
102
RTVSPost2010PropOp28
 70
     1
102
RTVSPost2010Prop29
280
     1
102
RTVSPost2010PropOp29
 70
     1
102
RTVSPost2010Prop30
280
     1
102
RTVSPost2010PropOp30
 70
     1
102
RTVSPost2010Prop31
280
     0
102
RTVSPost2010PropOp31
 70
     1
102
RTVSPost2010Prop32
280
     0
102
RTVSPost2010PropOp32
 70
     1
102
RTVSPost2010Prop33
280
     0
102
RTVSPost2010PropOp33
 70
     1
102
RTVSPost2010Prop34
280
     0
102
RTVSPost2010PropOp34
 70
     1
102
RTVSPost2010Prop35
280
     0
102
RTVSPost2010PropOp35
 70
     1
102
RTVSPost2010Prop36
280
     0
102
RTVSPost2010PropOp36
 70
     1
102
RTVSPost2010Prop37
 90
       50
102
RTVSPost2010PropOp37
 70
     1
102
RTVSPost2010Prop38
140
0.0
102
RTVSPost2010PropOp38
 70
     1
102
RTVSPost2010Prop39
140
1.0
102
RTVSPost2010PropOp39
 70
     1
102
RTVSPost2010Prop40
 90
        0
102
RTVSPost2010PropOp40
 70
     1
102
RTVSPost2010Prop41ColorIndex
 90
       18
102
RTVSPost2010Prop41ColorRGB
 90
        0
102
RTVSPost2010PropOp41
 70
     1
102
RTVSPost2010Prop42
 90
       50
102
RTVSPost2010PropOp42
 70
     1
102
RTVSPost2010Prop43
 90
        3
102
RTVSPost2010PropOp43
 70
     1
102
RTVSPost2010Prop44ColorIndex
 90
        5
102
RTVSPost2010Prop44ColorRGB
 90
      255
102
RTVSPost2010PropOp44
 70
     1
102
RTVSPost2010Prop45
280
     0
102
RTVSPost2010PropOp45
 70
     1
102
RTVSPost2010Prop46
 90
       50
102
RTVSPost2010PropOp46
 70
     1
102
RTVSPost2010Prop47
 90
       50
102
RTVSPost2010PropOp47
 70
     1
102
RTVSPost2010Prop48
 90
       50
102
RTVSPost2010PropOp48
 70
     1
102
RTVSPost2010Prop49
280
     0
102
RTVSPost2010PropOp49
 70
     1
102
RTVSPost2010Prop50
 90
       50
102
RTVSPost2010PropOp50
 70
     1
102
RTVSPost2010Prop51ColorIndex
 90
      256
102
RTVSPost2010Prop51ColorRGB
 90
-16777216
102
RTVSPost2010PropOp51
 70
     0
102
RTVSPost2010Prop52
140
1.0
102
RTVSPost2010PropOp52
 70
     0
102
RTVSPost2010Prop53
 90
        2
102
RTVSPost2010PropOp53
 70
     1
102
RTVSPost2010Prop54
  1
strokes_ogs.tif
102
RTVSPost2010PropOp54
 70
     1
102
RTVSPost2010Prop55
280
     0
102
RTVSPost2010PropOp55
 70
     1
102
RTVSPost2010Prop56
140
1.0
102
RTVSPost2010PropOp56
 70
     1
102
RTVSPost2010Prop57
140
1.0
102
RTVSPost2010PropOp57
 70
     1
  0
XRECORD
  5
B6
102
{ACAD_REACTORS
330
B5
102
}
330
B5
100
AcDbXrecord
280
     1
102
RTVSPropertyOp0
 70
     1
102
RTVSPropertyOp1
 70
     1
102
RTVSPropertyOp2
 70
     1
102
RTVSPropertyOp3
 70
     1
102
RTVSPropertyOp4
 70
     1
102
RTVSPropertyOp5
 70
     1
102
RTVSPropertyOp6
 70
     1
102
RTVSPropertyOp7
 70
     1
102
RTVSPropertyOp8
 70
     1
102
RTVSPropertyOp9
 70
     1
102
RTVSPropertyOp10
 70
     1
102
RTVSPropertyOp11
 70
     1
102
RTVSPropertyOp12
 70
     1
102
RTVSPropertyOp13
 70
     1
102
RTVSPropertyOp14
 70
     1
102
RTVSPropertyOp15
 70
     1
102
RTVSPropertyOp16
 70
     1
102
RTVSPropertyOp17
 70
     1
102
RTVSPropertyOp18
 70
     1
102
RTVSPropertyOp19
 70
     1
102
RTVSPropertyOp20
 70
     1
102
RTVSPropertyOp21
 70
     1
102
RTVSPropertyOp22
 70
     1
102
RTVSPropertyOp23
 70
     1
102
RTVSPropertyOp24
 70
     1
102
RTVSPropertyOp25
 70
     1
102
RTVSPropertyOp26
 70
     1
102
RTVSPropertyOp27
 70
     1
102
RTVSPropertyOp28
 70
     1
102
RTVSPropertyOp29
 70
     1
102
RTVSPropertyOp30
 70
     1
102
RTVSPropertyOp31
 70
     1
102
RTVSPropertyOp32
 70
     1
102
RTVSPropertyOp33
 70
     1
102
RTVSPropertyOp34
 70
     1
102
RTVSPropertyOp35
 70
     1
102
RTVSPropertyOp36
 70
     1
102
RTVSPropertyOp37
 70
     1
102
RTVSPropertyOp38
 70
     1
102
RTVSPropertyOp39
 70
     1
102
RTVSPropertyOp40
 70
     1
102
RTVSPropertyOp41
 70
     1
102
RTVSPropertyOp42
 70
     1
102
RTVSPropertyOp43
 70
     1
102
RTVSPropertyOp44
 70
     1
102
RTVSPropertyOp45
 70
     1
102
RTVSPropertyOp46
 70
     1
102
RTVSPropertyOp47
 70
     1
102
RTVSPropertyOp48
 70
     1
102
RTVSPropertyOp49
 70
     1
102
RTVSPropertyOp50
 70
     1
102
RTVSPropertyOp51
 70
     0
102
RTVSPropertyOp52
 70
     0
102
RTVSPropertyOp53
 70
     1
102
RTVSPropertyOp54
 70
     1
102
RTVSPropertyOp55
 70
     1
102
RTVSPropertyOp56
 70
     1
102
RTVSPropertyOp57
 70
     1
102
RTVSPost2010Prop28
280
     0
102
RTVSPost2010PropOp28
 70
     1
102
RTVSPost2010Prop29
280
     1
102
RTVSPost2010PropOp29
 70
     1
102
RTVSPost2010Prop30
280
     1
102
RTVSPost2010PropOp30
 70
     1
102
RTVSPost2010Prop31
280
     0
102
RTVSPost2010PropOp31
 70
     1
102
RTVSPost2010Prop32
280
     0
102
RTVSPost2010PropOp32
 70
     1
102
RTVSPost2010Prop33
280
     0
102
RTVSPost2010PropOp33
 70
     1
102
RTVSPost2010Prop34
280
     0
102
RTVSPost2010PropOp34
 70
     1
102
RTVSPost2010Prop35
280
     0
102
RTVSPost2010PropOp35
 70
     1
102
RTVSPost2010Prop36
280
     0
102
RTVSPost2010PropOp36
 70
     1
102
RTVSPost2010Prop37
 90
       50
102
RTVSPost2010PropOp37
 70
     1
102
RTVSPost2010Prop38
140
0.0
102
RTVSPost2010PropOp38
 70
     1
102
RTVSPost2010Prop39
140
1.0
102
RTVSPost2010PropOp39
 70
     1
102
RTVSPost2010Prop40
 90
        0
102
RTVSPost2010PropOp40
 70
     1
102
RTVSPost2010Prop41ColorIndex
 90
       18
102
RTVSPost2010Prop41ColorRGB
 90
        0
102
RTVSPost2010PropOp41
 70
     1
102
RTVSPost2010Prop42
 90
       50
102
RTVSPost2010PropOp42
 70
     1
102
RTVSPost2010Prop43
 90
        3
102
RTVSPost2010PropOp43
 70
     1
102
RTVSPost2010Prop44ColorIndex
 90
        5
102
RTVSPost2010Prop44ColorRGB
 90
      255
102
RTVSPost2010PropOp44
 70
     1
102
RTVSPost2010Prop45
280
     0
102
RTVSPost2010PropOp45
 70
     1
102
RTVSPost2010Prop46
 90
       50
102
RTVSPost2010PropOp46
 70
     1
102
RTVSPost2010Prop47
 90
       50
102
RTVSPost2010PropOp47
 70
     1
102
RTVSPost2010Prop48
 90
       50
102
RTVSPost2010PropOp48
 70
     1
102
RTVSPost2010Prop49
280
     0
102
RTVSPost2010PropOp49
 70
     1
102
RTVSPost2010Prop50
 90
       50
102
RTVSPost2010PropOp50
 70
     1
102
RTVSPost2010Prop51ColorIndex
 90
      256
102
RTVSPost2010Prop51ColorRGB
 90
-16777216
102
RTVSPost2010PropOp51
 70
     0
102
RTVSPost2010Prop52
140
1.0
102
RTVSPost2010PropOp52
 70
     0
102
RTVSPost2010Prop53
 90
        2
102
RTVSPost2010PropOp53
 70
     1
102
RTVSPost2010Prop54
  1
strokes_ogs.tif
102
RTVSPost2010PropOp54
 70
     1
102
RTVSPost2010Prop55
280
     0
102
RTVSPost2010PropOp55
 70
     1
102
RTVSPost2010Prop56
140
1.0
102
RTVSPost2010PropOp56
 70
     1
102
RTVSPost2010Prop57
140
1.0
102
RTVSPost2010PropOp57
 70
     1
  0
XRECORD
  5
B8
102
{ACAD_REACTORS
330
B7
102
}
330
B7
100
AcDbXrecord
280
     1
102
RTVSPropertyOp0
 70
     1
102
RTVSPropertyOp1
 70
     1
102
RTVSPropertyOp2
 70
     1
102
RTVSPropertyOp3
 70
     1
102
RTVSPropertyOp4
 70
     1
102
RTVSPropertyOp5
 70
     1
102
RTVSPropertyOp6
 70
     1
102
RTVSPropertyOp7
 70
     1
102
RTVSPropertyOp8
 70
     1
102
RTVSPropertyOp9
 70
     1
102
RTVSPropertyOp10
 70
     1
102
RTVSPropertyOp11
 70
     1
102
RTVSPropertyOp12
 70
     1
102
RTVSPropertyOp13
 70
     1
102
RTVSPropertyOp14
 70
     1
102
RTVSPropertyOp15
 70
     1
102
RTVSPropertyOp16
 70
     1
102
RTVSPropertyOp17
 70
     1
102
RTVSPropertyOp18
 70
     1
102
RTVSPropertyOp19
 70
     1
102
RTVSPropertyOp20
 70
     1
102
RTVSPropertyOp21
 70
     1
102
RTVSPropertyOp22
 70
     1
102
RTVSPropertyOp23
 70
     1
102
RTVSPropertyOp24
 70
     1
102
RTVSPropertyOp25
 70
     1
102
RTVSPropertyOp26
 70
     1
102
RTVSPropertyOp27
 70
     1
102
RTVSPropertyOp28
 70
     1
102
RTVSPropertyOp29
 70
     1
102
RTVSPropertyOp30
 70
     1
102
RTVSPropertyOp31
 70
     1
102
RTVSPropertyOp32
 70
     1
102
RTVSPropertyOp33
 70
     1
102
RTVSPropertyOp34
 70
     1
102
RTVSPropertyOp35
 70
     1
102
RTVSPropertyOp36
 70
     1
102
RTVSPropertyOp37
 70
     1
102
RTVSPropertyOp38
 70
     1
102
RTVSPropertyOp39
 70
     1
102
RTVSPropertyOp40
 70
     1
102
RTVSPropertyOp41
 70
     1
102
RTVSPropertyOp42
 70
     1
102
RTVSPropertyOp43
 70
     1
102
RTVSPropertyOp44
 70
     1
102
RTVSPropertyOp45
 70
     1
102
RTVSPropertyOp46
 70
     1
102
RTVSPropertyOp47
 70
     1
102
RTVSPropertyOp48
 70
     1
102
RTVSPropertyOp49
 70
     1
102
RTVSPropertyOp50
 70
     1
102
RTVSPropertyOp51
 70
     0
102
RTVSPropertyOp52
 70
     0
102
RTVSPropertyOp53
 70
     1
102
RTVSPropertyOp54
 70
     1
102
RTVSPropertyOp55
 70
     1
102
RTVSPropertyOp56
 70
     1
102
RTVSPropertyOp57
 70
     1
102
RTVSPost2010Prop28
280
     0
102
RTVSPost2010PropOp28
 70
     1
102
RTVSPost2010Prop29
280
     1
102
RTVSPost2010PropOp29
 70
     1
102
RTVSPost2010Prop30
280
     1
102
RTVSPost2010PropOp30
 70
     1
102
RTVSPost2010Prop31
280
     0
102
RTVSPost2010PropOp31
 70
     1
102
RTVSPost2010Prop32
280
     0
102
RTVSPost2010PropOp32
 70
     1
102
RTVSPost2010Prop33
280
     0
102
RTVSPost2010PropOp33
 70
     1
102
RTVSPost2010Prop34
280
     0
102
RTVSPost2010PropOp34
 70
     1
102
RTVSPost2010Prop35
280
     0
102
RTVSPost2010PropOp35
 70
     1
102
RTVSPost2010Prop36
280
     0
102
RTVSPost2010PropOp36
 70
     1
102
RTVSPost2010Prop37
 90
       50
102
RTVSPost2010PropOp37
 70
     1
102
RTVSPost2010Prop38
140
0.0
102
RTVSPost2010PropOp38
 70
     1
102
RTVSPost2010Prop39
140
1.0
102
RTVSPost2010PropOp39
 70
     1
102
RTVSPost2010Prop40
 90
        0
102
RTVSPost2010PropOp40
 70
     1
102
RTVSPost2010Prop41ColorIndex
 90
       18
102
RTVSPost2010Prop41ColorRGB
 90
        0
102
RTVSPost2010PropOp41
 70
     1
102
RTVSPost2010Prop42
 90
       50
102
RTVSPost2010PropOp42
 70
     1
102
RTVSPost2010Prop43
 90
        3
102
RTVSPost2010PropOp43
 70
     1
102
RTVSPost2010Prop44ColorIndex
 90
        5
102
RTVSPost2010Prop44ColorRGB
 90
      255
102
RTVSPost2010PropOp44
 70
     1
102
RTVSPost2010Prop45
280
     0
102
RTVSPost2010PropOp45
 70
     1
102
RTVSPost2010Prop46
 90
       50
102
RTVSPost2010PropOp46
 70
     1
102
RTVSPost2010Prop47
 90
       50
102
RTVSPost2010PropOp47
 70
     1
102
RTVSPost2010Prop48
 90
       50
102
RTVSPost2010PropOp48
 70
     1
102
RTVSPost2010Prop49
280
     0
102
RTVSPost2010PropOp49
 70
     1
102
RTVSPost2010Prop50
 90
       50
102
RTVSPost2010PropOp50
 70
     1
102
RTVSPost2010Prop51ColorIndex
 90
      256
102
RTVSPost2010Prop51ColorRGB
 90
-16777216
102
RTVSPost2010PropOp51
 70
     0
102
RTVSPost2010Prop52
140
1.0
102
RTVSPost2010PropOp52
 70
     0
102
RTVSPost2010Prop53
 90
        2
102
RTVSPost2010PropOp53
 70
     1
102
RTVSPost2010Prop54
  1
strokes_ogs.tif
102
RTVSPost2010PropOp54
 70
     1
102
RTVSPost2010Prop55
280
     0
102
RTVSPost2010PropOp55
 70
     1
102
RTVSPost2010Prop56
140
1.0
102
RTVSPost2010PropOp56
 70
     1
102
RTVSPost2010Prop57
140
1.0
102
RTVSPost2010PropOp57
 70
     1
  0
XRECORD
  5
BA
102
{ACAD_REACTORS
330
B9
102
}
330
B9
100
AcDbXrecord
280
     1
102
RTVSPropertyOp0
 70
     1
102
RTVSPropertyOp1
 70
     1
102
RTVSPropertyOp2
 70
     1
102
RTVSPropertyOp3
 70
     1
102
RTVSPropertyOp4
 70
     1
102
RTVSPropertyOp5
 70
     1
102
RTVSPropertyOp6
 70
     1
102
RTVSPropertyOp7
 70
     1
102
RTVSPropertyOp8
 70
     1
102
RTVSPropertyOp9
 70
     1
102
RTVSPropertyOp10
 70
     1
102
RTVSPropertyOp11
 70
     1
102
RTVSPropertyOp12
 70
     1
102
RTVSPropertyOp13
 70
     1
102
RTVSPropertyOp14
 70
     1
102
RTVSPropertyOp15
 70
     1
102
RTVSPropertyOp16
 70
     1
102
RTVSPropertyOp17
 70
     1
102
RTVSPropertyOp18
 70
     1
102
RTVSPropertyOp19
 70
     1
102
RTVSPropertyOp20
 70
     1
102
RTVSPropertyOp21
 70
     1
102
RTVSPropertyOp22
 70
     1
102
RTVSPropertyOp23
 70
     1
102
RTVSPropertyOp24
 70
     1
102
RTVSPropertyOp25
 70
     1
102
RTVSPropertyOp26
 70
     1
102
RTVSPropertyOp27
 70
     1
102
RTVSPropertyOp28
 70
     1
102
RTVSPropertyOp29
 70
     1
102
RTVSPropertyOp30
 70
     1
102
RTVSPropertyOp31
 70
     1
102
RTVSPropertyOp32
 70
     1
102
RTVSPropertyOp33
 70
     1
102
RTVSPropertyOp34
 70
     1
102
RTVSPropertyOp35
 70
     1
102
RTVSPropertyOp36
 70
     1
102
RTVSPropertyOp37
 70
     1
102
RTVSPropertyOp38
 70
     1
102
RTVSPropertyOp39
 70
     1
102
RTVSPropertyOp40
 70
     1
102
RTVSPropertyOp41
 70
     1
102
RTVSPropertyOp42
 70
     1
102
RTVSPropertyOp43
 70
     1
102
RTVSPropertyOp44
 70
     1
102
RTVSPropertyOp45
 70
     1
102
RTVSPropertyOp46
 70
     1
102
RTVSPropertyOp47
 70
     1
102
RTVSPropertyOp48
 70
     1
102
RTVSPropertyOp49
 70
     1
102
RTVSPropertyOp50
 70
     1
102
RTVSPropertyOp51
 70
     0
102
RTVSPropertyOp52
 70
     0
102
RTVSPropertyOp53
 70
     1
102
RTVSPropertyOp54
 70
     1
102
RTVSPropertyOp55
 70
     1
102
RTVSPropertyOp56
 70
     1
102
RTVSPropertyOp57
 70
     1
102
RTVSPost2010Prop28
280
     0
102
RTVSPost2010PropOp28
 70
     1
102
RTVSPost2010Prop29
280
     1
102
RTVSPost2010PropOp29
 70
     1
102
RTVSPost2010Prop30
280
     1
102
RTVSPost2010PropOp30
 70
     1
102
RTVSPost2010Prop31
280
     0
102
RTVSPost2010PropOp31
 70
     1
102
RTVSPost2010Prop32
280
     0
102
RTVSPost2010PropOp32
 70
     1
102
RTVSPost2010Prop33
280
     0
102
RTVSPost2010PropOp33
 70
     1
102
RTVSPost2010Prop34
280
     0
102
RTVSPost2010PropOp34
 70
     1
102
RTVSPost2010Prop35
280
     0
102
RTVSPost2010PropOp35
 70
     1
102
RTVSPost2010Prop36
280
     0
102
RTVSPost2010PropOp36
 70
     1
102
RTVSPost2010Prop37
 90
       50
102
RTVSPost2010PropOp37
 70
     1
102
RTVSPost2010Prop38
140
0.0
102
RTVSPost2010PropOp38
 70
     1
102
RTVSPost2010Prop39
140
1.0
102
RTVSPost2010PropOp39
 70
     1
102
RTVSPost2010Prop40
 90
        0
102
RTVSPost2010PropOp40
 70
     1
102
RTVSPost2010Prop41ColorIndex
 90
       18
102
RTVSPost2010Prop41ColorRGB
 90
        0
102
RTVSPost2010PropOp41
 70
     1
102
RTVSPost2010Prop42
 90
       50
102
RTVSPost2010PropOp42
 70
     1
102
RTVSPost2010Prop43
 90
        3
102
RTVSPost2010PropOp43
 70
     1
102
RTVSPost2010Prop44ColorIndex
 90
        5
102
RTVSPost2010Prop44ColorRGB
 90
      255
102
RTVSPost2010PropOp44
 70
     1
102
RTVSPost2010Prop45
280
     0
102
RTVSPost2010PropOp45
 70
     1
102
RTVSPost2010Prop46
 90
       50
102
RTVSPost2010PropOp46
 70
     1
102
RTVSPost2010Prop47
 90
       50
102
RTVSPost2010PropOp47
 70
     1
102
RTVSPost2010Prop48
 90
       50
102
RTVSPost2010PropOp48
 70
     1
102
RTVSPost2010Prop49
280
     0
102
RTVSPost2010PropOp49
 70
     1
102
RTVSPost2010Prop50
 90
       50
102
RTVSPost2010PropOp50
 70
     1
102
RTVSPost2010Prop51ColorIndex
 90
      256
102
RTVSPost2010Prop51ColorRGB
 90
-16777216
102
RTVSPost2010PropOp51
 70
     0
102
RTVSPost2010Prop52
140
1.0
102
RTVSPost2010PropOp52
 70
     0
102
RTVSPost2010Prop53
 90
        2
102
RTVSPost2010PropOp53
 70
     1
102
RTVSPost2010Prop54
  1
strokes_ogs.tif
102
RTVSPost2010PropOp54
 70
     1
102
RTVSPost2010Prop55
280
     0
102
RTVSPost2010PropOp55
 70
     1
102
RTVSPost2010Prop56
140
1.0
102
RTVSPost2010PropOp56
 70
     1
102
RTVSPost2010Prop57
140
1.0
102
RTVSPost2010PropOp57
 70
     1
  0
XRECORD
  5
BE
102
{ACAD_REACTORS
330
BD
102
}
330
BD
100
AcDbXrecord
280
     1
102
RTVSPropertyOp0
 70
     1
102
RTVSPropertyOp1
 70
     1
102
RTVSPropertyOp2
 70
     1
102
RTVSPropertyOp3
 70
     1
102
RTVSPropertyOp4
 70
     1
102
RTVSPropertyOp5
 70
     1
102
RTVSPropertyOp6
 70
     1
102
RTVSPropertyOp7
 70
     1
102
RTVSPropertyOp8
 70
     1
102
RTVSPropertyOp9
 70
     1
102
RTVSPropertyOp10
 70
     1
102
RTVSPropertyOp11
 70
     1
102
RTVSPropertyOp12
 70
     1
102
RTVSPropertyOp13
 70
     1
102
RTVSPropertyOp14
 70
     1
102
RTVSPropertyOp15
 70
     1
102
RTVSPropertyOp16
 70
     1
102
RTVSPropertyOp17
 70
     1
102
RTVSPropertyOp18
 70
     1
102
RTVSPropertyOp19
 70
     1
102
RTVSPropertyOp20
 70
     1
102
RTVSPropertyOp21
 70
     1
102
RTVSPropertyOp22
 70
     1
102
RTVSPropertyOp23
 70
     1
102
RTVSPropertyOp24
 70
     1
102
RTVSPropertyOp25
 70
     1
102
RTVSPropertyOp26
 70
     1
102
RTVSPropertyOp27
 70
     1
102
RTVSPropertyOp28
 70
     1
102
RTVSPropertyOp29
 70
     1
102
RTVSPropertyOp30
 70
     1
102
RTVSPropertyOp31
 70
     1
102
RTVSPropertyOp32
 70
     1
102
RTVSPropertyOp33
 70
     1
102
RTVSPropertyOp34
 70
     1
102
RTVSPropertyOp35
 70
     1
102
RTVSPropertyOp36
 70
     1
102
RTVSPropertyOp37
 70
     1
102
RTVSPropertyOp38
 70
     1
102
RTVSPropertyOp39
 70
     1
102
RTVSPropertyOp40
 70
     1
102
RTVSPropertyOp41
 70
     1
102
RTVSPropertyOp42
 70
     1
102
RTVSPropertyOp43
 70
     1
102
RTVSPropertyOp44
 70
     1
102
RTVSPropertyOp45
 70
     1
102
RTVSPropertyOp46
 70
     1
102
RTVSPropertyOp47
 70
     1
102
RTVSPropertyOp48
 70
     1
102
RTVSPropertyOp49
 70
     1
102
RTVSPropertyOp50
 70
     1
102
RTVSPropertyOp51
 70
     0
102
RTVSPropertyOp52
 70
     0
102
RTVSPropertyOp53
 70
     1
102
RTVSPropertyOp54
 70
     1
102
RTVSPropertyOp55
 70
     1
102
RTVSPropertyOp56
 70
     1
102
RTVSPropertyOp57
 70
     1
102
RTVSPost2010Prop28
280
     0
102
RTVSPost2010PropOp28
 70
     1
102
RTVSPost2010Prop29
280
     1
102
RTVSPost2010PropOp29
 70
     1
102
RTVSPost2010Prop30
280
     1
102
RTVSPost2010PropOp30
 70
     1
102
RTVSPost2010Prop31
280
     0
102
RTVSPost2010PropOp31
 70
     1
102
RTVSPost2010Prop32
280
     0
102
RTVSPost2010PropOp32
 70
     1
102
RTVSPost2010Prop33
280
     0
102
RTVSPost2010PropOp33
 70
     1
102
RTVSPost2010Prop34
280
     0
102
RTVSPost2010PropOp34
 70
     1
102
RTVSPost2010Prop35
280
     0
102
RTVSPost2010PropOp35
 70
     1
102
RTVSPost2010Prop36
280
     0
102
RTVSPost2010PropOp36
 70
     1
102
RTVSPost2010Prop37
 90
       50
102
RTVSPost2010PropOp37
 70
     1
102
RTVSPost2010Prop38
140
0.0
102
RTVSPost2010PropOp38
 70
     1
102
RTVSPost2010Prop39
140
1.0
102
RTVSPost2010PropOp39
 70
     1
102
RTVSPost2010Prop40
 90
        0
102
RTVSPost2010PropOp40
 70
     1
102
RTVSPost2010Prop41ColorIndex
 90
       18
102
RTVSPost2010Prop41ColorRGB
 90
        0
102
RTVSPost2010PropOp41
 70
     1
102
RTVSPost2010Prop42
 90
       50
102
RTVSPost2010PropOp42
 70
     1
102
RTVSPost2010Prop43
 90
        3
102
RTVSPost2010PropOp43
 70
     1
102
RTVSPost2010Prop44ColorIndex
 90
        5
102
RTVSPost2010Prop44ColorRGB
 90
      255
102
RTVSPost2010PropOp44
 70
     1
102
RTVSPost2010Prop45
280
     0
102
RTVSPost2010PropOp45
 70
     1
102
RTVSPost2010Prop46
 90
       50
102
RTVSPost2010PropOp46
 70
     1
102
RTVSPost2010Prop47
 90
       50
102
RTVSPost2010PropOp47
 70
     1
102
RTVSPost2010Prop48
 90
       50
102
RTVSPost2010PropOp48
 70
     1
102
RTVSPost2010Prop49
280
     0
102
RTVSPost2010PropOp49
 70
     1
102
RTVSPost2010Prop50
 90
       50
102
RTVSPost2010PropOp50
 70
     1
102
RTVSPost2010Prop51ColorIndex
 90
      256
102
RTVSPost2010Prop51ColorRGB
 90
-16777216
102
RTVSPost2010PropOp51
 70
     0
102
RTVSPost2010Prop52
140
1.0
102
RTVSPost2010PropOp52
 70
     0
102
RTVSPost2010Prop53
 90
        2
102
RTVSPost2010PropOp53
 70
     1
102
RTVSPost2010Prop54
  1
strokes_ogs.tif
102
RTVSPost2010PropOp54
 70
     1
102
RTVSPost2010Prop55
280
     0
102
RTVSPost2010PropOp55
 70
     1
102
RTVSPost2010Prop56
140
1.0
102
RTVSPost2010PropOp56
 70
     1
102
RTVSPost2010Prop57
140
1.0
102
RTVSPost2010PropOp57
 70
     1
  0
XRECORD
  5
D2
102
{ACAD_REACTORS
330
D1
102
}
330
D1
100
AcDbXrecord
280
     1
102
RTVSPropertyOp0
 70
     0
102
RTVSPropertyOp1
 70
     0
102
RTVSPropertyOp2
 70
     0
102
RTVSPropertyOp3
 70
     0
102
RTVSPropertyOp4
 70
     0
102
RTVSPropertyOp5
 70
     0
102
RTVSPropertyOp6
 70
     0
102
RTVSPropertyOp7
 70
     0
102
RTVSPropertyOp8
 70
     0
102
RTVSPropertyOp9
 70
     0
102
RTVSPropertyOp10
 70
     0
102
RTVSPropertyOp11
 70
     0
102
RTVSPropertyOp12
 70
     0
102
RTVSPropertyOp13
 70
     0
102
RTVSPropertyOp14
 70
     2
102
RTVSPropertyOp15
 70
     0
102
RTVSPropertyOp16
 70
     0
102
RTVSPropertyOp17
 70
     0
102
RTVSPropertyOp18
 70
     0
102
RTVSPropertyOp19
 70
     0
102
RTVSPropertyOp20
 70
     0
102
RTVSPropertyOp21
 70
     0
102
RTVSPropertyOp22
 70
     0
102
RTVSPropertyOp23
 70
     0
102
RTVSPropertyOp24
 70
     0
102
RTVSPropertyOp25
 70
     0
102
RTVSPropertyOp26
 70
     0
102
RTVSPropertyOp27
 70
     0
102
RTVSPropertyOp28
 70
     0
102
RTVSPropertyOp29
 70
     0
102
RTVSPropertyOp30
 70
     0
102
RTVSPropertyOp31
 70
     0
102
RTVSPropertyOp32
 70
     0
102
RTVSPropertyOp33
 70
     0
102
RTVSPropertyOp34
 70
     0
102
RTVSPropertyOp35
 70
     0
102
RTVSPropertyOp36
 70
     0
102
RTVSPropertyOp37
 70
     0
102
RTVSPropertyOp38
 70
     0
102
RTVSPropertyOp39
 70
     0
102
RTVSPropertyOp40
 70
     0
102
RTVSPropertyOp41
 70
     0
102
RTVSPropertyOp42
 70
     0
102
RTVSPropertyOp43
 70
     0
102
RTVSPropertyOp44
 70
     0
102
RTVSPropertyOp45
 70
     0
102
RTVSPropertyOp46
 70
     0
102
RTVSPropertyOp47
 70
     0
102
RTVSPropertyOp48
 70
     0
102
RTVSPropertyOp49
 70
     0
102
RTVSPropertyOp50
 70
     0
102
RTVSPropertyOp51
 70
     0
102
RTVSPropertyOp52
 70
     0
102
RTVSPropertyOp53
 70
     0
102
RTVSPropertyOp54
 70
     0
102
RTVSPropertyOp55
 70
     0
102
RTVSPropertyOp56
 70
     0
102
RTVSPropertyOp57
 70
     0
102
RTVSPost2010Prop28
280
     0
102
RTVSPost2010PropOp28
 70
     0
102
RTVSPost2010Prop29
280
     1
102
RTVSPost2010PropOp29
 70
     0
102
RTVSPost2010Prop30
280
     1
102
RTVSPost2010PropOp30
 70
     0
102
RTVSPost2010Prop31
280
     0
102
RTVSPost2010PropOp31
 70
     0
102
RTVSPost2010Prop32
280
     0
102
RTVSPost2010PropOp32
 70
     0
102
RTVSPost2010Prop33
280
     0
102
RTVSPost2010PropOp33
 70
     0
102
RTVSPost2010Prop34
280
     0
102
RTVSPost2010PropOp34
 70
     0
102
RTVSPost2010Prop35
280
     0
102
RTVSPost2010PropOp35
 70
     0
102
RTVSPost2010Prop36
280
     0
102
RTVSPost2010PropOp36
 70
     0
102
RTVSPost2010Prop37
 90
       50
102
RTVSPost2010PropOp37
 70
     0
102
RTVSPost2010Prop38
140
0.0
102
RTVSPost2010PropOp38
 70
     0
102
RTVSPost2010Prop39
140
1.0
102
RTVSPost2010PropOp39
 70
     0
102
RTVSPost2010Prop40
 90
        0
102
RTVSPost2010PropOp40
 70
     0
102
RTVSPost2010Prop41ColorIndex
 90
       18
102
RTVSPost2010Prop41ColorRGB
 90
        0
102
RTVSPost2010PropOp41
 70
     0
102
RTVSPost2010Prop42
 90
       50
102
RTVSPost2010PropOp42
 70
     0
102
RTVSPost2010Prop43
 90
        3
102
RTVSPost2010PropOp43
 70
     0
102
RTVSPost2010Prop44ColorIndex
 90
        5
102
RTVSPost2010Prop44ColorRGB
 90
      255
102
RTVSPost2010PropOp44
 70
     0
102
RTVSPost2010Prop45
280
     0
102
RTVSPost2010PropOp45
 70
     0
102
RTVSPost2010Prop46
 90
       50
102
RTVSPost2010PropOp46
 70
     0
102
RTVSPost2010Prop47
 90
       50
102
RTVSPost2010PropOp47
 70
     0
102
RTVSPost2010Prop48
 90
       50
102
RTVSPost2010PropOp48
 70
     0
102
RTVSPost2010Prop49
280
     0
102
RTVSPost2010PropOp49
 70
     0
102
RTVSPost2010Prop50
 90
       50
102
RTVSPost2010PropOp50
 70
     0
102
RTVSPost2010Prop51ColorIndex
 90
      256
102
RTVSPost2010Prop51ColorRGB
 90
-16777216
102
RTVSPost2010PropOp51
 70
     0
102
RTVSPost2010Prop52
140
1.0
102
RTVSPost2010PropOp52
 70
     0
102
RTVSPost2010Prop53
 90
        2
102
RTVSPost2010PropOp53
 70
     0
102
RTVSPost2010Prop54
  1
strokes_ogs.tif
102
RTVSPost2010PropOp54
 70
     0
102
RTVSPost2010Prop55
280
     0
102
RTVSPost2010PropOp55
 70
     0
102
RTVSPost2010Prop56
140
1.0
102
RTVSPost2010PropOp56
 70
     0
102
RTVSPost2010Prop57
140
1.0
102
RTVSPost2010PropOp57
 70
     0
  0
XRECORD
  5
CC
102
{ACAD_REACTORS
330
CB
102
}
330
CB
100
AcDbXrecord
280
     1
102
RTVSPropertyOp0
 70
     1
102
RTVSPropertyOp1
 70
     1
102
RTVSPropertyOp2
 70
     1
102
RTVSPropertyOp3
 70
     1
102
RTVSPropertyOp4
 70
     1
102
RTVSPropertyOp5
 70
     1
102
RTVSPropertyOp6
 70
     1
102
RTVSPropertyOp7
 70
     1
102
RTVSPropertyOp8
 70
     1
102
RTVSPropertyOp9
 70
     1
102
RTVSPropertyOp10
 70
     1
102
RTVSPropertyOp11
 70
     1
102
RTVSPropertyOp12
 70
     1
102
RTVSPropertyOp13
 70
     1
102
RTVSPropertyOp14
 70
     1
102
RTVSPropertyOp15
 70
     1
102
RTVSPropertyOp16
 70
     1
102
RTVSPropertyOp17
 70
     1
102
RTVSPropertyOp18
 70
     1
102
RTVSPropertyOp19
 70
     1
102
RTVSPropertyOp20
 70
     1
102
RTVSPropertyOp21
 70
     1
102
RTVSPropertyOp22
 70
     1
102
RTVSPropertyOp23
 70
     1
102
RTVSPropertyOp24
 70
     1
102
RTVSPropertyOp25
 70
     1
102
RTVSPropertyOp26
 70
     1
102
RTVSPropertyOp27
 70
     1
102
RTVSPropertyOp28
 70
     1
102
RTVSPropertyOp29
 70
     1
102
RTVSPropertyOp30
 70
     1
102
RTVSPropertyOp31
 70
     1
102
RTVSPropertyOp32
 70
     1
102
RTVSPropertyOp33
 70
     1
102
RTVSPropertyOp34
 70
     1
102
RTVSPropertyOp35
 70
     1
102
RTVSPropertyOp36
 70
     1
102
RTVSPropertyOp37
 70
     1
102
RTVSPropertyOp38
 70
     1
102
RTVSPropertyOp39
 70
     1
102
RTVSPropertyOp40
 70
     1
102
RTVSPropertyOp41
 70
     1
102
RTVSPropertyOp42
 70
     1
102
RTVSPropertyOp43
 70
     1
102
RTVSPropertyOp44
 70
     1
102
RTVSPropertyOp45
 70
     1
102
RTVSPropertyOp46
 70
     1
102
RTVSPropertyOp47
 70
     1
102
RTVSPropertyOp48
 70
     1
102
RTVSPropertyOp49
 70
     1
102
RTVSPropertyOp50
 70
     1
102
RTVSPropertyOp51
 70
     0
102
RTVSPropertyOp52
 70
     0
102
RTVSPropertyOp53
 70
     1
102
RTVSPropertyOp54
 70
     1
102
RTVSPropertyOp55
 70
     1
102
RTVSPropertyOp56
 70
     1
102
RTVSPropertyOp57
 70
     1
102
RTVSPost2010Prop28
280
     0
102
RTVSPost2010PropOp28
 70
     1
102
RTVSPost2010Prop29
280
     1
102
RTVSPost2010PropOp29
 70
     1
102
RTVSPost2010Prop30
280
     1
102
RTVSPost2010PropOp30
 70
     1
102
RTVSPost2010Prop31
280
     0
102
RTVSPost2010PropOp31
 70
     1
102
RTVSPost2010Prop32
280
     0
102
RTVSPost2010PropOp32
 70
     1
102
RTVSPost2010Prop33
280
     0
102
RTVSPost2010PropOp33
 70
     1
102
RTVSPost2010Prop34
280
     0
102
RTVSPost2010PropOp34
 70
     1
102
RTVSPost2010Prop35
280
     0
102
RTVSPost2010PropOp35
 70
     1
102
RTVSPost2010Prop36
280
     0
102
RTVSPost2010PropOp36
 70
     1
102
RTVSPost2010Prop37
 90
       50
102
RTVSPost2010PropOp37
 70
     1
102
RTVSPost2010Prop38
140
0.0
102
RTVSPost2010PropOp38
 70
     1
102
RTVSPost2010Prop39
140
1.0
102
RTVSPost2010PropOp39
 70
     1
102
RTVSPost2010Prop40
 90
        0
102
RTVSPost2010PropOp40
 70
     1
102
RTVSPost2010Prop41ColorIndex
 90
       18
102
RTVSPost2010Prop41ColorRGB
 90
        0
102
RTVSPost2010PropOp41
 70
     1
102
RTVSPost2010Prop42
 90
       50
102
RTVSPost2010PropOp42
 70
     1
102
RTVSPost2010Prop43
 90
        3
102
RTVSPost2010PropOp43
 70
     1
102
RTVSPost2010Prop44ColorIndex
 90
        5
102
RTVSPost2010Prop44ColorRGB
 90
      255
102
RTVSPost2010PropOp44
 70
     1
102
RTVSPost2010Prop45
280
     0
102
RTVSPost2010PropOp45
 70
     1
102
RTVSPost2010Prop46
 90
       50
102
RTVSPost2010PropOp46
 70
     1
102
RTVSPost2010Prop47
 90
       50
102
RTVSPost2010PropOp47
 70
     1
102
RTVSPost2010Prop48
 90
       50
102
RTVSPost2010PropOp48
 70
     1
102
RTVSPost2010Prop49
280
     0
102
RTVSPost2010PropOp49
 70
     1
102
RTVSPost2010Prop50
 90
       50
102
RTVSPost2010PropOp50
 70
     1
102
RTVSPost2010Prop51ColorIndex
 90
      256
102
RTVSPost2010Prop51ColorRGB
 90
-16777216
102
RTVSPost2010PropOp51
 70
     0
102
RTVSPost2010Prop52
140
1.0
102
RTVSPost2010PropOp52
 70
     0
102
RTVSPost2010Prop53
 90
        2
102
RTVSPost2010PropOp53
 70
     1
102
RTVSPost2010Prop54
  1
strokes_ogs.tif
102
RTVSPost2010PropOp54
 70
     1
102
RTVSPost2010Prop55
280
     0
102
RTVSPost2010PropOp55
 70
     1
102
RTVSPost2010Prop56
140
1.0
102
RTVSPost2010PropOp56
 70
     1
102
RTVSPost2010Prop57
140
1.0
102
RTVSPost2010PropOp57
 70
     1
  0
XRECORD
  5
D4
102
{ACAD_REACTORS
330
D3
102
}
330
D3
100
AcDbXrecord
280
     1
102
RTVSPropertyOp0
 70
     0
102
RTVSPropertyOp1
 70
     0
102
RTVSPropertyOp2
 70
     0
102
RTVSPropertyOp3
 70
     0
102
RTVSPropertyOp4
 70
     0
102
RTVSPropertyOp5
 70
     0
102
RTVSPropertyOp6
 70
     0
102
RTVSPropertyOp7
 70
     0
102
RTVSPropertyOp8
 70
     0
102
RTVSPropertyOp9
 70
     0
102
RTVSPropertyOp10
 70
     0
102
RTVSPropertyOp11
 70
     0
102
RTVSPropertyOp12
 70
     0
102
RTVSPropertyOp13
 70
     0
102
RTVSPropertyOp14
 70
     2
102
RTVSPropertyOp15
 70
     0
102
RTVSPropertyOp16
 70
     0
102
RTVSPropertyOp17
 70
     0
102
RTVSPropertyOp18
 70
     0
102
RTVSPropertyOp19
 70
     0
102
RTVSPropertyOp20
 70
     0
102
RTVSPropertyOp21
 70
     0
102
RTVSPropertyOp22
 70
     0
102
RTVSPropertyOp23
 70
     0
102
RTVSPropertyOp24
 70
     0
102
RTVSPropertyOp25
 70
     0
102
RTVSPropertyOp26
 70
     0
102
RTVSPropertyOp27
 70
     0
102
RTVSPropertyOp28
 70
     0
102
RTVSPropertyOp29
 70
     0
102
RTVSPropertyOp30
 70
     0
102
RTVSPropertyOp31
 70
     0
102
RTVSPropertyOp32
 70
     0
102
RTVSPropertyOp33
 70
     0
102
RTVSPropertyOp34
 70
     0
102
RTVSPropertyOp35
 70
     0
102
RTVSPropertyOp36
 70
     0
102
RTVSPropertyOp37
 70
     0
102
RTVSPropertyOp38
 70
     0
102
RTVSPropertyOp39
 70
     0
102
RTVSPropertyOp40
 70
     0
102
RTVSPropertyOp41
 70
     0
102
RTVSPropertyOp42
 70
     0
102
RTVSPropertyOp43
 70
     0
102
RTVSPropertyOp44
 70
     0
102
RTVSPropertyOp45
 70
     0
102
RTVSPropertyOp46
 70
     0
102
RTVSPropertyOp47
 70
     0
102
RTVSPropertyOp48
 70
     0
102
RTVSPropertyOp49
 70
     0
102
RTVSPropertyOp50
 70
     0
102
RTVSPropertyOp51
 70
     0
102
RTVSPropertyOp52
 70
     0
102
RTVSPropertyOp53
 70
     0
102
RTVSPropertyOp54
 70
     0
102
RTVSPropertyOp55
 70
     0
102
RTVSPropertyOp56
 70
     0
102
RTVSPropertyOp57
 70
     0
102
RTVSPost2010Prop28
280
     0
102
RTVSPost2010PropOp28
 70
     0
102
RTVSPost2010Prop29
280
     1
102
RTVSPost2010PropOp29
 70
     0
102
RTVSPost2010Prop30
280
     1
102
RTVSPost2010PropOp30
 70
     0
102
RTVSPost2010Prop31
280
     0
102
RTVSPost2010PropOp31
 70
     0
102
RTVSPost2010Prop32
280
     0
102
RTVSPost2010PropOp32
 70
     0
102
RTVSPost2010Prop33
280
     0
102
RTVSPost2010PropOp33
 70
     0
102
RTVSPost2010Prop34
280
     0
102
RTVSPost2010PropOp34
 70
     0
102
RTVSPost2010Prop35
280
     0
102
RTVSPost2010PropOp35
 70
     0
102
RTVSPost2010Prop36
280
     0
102
RTVSPost2010PropOp36
 70
     0
102
RTVSPost2010Prop37
 90
       50
102
RTVSPost2010PropOp37
 70
     0
102
RTVSPost2010Prop38
140
0.0
102
RTVSPost2010PropOp38
 70
     0
102
RTVSPost2010Prop39
140
1.0
102
RTVSPost2010PropOp39
 70
     0
102
RTVSPost2010Prop40
 90
        0
102
RTVSPost2010PropOp40
 70
     0
102
RTVSPost2010Prop41ColorIndex
 90
       18
102
RTVSPost2010Prop41ColorRGB
 90
        0
102
RTVSPost2010PropOp41
 70
     0
102
RTVSPost2010Prop42
 90
       50
102
RTVSPost2010PropOp42
 70
     0
102
RTVSPost2010Prop43
 90
        3
102
RTVSPost2010PropOp43
 70
     0
102
RTVSPost2010Prop44ColorIndex
 90
        5
102
RTVSPost2010Prop44ColorRGB
 90
      255
102
RTVSPost2010PropOp44
 70
     0
102
RTVSPost2010Prop45
280
     0
102
RTVSPost2010PropOp45
 70
     0
102
RTVSPost2010Prop46
 90
       50
102
RTVSPost2010PropOp46
 70
     0
102
RTVSPost2010Prop47
 90
       50
102
RTVSPost2010PropOp47
 70
     0
102
RTVSPost2010Prop48
 90
       50
102
RTVSPost2010PropOp48
 70
     0
102
RTVSPost2010Prop49
280
     0
102
RTVSPost2010PropOp49
 70
     0
102
RTVSPost2010Prop50
 90
       50
102
RTVSPost2010PropOp50
 70
     0
102
RTVSPost2010Prop51ColorIndex
 90
      256
102
RTVSPost2010Prop51ColorRGB
 90
-16777216
102
RTVSPost2010PropOp51
 70
     0
102
RTVSPost2010Prop52
140
1.0
102
RTVSPost2010PropOp52
 70
     0
102
RTVSPost2010Prop53
 90
        2
102
RTVSPost2010PropOp53
 70
     0
102
RTVSPost2010Prop54
  1
strokes_ogs.tif
102
RTVSPost2010PropOp54
 70
     0
102
RTVSPost2010Prop55
280
     0
102
RTVSPost2010PropOp55
 70
     0
102
RTVSPost2010Prop56
140
1.0
102
RTVSPost2010PropOp56
 70
     0
102
RTVSPost2010Prop57
140
1.0
102
RTVSPost2010PropOp57
 70
     0
  0
XRECORD
  5
C2
102
{ACAD_REACTORS
330
C1
102
}
330
C1
100
AcDbXrecord
280
     1
102
RTVSPropertyOp0
 70
     1
102
RTVSPropertyOp1
 70
     1
102
RTVSPropertyOp2
 70
     1
102
RTVSPropertyOp3
 70
     1
102
RTVSPropertyOp4
 70
     1
102
RTVSPropertyOp5
 70
     1
102
RTVSPropertyOp6
 70
     1
102
RTVSPropertyOp7
 70
     1
102
RTVSPropertyOp8
 70
     1
102
RTVSPropertyOp9
 70
     1
102
RTVSPropertyOp10
 70
     1
102
RTVSPropertyOp11
 70
     1
102
RTVSPropertyOp12
 70
     1
102
RTVSPropertyOp13
 70
     1
102
RTVSPropertyOp14
 70
     1
102
RTVSPropertyOp15
 70
     1
102
RTVSPropertyOp16
 70
     1
102
RTVSPropertyOp17
 70
     1
102
RTVSPropertyOp18
 70
     1
102
RTVSPropertyOp19
 70
     1
102
RTVSPropertyOp20
 70
     1
102
RTVSPropertyOp21
 70
     1
102
RTVSPropertyOp22
 70
     1
102
RTVSPropertyOp23
 70
     1
102
RTVSPropertyOp24
 70
     1
102
RTVSPropertyOp25
 70
     1
102
RTVSPropertyOp26
 70
     1
102
RTVSPropertyOp27
 70
     1
102
RTVSPropertyOp28
 70
     1
102
RTVSPropertyOp29
 70
     1
102
RTVSPropertyOp30
 70
     1
102
RTVSPropertyOp31
 70
     1
102
RTVSPropertyOp32
 70
     1
102
RTVSPropertyOp33
 70
     1
102
RTVSPropertyOp34
 70
     1
102
RTVSPropertyOp35
 70
     1
102
RTVSPropertyOp36
 70
     1
102
RTVSPropertyOp37
 70
     1
102
RTVSPropertyOp38
 70
     1
102
RTVSPropertyOp39
 70
     1
102
RTVSPropertyOp40
 70
     1
102
RTVSPropertyOp41
 70
     1
102
RTVSPropertyOp42
 70
     1
102
RTVSPropertyOp43
 70
     1
102
RTVSPropertyOp44
 70
     1
102
RTVSPropertyOp45
 70
     1
102
RTVSPropertyOp46
 70
     1
102
RTVSPropertyOp47
 70
     1
102
RTVSPropertyOp48
 70
     1
102
RTVSPropertyOp49
 70
     1
102
RTVSPropertyOp50
 70
     1
102
RTVSPropertyOp51
 70
     0
102
RTVSPropertyOp52
 70
     0
102
RTVSPropertyOp53
 70
     1
102
RTVSPropertyOp54
 70
     1
102
RTVSPropertyOp55
 70
     1
102
RTVSPropertyOp56
 70
     1
102
RTVSPropertyOp57
 70
     1
102
RTVSPost2010Prop28
280
     0
102
RTVSPost2010PropOp28
 70
     1
102
RTVSPost2010Prop29
280
     1
102
RTVSPost2010PropOp29
 70
     1
102
RTVSPost2010Prop30
280
     1
102
RTVSPost2010PropOp30
 70
     1
102
RTVSPost2010Prop31
280
     0
102
RTVSPost2010PropOp31
 70
     1
102
RTVSPost2010Prop32
280
     0
102
RTVSPost2010PropOp32
 70
     1
102
RTVSPost2010Prop33
280
     0
102
RTVSPost2010PropOp33
 70
     1
102
RTVSPost2010Prop34
280
     0
102
RTVSPost2010PropOp34
 70
     1
102
RTVSPost2010Prop35
280
     0
102
RTVSPost2010PropOp35
 70
     1
102
RTVSPost2010Prop36
280
     0
102
RTVSPost2010PropOp36
 70
     1
102
RTVSPost2010Prop37
 90
       50
102
RTVSPost2010PropOp37
 70
     1
102
RTVSPost2010Prop38
140
0.0
102
RTVSPost2010PropOp38
 70
     1
102
RTVSPost2010Prop39
140
1.0
102
RTVSPost2010PropOp39
 70
     1
102
RTVSPost2010Prop40
 90
        0
102
RTVSPost2010PropOp40
 70
     1
102
RTVSPost2010Prop41ColorIndex
 90
       18
102
RTVSPost2010Prop41ColorRGB
 90
        0
102
RTVSPost2010PropOp41
 70
     1
102
RTVSPost2010Prop42
 90
       50
102
RTVSPost2010PropOp42
 70
     1
102
RTVSPost2010Prop43
 90
        3
102
RTVSPost2010PropOp43
 70
     1
102
RTVSPost2010Prop44ColorIndex
 90
        5
102
RTVSPost2010Prop44ColorRGB
 90
      255
102
RTVSPost2010PropOp44
 70
     1
102
RTVSPost2010Prop45
280
     0
102
RTVSPost2010PropOp45
 70
     1
102
RTVSPost2010Prop46
 90
       50
102
RTVSPost2010PropOp46
 70
     1
102
RTVSPost2010Prop47
 90
       50
102
RTVSPost2010PropOp47
 70
     1
102
RTVSPost2010Prop48
 90
       50
102
RTVSPost2010PropOp48
 70
     1
102
RTVSPost2010Prop49
280
     0
102
RTVSPost2010PropOp49
 70
     1
102
RTVSPost2010Prop50
 90
       50
102
RTVSPost2010PropOp50
 70
     1
102
RTVSPost2010Prop51ColorIndex
 90
      256
102
RTVSPost2010Prop51ColorRGB
 90
-16777216
102
RTVSPost2010PropOp51
 70
     0
102
RTVSPost2010Prop52
140
1.0
102
RTVSPost2010PropOp52
 70
     0
102
RTVSPost2010Prop53
 90
        2
102
RTVSPost2010PropOp53
 70
     1
102
RTVSPost2010Prop54
  1
strokes_ogs.tif
102
RTVSPost2010PropOp54
 70
     1
102
RTVSPost2010Prop55
280
     0
102
RTVSPost2010PropOp55
 70
     1
102
RTVSPost2010Prop56
140
1.0
102
RTVSPost2010PropOp56
 70
     1
102
RTVSPost2010Prop57
140
1.0
102
RTVSPost2010PropOp57
 70
     1
  0
XRECORD
  5
E0
102
{ACAD_REACTORS
330
DF
102
}
330
DF
100
AcDbXrecord
280
     1
102
RTVSPropertyOp0
 70
     1
102
RTVSPropertyOp1
 70
     1
102
RTVSPropertyOp2
 70
     1
102
RTVSPropertyOp3
 70
     1
102
RTVSPropertyOp4
 70
     1
102
RTVSPropertyOp5
 70
     1
102
RTVSPropertyOp6
 70
     1
102
RTVSPropertyOp7
 70
     1
102
RTVSPropertyOp8
 70
     1
102
RTVSPropertyOp9
 70
     1
102
RTVSPropertyOp10
 70
     1
102
RTVSPropertyOp11
 70
     1
102
RTVSPropertyOp12
 70
     1
102
RTVSPropertyOp13
 70
     1
102
RTVSPropertyOp14
 70
     1
102
RTVSPropertyOp15
 70
     1
102
RTVSPropertyOp16
 70
     1
102
RTVSPropertyOp17
 70
     1
102
RTVSPropertyOp18
 70
     1
102
RTVSPropertyOp19
 70
     1
102
RTVSPropertyOp20
 70
     1
102
RTVSPropertyOp21
 70
     1
102
RTVSPropertyOp22
 70
     1
102
RTVSPropertyOp23
 70
     1
102
RTVSPropertyOp24
 70
     1
102
RTVSPropertyOp25
 70
     1
102
RTVSPropertyOp26
 70
     1
102
RTVSPropertyOp27
 70
     1
102
RTVSPropertyOp28
 70
     1
102
RTVSPropertyOp29
 70
     1
102
RTVSPropertyOp30
 70
     1
102
RTVSPropertyOp31
 70
     1
102
RTVSPropertyOp32
 70
     1
102
RTVSPropertyOp33
 70
     1
102
RTVSPropertyOp34
 70
     1
102
RTVSPropertyOp35
 70
     1
102
RTVSPropertyOp36
 70
     1
102
RTVSPropertyOp37
 70
     1
102
RTVSPropertyOp38
 70
     1
102
RTVSPropertyOp39
 70
     1
102
RTVSPropertyOp40
 70
     1
102
RTVSPropertyOp41
 70
     1
102
RTVSPropertyOp42
 70
     1
102
RTVSPropertyOp43
 70
     1
102
RTVSPropertyOp44
 70
     1
102
RTVSPropertyOp45
 70
     1
102
RTVSPropertyOp46
 70
     1
102
RTVSPropertyOp47
 70
     1
102
RTVSPropertyOp48
 70
     1
102
RTVSPropertyOp49
 70
     1
102
RTVSPropertyOp50
 70
     1
102
RTVSPropertyOp51
 70
     0
102
RTVSPropertyOp52
 70
     0
102
RTVSPropertyOp53
 70
     1
102
RTVSPropertyOp54
 70
     1
102
RTVSPropertyOp55
 70
     1
102
RTVSPropertyOp56
 70
     1
102
RTVSPropertyOp57
 70
     1
102
RTVSPost2010Prop28
280
     0
102
RTVSPost2010PropOp28
 70
     1
102
RTVSPost2010Prop29
280
     1
102
RTVSPost2010PropOp29
 70
     1
102
RTVSPost2010Prop30
280
     1
102
RTVSPost2010PropOp30
 70
     1
102
RTVSPost2010Prop31
280
     0
102
RTVSPost2010PropOp31
 70
     1
102
RTVSPost2010Prop32
280
     0
102
RTVSPost2010PropOp32
 70
     1
102
RTVSPost2010Prop33
280
     0
102
RTVSPost2010PropOp33
 70
     1
102
RTVSPost2010Prop34
280
     0
102
RTVSPost2010PropOp34
 70
     1
102
RTVSPost2010Prop35
280
     0
102
RTVSPost2010PropOp35
 70
     1
102
RTVSPost2010Prop36
280
     0
102
RTVSPost2010PropOp36
 70
     1
102
RTVSPost2010Prop37
 90
       50
102
RTVSPost2010PropOp37
 70
     1
102
RTVSPost2010Prop38
140
0.0
102
RTVSPost2010PropOp38
 70
     1
102
RTVSPost2010Prop39
140
1.0
102
RTVSPost2010PropOp39
 70
     1
102
RTVSPost2010Prop40
 90
        0
102
RTVSPost2010PropOp40
 70
     1
102
RTVSPost2010Prop41ColorIndex
 90
       18
102
RTVSPost2010Prop41ColorRGB
 90
        0
102
RTVSPost2010PropOp41
 70
     1
102
RTVSPost2010Prop42
 90
       50
102
RTVSPost2010PropOp42
 70
     1
102
RTVSPost2010Prop43
 90
        3
102
RTVSPost2010PropOp43
 70
     1
102
RTVSPost2010Prop44ColorIndex
 90
        5
102
RTVSPost2010Prop44ColorRGB
 90
      255
102
RTVSPost2010PropOp44
 70
     1
102
RTVSPost2010Prop45
280
     0
102
RTVSPost2010PropOp45
 70
     1
102
RTVSPost2010Prop46
 90
       50
102
RTVSPost2010PropOp46
 70
     1
102
RTVSPost2010Prop47
 90
       50
102
RTVSPost2010PropOp47
 70
     1
102
RTVSPost2010Prop48
 90
       50
102
RTVSPost2010PropOp48
 70
     1
102
RTVSPost2010Prop49
280
     0
102
RTVSPost2010PropOp49
 70
     1
102
RTVSPost2010Prop50
 90
       50
102
RTVSPost2010PropOp50
 70
     1
102
RTVSPost2010Prop51ColorIndex
 90
      256
102
RTVSPost2010Prop51ColorRGB
 90
-16777216
102
RTVSPost2010PropOp51
 70
     0
102
RTVSPost2010Prop52
140
1.0
102
RTVSPost2010PropOp52
 70
     0
102
RTVSPost2010Prop53
 90
        2
102
RTVSPost2010PropOp53
 70
     1
102
RTVSPost2010Prop54
  1
strokes_ogs.tif
102
RTVSPost2010PropOp54
 70
     1
102
RTVSPost2010Prop55
280
     0
102
RTVSPost2010PropOp55
 70
     1
102
RTVSPost2010Prop56
140
1.0
102
RTVSPost2010PropOp56
 70
     1
102
RTVSPost2010Prop57
140
1.0
102
RTVSPost2010PropOp57
 70
     1
  0
XRECORD
  5
DE
102
{ACAD_REACTORS
330
DD
102
}
330
DD
100
AcDbXrecord
280
     1
102
RTVSPropertyOp0
 70
     1
102
RTVSPropertyOp1
 70
     1
102
RTVSPropertyOp2
 70
     1
102
RTVSPropertyOp3
 70
     1
102
RTVSPropertyOp4
 70
     1
102
RTVSPropertyOp5
 70
     1
102
RTVSPropertyOp6
 70
     1
102
RTVSPropertyOp7
 70
     1
102
RTVSPropertyOp8
 70
     1
102
RTVSPropertyOp9
 70
     1
102
RTVSPropertyOp10
 70
     1
102
RTVSPropertyOp11
 70
     1
102
RTVSPropertyOp12
 70
     1
102
RTVSPropertyOp13
 70
     1
102
RTVSPropertyOp14
 70
     1
102
RTVSPropertyOp15
 70
     1
102
RTVSPropertyOp16
 70
     1
102
RTVSPropertyOp17
 70
     1
102
RTVSPropertyOp18
 70
     1
102
RTVSPropertyOp19
 70
     1
102
RTVSPropertyOp20
 70
     1
102
RTVSPropertyOp21
 70
     1
102
RTVSPropertyOp22
 70
     1
102
RTVSPropertyOp23
 70
     1
102
RTVSPropertyOp24
 70
     1
102
RTVSPropertyOp25
 70
     1
102
RTVSPropertyOp26
 70
     1
102
RTVSPropertyOp27
 70
     1
102
RTVSPropertyOp28
 70
     1
102
RTVSPropertyOp29
 70
     1
102
RTVSPropertyOp30
 70
     1
102
RTVSPropertyOp31
 70
     1
102
RTVSPropertyOp32
 70
     1
102
RTVSPropertyOp33
 70
     1
102
RTVSPropertyOp34
 70
     1
102
RTVSPropertyOp35
 70
     1
102
RTVSPropertyOp36
 70
     1
102
RTVSPropertyOp37
 70
     1
102
RTVSPropertyOp38
 70
     1
102
RTVSPropertyOp39
 70
     1
102
RTVSPropertyOp40
 70
     1
102
RTVSPropertyOp41
 70
     1
102
RTVSPropertyOp42
 70
     1
102
RTVSPropertyOp43
 70
     1
102
RTVSPropertyOp44
 70
     1
102
RTVSPropertyOp45
 70
     1
102
RTVSPropertyOp46
 70
     1
102
RTVSPropertyOp47
 70
     1
102
RTVSPropertyOp48
 70
     1
102
RTVSPropertyOp49
 70
     1
102
RTVSPropertyOp50
 70
     1
102
RTVSPropertyOp51
 70
     0
102
RTVSPropertyOp52
 70
     0
102
RTVSPropertyOp53
 70
     1
102
RTVSPropertyOp54
 70
     1
102
RTVSPropertyOp55
 70
     1
102
RTVSPropertyOp56
 70
     1
102
RTVSPropertyOp57
 70
     1
102
RTVSPost2010Prop28
280
     0
102
RTVSPost2010PropOp28
 70
     1
102
RTVSPost2010Prop29
280
     1
102
RTVSPost2010PropOp29
 70
     1
102
RTVSPost2010Prop30
280
     1
102
RTVSPost2010PropOp30
 70
     1
102
RTVSPost2010Prop31
280
     0
102
RTVSPost2010PropOp31
 70
     1
102
RTVSPost2010Prop32
280
     0
102
RTVSPost2010PropOp32
 70
     1
102
RTVSPost2010Prop33
280
     0
102
RTVSPost2010PropOp33
 70
     1
102
RTVSPost2010Prop34
280
     0
102
RTVSPost2010PropOp34
 70
     1
102
RTVSPost2010Prop35
280
     0
102
RTVSPost2010PropOp35
 70
     1
102
RTVSPost2010Prop36
280
     0
102
RTVSPost2010PropOp36
 70
     1
102
RTVSPost2010Prop37
 90
       50
102
RTVSPost2010PropOp37
 70
     1
102
RTVSPost2010Prop38
140
0.0
102
RTVSPost2010PropOp38
 70
     1
102
RTVSPost2010Prop39
140
1.0
102
RTVSPost2010PropOp39
 70
     1
102
RTVSPost2010Prop40
 90
        0
102
RTVSPost2010PropOp40
 70
     1
102
RTVSPost2010Prop41ColorIndex
 90
       18
102
RTVSPost2010Prop41ColorRGB
 90
        0
102
RTVSPost2010PropOp41
 70
     1
102
RTVSPost2010Prop42
 90
       50
102
RTVSPost2010PropOp42
 70
     1
102
RTVSPost2010Prop43
 90
        3
102
RTVSPost2010PropOp43
 70
     1
102
RTVSPost2010Prop44ColorIndex
 90
        5
102
RTVSPost2010Prop44ColorRGB
 90
      255
102
RTVSPost2010PropOp44
 70
     1
102
RTVSPost2010Prop45
280
     0
102
RTVSPost2010PropOp45
 70
     1
102
RTVSPost2010Prop46
 90
       50
102
RTVSPost2010PropOp46
 70
     1
102
RTVSPost2010Prop47
 90
       50
102
RTVSPost2010PropOp47
 70
     1
102
RTVSPost2010Prop48
 90
       50
102
RTVSPost2010PropOp48
 70
     1
102
RTVSPost2010Prop49
280
     0
102
RTVSPost2010PropOp49
 70
     1
102
RTVSPost2010Prop50
 90
       50
102
RTVSPost2010PropOp50
 70
     1
102
RTVSPost2010Prop51ColorIndex
 90
      256
102
RTVSPost2010Prop51ColorRGB
 90
-16777216
102
RTVSPost2010PropOp51
 70
     0
102
RTVSPost2010Prop52
140
1.0
102
RTVSPost2010PropOp52
 70
     0
102
RTVSPost2010Prop53
 90
        2
102
RTVSPost2010PropOp53
 70
     1
102
RTVSPost2010Prop54
  1
strokes_ogs.tif
102
RTVSPost2010PropOp54
 70
     1
102
RTVSPost2010Prop55
280
     0
102
RTVSPost2010PropOp55
 70
     1
102
RTVSPost2010Prop56
140
1.0
102
RTVSPost2010PropOp56
 70
     1
102
RTVSPost2010Prop57
140
1.0
102
RTVSPost2010PropOp57
 70
     1
  0
XRECORD
  5
D8
102
{ACAD_REACTORS
330
D7
102
}
330
D7
100
AcDbXrecord
280
     1
102
RTVSPropertyOp0
 70
     1
102
RTVSPropertyOp1
 70
     1
102
RTVSPropertyOp2
 70
     1
102
RTVSPropertyOp3
 70
     1
102
RTVSPropertyOp4
 70
     1
102
RTVSPropertyOp5
 70
     1
102
RTVSPropertyOp6
 70
     1
102
RTVSPropertyOp7
 70
     1
102
RTVSPropertyOp8
 70
     1
102
RTVSPropertyOp9
 70
     1
102
RTVSPropertyOp10
 70
     1
102
RTVSPropertyOp11
 70
     1
102
RTVSPropertyOp12
 70
     1
102
RTVSPropertyOp13
 70
     1
102
RTVSPropertyOp14
 70
     1
102
RTVSPropertyOp15
 70
     1
102
RTVSPropertyOp16
 70
     1
102
RTVSPropertyOp17
 70
     1
102
RTVSPropertyOp18
 70
     1
102
RTVSPropertyOp19
 70
     1
102
RTVSPropertyOp20
 70
     1
102
RTVSPropertyOp21
 70
     1
102
RTVSPropertyOp22
 70
     1
102
RTVSPropertyOp23
 70
     1
102
RTVSPropertyOp24
 70
     1
102
RTVSPropertyOp25
 70
     1
102
RTVSPropertyOp26
 70
     1
102
RTVSPropertyOp27
 70
     1
102
RTVSPropertyOp28
 70
     1
102
RTVSPropertyOp29
 70
     1
102
RTVSPropertyOp30
 70
     1
102
RTVSPropertyOp31
 70
     1
102
RTVSPropertyOp32
 70
     1
102
RTVSPropertyOp33
 70
     1
102
RTVSPropertyOp34
 70
     1
102
RTVSPropertyOp35
 70
     1
102
RTVSPropertyOp36
 70
     1
102
RTVSPropertyOp37
 70
     1
102
RTVSPropertyOp38
 70
     1
102
RTVSPropertyOp39
 70
     1
102
RTVSPropertyOp40
 70
     1
102
RTVSPropertyOp41
 70
     1
102
RTVSPropertyOp42
 70
     1
102
RTVSPropertyOp43
 70
     1
102
RTVSPropertyOp44
 70
     1
102
RTVSPropertyOp45
 70
     1
102
RTVSPropertyOp46
 70
     1
102
RTVSPropertyOp47
 70
     1
102
RTVSPropertyOp48
 70
     1
102
RTVSPropertyOp49
 70
     1
102
RTVSPropertyOp50
 70
     1
102
RTVSPropertyOp51
 70
     0
102
RTVSPropertyOp52
 70
     0
102
RTVSPropertyOp53
 70
     1
102
RTVSPropertyOp54
 70
     1
102
RTVSPropertyOp55
 70
     1
102
RTVSPropertyOp56
 70
     1
102
RTVSPropertyOp57
 70
     1
102
RTVSPost2010Prop28
280
     0
102
RTVSPost2010PropOp28
 70
     1
102
RTVSPost2010Prop29
280
     1
102
RTVSPost2010PropOp29
 70
     1
102
RTVSPost2010Prop30
280
     1
102
RTVSPost2010PropOp30
 70
     1
102
RTVSPost2010Prop31
280
     0
102
RTVSPost2010PropOp31
 70
     1
102
RTVSPost2010Prop32
280
     0
102
RTVSPost2010PropOp32
 70
     1
102
RTVSPost2010Prop33
280
     0
102
RTVSPost2010PropOp33
 70
     1
102
RTVSPost2010Prop34
280
     0
102
RTVSPost2010PropOp34
 70
     1
102
RTVSPost2010Prop35
280
     0
102
RTVSPost2010PropOp35
 70
     1
102
RTVSPost2010Prop36
280
     0
102
RTVSPost2010PropOp36
 70
     1
102
RTVSPost2010Prop37
 90
       50
102
RTVSPost2010PropOp37
 70
     1
102
RTVSPost2010Prop38
140
0.0
102
RTVSPost2010PropOp38
 70
     1
102
RTVSPost2010Prop39
140
1.0
102
RTVSPost2010PropOp39
 70
     1
102
RTVSPost2010Prop40
 90
        0
102
RTVSPost2010PropOp40
 70
     1
102
RTVSPost2010Prop41ColorIndex
 90
       18
102
RTVSPost2010Prop41ColorRGB
 90
        0
102
RTVSPost2010PropOp41
 70
     1
102
RTVSPost2010Prop42
 90
       50
102
RTVSPost2010PropOp42
 70
     1
102
RTVSPost2010Prop43
 90
        3
102
RTVSPost2010PropOp43
 70
     1
102
RTVSPost2010Prop44ColorIndex
 90
        5
102
RTVSPost2010Prop44ColorRGB
 90
      255
102
RTVSPost2010PropOp44
 70
     1
102
RTVSPost2010Prop45
280
     0
102
RTVSPost2010PropOp45
 70
     1
102
RTVSPost2010Prop46
 90
       50
102
RTVSPost2010PropOp46
 70
     1
102
RTVSPost2010Prop47
 90
       50
102
RTVSPost2010PropOp47
 70
     1
102
RTVSPost2010Prop48
 90
       50
102
RTVSPost2010PropOp48
 70
     1
102
RTVSPost2010Prop49
280
     0
102
RTVSPost2010PropOp49
 70
     1
102
RTVSPost2010Prop50
 90
       50
102
RTVSPost2010PropOp50
 70
     1
102
RTVSPost2010Prop51ColorIndex
 90
      256
102
RTVSPost2010Prop51ColorRGB
 90
-16777216
102
RTVSPost2010PropOp51
 70
     0
102
RTVSPost2010Prop52
140
1.0
102
RTVSPost2010PropOp52
 70
     0
102
RTVSPost2010Prop53
 90
        2
102
RTVSPost2010PropOp53
 70
     1
102
RTVSPost2010Prop54
  1
strokes_ogs.tif
102
RTVSPost2010PropOp54
 70
     1
102
RTVSPost2010Prop55
280
     0
102
RTVSPost2010PropOp55
 70
     1
102
RTVSPost2010Prop56
140
1.0
102
RTVSPost2010PropOp56
 70
     1
102
RTVSPost2010Prop57
140
1.0
102
RTVSPost2010PropOp57
 70
     1
  0
XRECORD
  5
DA
102
{ACAD_REACTORS
330
D9
102
}
330
D9
100
AcDbXrecord
280
     1
102
RTVSPropertyOp0
 70
     1
102
RTVSPropertyOp1
 70
     1
102
RTVSPropertyOp2
 70
     1
102
RTVSPropertyOp3
 70
     1
102
RTVSPropertyOp4
 70
     1
102
RTVSPropertyOp5
 70
     1
102
RTVSPropertyOp6
 70
     1
102
RTVSPropertyOp7
 70
     1
102
RTVSPropertyOp8
 70
     1
102
RTVSPropertyOp9
 70
     1
102
RTVSPropertyOp10
 70
     1
102
RTVSPropertyOp11
 70
     1
102
RTVSPropertyOp12
 70
     1
102
RTVSPropertyOp13
 70
     1
102
RTVSPropertyOp14
 70
     1
102
RTVSPropertyOp15
 70
     1
102
RTVSPropertyOp16
 70
     1
102
RTVSPropertyOp17
 70
     1
102
RTVSPropertyOp18
 70
     1
102
RTVSPropertyOp19
 70
     1
102
RTVSPropertyOp20
 70
     1
102
RTVSPropertyOp21
 70
     1
102
RTVSPropertyOp22
 70
     1
102
RTVSPropertyOp23
 70
     1
102
RTVSPropertyOp24
 70
     1
102
RTVSPropertyOp25
 70
     1
102
RTVSPropertyOp26
 70
     1
102
RTVSPropertyOp27
 70
     1
102
RTVSPropertyOp28
 70
     1
102
RTVSPropertyOp29
 70
     1
102
RTVSPropertyOp30
 70
     1
102
RTVSPropertyOp31
 70
     1
102
RTVSPropertyOp32
 70
     1
102
RTVSPropertyOp33
 70
     1
102
RTVSPropertyOp34
 70
     1
102
RTVSPropertyOp35
 70
     1
102
RTVSPropertyOp36
 70
     1
102
RTVSPropertyOp37
 70
     1
102
RTVSPropertyOp38
 70
     1
102
RTVSPropertyOp39
 70
     1
102
RTVSPropertyOp40
 70
     1
102
RTVSPropertyOp41
 70
     1
102
RTVSPropertyOp42
 70
     1
102
RTVSPropertyOp43
 70
     1
102
RTVSPropertyOp44
 70
     1
102
RTVSPropertyOp45
 70
     1
102
RTVSPropertyOp46
 70
     1
102
RTVSPropertyOp47
 70
     1
102
RTVSPropertyOp48
 70
     1
102
RTVSPropertyOp49
 70
     1
102
RTVSPropertyOp50
 70
     1
102
RTVSPropertyOp51
 70
     0
102
RTVSPropertyOp52
 70
     0
102
RTVSPropertyOp53
 70
     1
102
RTVSPropertyOp54
 70
     1
102
RTVSPropertyOp55
 70
     1
102
RTVSPropertyOp56
 70
     1
102
RTVSPropertyOp57
 70
     1
102
RTVSPost2010Prop28
280
     0
102
RTVSPost2010PropOp28
 70
     1
102
RTVSPost2010Prop29
280
     1
102
RTVSPost2010PropOp29
 70
     1
102
RTVSPost2010Prop30
280
     1
102
RTVSPost2010PropOp30
 70
     1
102
RTVSPost2010Prop31
280
     0
102
RTVSPost2010PropOp31
 70
     1
102
RTVSPost2010Prop32
280
     0
102
RTVSPost2010PropOp32
 70
     1
102
RTVSPost2010Prop33
280
     0
102
RTVSPost2010PropOp33
 70
     1
102
RTVSPost2010Prop34
280
     0
102
RTVSPost2010PropOp34
 70
     1
102
RTVSPost2010Prop35
280
     0
102
RTVSPost2010PropOp35
 70
     1
102
RTVSPost2010Prop36
280
     0
102
RTVSPost2010PropOp36
 70
     1
102
RTVSPost2010Prop37
 90
       50
102
RTVSPost2010PropOp37
 70
     1
102
RTVSPost2010Prop38
140
0.0
102
RTVSPost2010PropOp38
 70
     1
102
RTVSPost2010Prop39
140
1.0
102
RTVSPost2010PropOp39
 70
     1
102
RTVSPost2010Prop40
 90
        0
102
RTVSPost2010PropOp40
 70
     1
102
RTVSPost2010Prop41ColorIndex
 90
       18
102
RTVSPost2010Prop41ColorRGB
 90
        0
102
RTVSPost2010PropOp41
 70
     1
102
RTVSPost2010Prop42
 90
       50
102
RTVSPost2010PropOp42
 70
     1
102
RTVSPost2010Prop43
 90
        3
102
RTVSPost2010PropOp43
 70
     1
102
RTVSPost2010Prop44ColorIndex
 90
        5
102
RTVSPost2010Prop44ColorRGB
 90
      255
102
RTVSPost2010PropOp44
 70
     1
102
RTVSPost2010Prop45
280
     0
102
RTVSPost2010PropOp45
 70
     1
102
RTVSPost2010Prop46
 90
       50
102
RTVSPost2010PropOp46
 70
     1
102
RTVSPost2010Prop47
 90
       50
102
RTVSPost2010PropOp47
 70
     1
102
RTVSPost2010Prop48
 90
       50
102
RTVSPost2010PropOp48
 70
     1
102
RTVSPost2010Prop49
280
     0
102
RTVSPost2010PropOp49
 70
     1
102
RTVSPost2010Prop50
 90
       50
102
RTVSPost2010PropOp50
 70
     1
102
RTVSPost2010Prop51ColorIndex
 90
      256
102
RTVSPost2010Prop51ColorRGB
 90
-16777216
102
RTVSPost2010PropOp51
 70
     0
102
RTVSPost2010Prop52
140
1.0
102
RTVSPost2010PropOp52
 70
     0
102
RTVSPost2010Prop53
 90
        2
102
RTVSPost2010PropOp53
 70
     1
102
RTVSPost2010Prop54
  1
strokes_ogs.tif
102
RTVSPost2010PropOp54
 70
     1
102
RTVSPost2010Prop55
280
     0
102
RTVSPost2010PropOp55
 70
     1
102
RTVSPost2010Prop56
140
1.0
102
RTVSPost2010PropOp56
 70
     1
102
RTVSPost2010Prop57
140
1.0
102
RTVSPost2010PropOp57
 70
     1
  0
XRECORD
  5
CA
102
{ACAD_REACTORS
330
C9
102
}
330
C9
100
AcDbXrecord
280
     1
102
RTVSPropertyOp0
 70
     1
102
RTVSPropertyOp1
 70
     1
102
RTVSPropertyOp2
 70
     1
102
RTVSPropertyOp3
 70
     1
102
RTVSPropertyOp4
 70
     1
102
RTVSPropertyOp5
 70
     1
102
RTVSPropertyOp6
 70
     1
102
RTVSPropertyOp7
 70
     1
102
RTVSPropertyOp8
 70
     1
102
RTVSPropertyOp9
 70
     1
102
RTVSPropertyOp10
 70
     1
102
RTVSPropertyOp11
 70
     1
102
RTVSPropertyOp12
 70
     1
102
RTVSPropertyOp13
 70
     1
102
RTVSPropertyOp14
 70
     1
102
RTVSPropertyOp15
 70
     1
102
RTVSPropertyOp16
 70
     1
102
RTVSPropertyOp17
 70
     1
102
RTVSPropertyOp18
 70
     1
102
RTVSPropertyOp19
 70
     1
102
RTVSPropertyOp20
 70
     1
102
RTVSPropertyOp21
 70
     1
102
RTVSPropertyOp22
 70
     1
102
RTVSPropertyOp23
 70
     1
102
RTVSPropertyOp24
 70
     1
102
RTVSPropertyOp25
 70
     1
102
RTVSPropertyOp26
 70
     1
102
RTVSPropertyOp27
 70
     1
102
RTVSPropertyOp28
 70
     1
102
RTVSPropertyOp29
 70
     1
102
RTVSPropertyOp30
 70
     1
102
RTVSPropertyOp31
 70
     1
102
RTVSPropertyOp32
 70
     1
102
RTVSPropertyOp33
 70
     1
102
RTVSPropertyOp34
 70
     1
102
RTVSPropertyOp35
 70
     1
102
RTVSPropertyOp36
 70
     1
102
RTVSPropertyOp37
 70
     1
102
RTVSPropertyOp38
 70
     1
102
RTVSPropertyOp39
 70
     1
102
RTVSPropertyOp40
 70
     1
102
RTVSPropertyOp41
 70
     1
102
RTVSPropertyOp42
 70
     1
102
RTVSPropertyOp43
 70
     1
102
RTVSPropertyOp44
 70
     1
102
RTVSPropertyOp45
 70
     1
102
RTVSPropertyOp46
 70
     1
102
RTVSPropertyOp47
 70
     1
102
RTVSPropertyOp48
 70
     1
102
RTVSPropertyOp49
 70
     1
102
RTVSPropertyOp50
 70
     1
102
RTVSPropertyOp51
 70
     0
102
RTVSPropertyOp52
 70
     0
102
RTVSPropertyOp53
 70
     1
102
RTVSPropertyOp54
 70
     1
102
RTVSPropertyOp55
 70
     1
102
RTVSPropertyOp56
 70
     1
102
RTVSPropertyOp57
 70
     1
102
RTVSPost2010Prop28
280
     0
102
RTVSPost2010PropOp28
 70
     1
102
RTVSPost2010Prop29
280
     1
102
RTVSPost2010PropOp29
 70
     1
102
RTVSPost2010Prop30
280
     1
102
RTVSPost2010PropOp30
 70
     1
102
RTVSPost2010Prop31
280
     0
102
RTVSPost2010PropOp31
 70
     1
102
RTVSPost2010Prop32
280
     0
102
RTVSPost2010PropOp32
 70
     1
102
RTVSPost2010Prop33
280
     0
102
RTVSPost2010PropOp33
 70
     1
102
RTVSPost2010Prop34
280
     0
102
RTVSPost2010PropOp34
 70
     1
102
RTVSPost2010Prop35
280
     0
102
RTVSPost2010PropOp35
 70
     1
102
RTVSPost2010Prop36
280
     0
102
RTVSPost2010PropOp36
 70
     1
102
RTVSPost2010Prop37
 90
       50
102
RTVSPost2010PropOp37
 70
     1
102
RTVSPost2010Prop38
140
0.0
102
RTVSPost2010PropOp38
 70
     1
102
RTVSPost2010Prop39
140
1.0
102
RTVSPost2010PropOp39
 70
     1
102
RTVSPost2010Prop40
 90
        0
102
RTVSPost2010PropOp40
 70
     1
102
RTVSPost2010Prop41ColorIndex
 90
       18
102
RTVSPost2010Prop41ColorRGB
 90
        0
102
RTVSPost2010PropOp41
 70
     1
102
RTVSPost2010Prop42
 90
       50
102
RTVSPost2010PropOp42
 70
     1
102
RTVSPost2010Prop43
 90
        3
102
RTVSPost2010PropOp43
 70
     1
102
RTVSPost2010Prop44ColorIndex
 90
        5
102
RTVSPost2010Prop44ColorRGB
 90
      255
102
RTVSPost2010PropOp44
 70
     1
102
RTVSPost2010Prop45
280
     0
102
RTVSPost2010PropOp45
 70
     1
102
RTVSPost2010Prop46
 90
       50
102
RTVSPost2010PropOp46
 70
     1
102
RTVSPost2010Prop47
 90
       50
102
RTVSPost2010PropOp47
 70
     1
102
RTVSPost2010Prop48
 90
       50
102
RTVSPost2010PropOp48
 70
     1
102
RTVSPost2010Prop49
280
     0
102
RTVSPost2010PropOp49
 70
     1
102
RTVSPost2010Prop50
 90
       50
102
RTVSPost2010PropOp50
 70
     1
102
RTVSPost2010Prop51ColorIndex
 90
      256
102
RTVSPost2010Prop51ColorRGB
 90
-16777216
102
RTVSPost2010PropOp51
 70
     0
102
RTVSPost2010Prop52
140
1.0
102
RTVSPost2010PropOp52
 70
     0
102
RTVSPost2010Prop53
 90
        2
102
RTVSPost2010PropOp53
 70
     1
102
RTVSPost2010Prop54
  1
strokes_ogs.tif
102
RTVSPost2010PropOp54
 70
     1
102
RTVSPost2010Prop55
280
     0
102
RTVSPost2010PropOp55
 70
     1
102
RTVSPost2010Prop56
140
1.0
102
RTVSPost2010PropOp56
 70
     1
102
RTVSPost2010Prop57
140
1.0
102
RTVSPost2010PropOp57
 70
     1
  0
XRECORD
  5
BC
102
{ACAD_REACTORS
330
BB
102
}
330
BB
100
AcDbXrecord
280
     1
102
RTVSPropertyOp0
 70
     1
102
RTVSPropertyOp1
 70
     1
102
RTVSPropertyOp2
 70
     1
102
RTVSPropertyOp3
 70
     1
102
RTVSPropertyOp4
 70
     1
102
RTVSPropertyOp5
 70
     1
102
RTVSPropertyOp6
 70
     1
102
RTVSPropertyOp7
 70
     1
102
RTVSPropertyOp8
 70
     1
102
RTVSPropertyOp9
 70
     1
102
RTVSPropertyOp10
 70
     1
102
RTVSPropertyOp11
 70
     1
102
RTVSPropertyOp12
 70
     1
102
RTVSPropertyOp13
 70
     1
102
RTVSPropertyOp14
 70
     1
102
RTVSPropertyOp15
 70
     1
102
RTVSPropertyOp16
 70
     1
102
RTVSPropertyOp17
 70
     1
102
RTVSPropertyOp18
 70
     1
102
RTVSPropertyOp19
 70
     1
102
RTVSPropertyOp20
 70
     1
102
RTVSPropertyOp21
 70
     1
102
RTVSPropertyOp22
 70
     1
102
RTVSPropertyOp23
 70
     1
102
RTVSPropertyOp24
 70
     1
102
RTVSPropertyOp25
 70
     1
102
RTVSPropertyOp26
 70
     1
102
RTVSPropertyOp27
 70
     1
102
RTVSPropertyOp28
 70
     1
102
RTVSPropertyOp29
 70
     1
102
RTVSPropertyOp30
 70
     1
102
RTVSPropertyOp31
 70
     1
102
RTVSPropertyOp32
 70
     1
102
RTVSPropertyOp33
 70
     1
102
RTVSPropertyOp34
 70
     1
102
RTVSPropertyOp35
 70
     1
102
RTVSPropertyOp36
 70
     1
102
RTVSPropertyOp37
 70
     1
102
RTVSPropertyOp38
 70
     1
102
RTVSPropertyOp39
 70
     1
102
RTVSPropertyOp40
 70
     1
102
RTVSPropertyOp41
 70
     1
102
RTVSPropertyOp42
 70
     1
102
RTVSPropertyOp43
 70
     1
102
RTVSPropertyOp44
 70
     1
102
RTVSPropertyOp45
 70
     1
102
RTVSPropertyOp46
 70
     1
102
RTVSPropertyOp47
 70
     1
102
RTVSPropertyOp48
 70
     1
102
RTVSPropertyOp49
 70
     1
102
RTVSPropertyOp50
 70
     1
102
RTVSPropertyOp51
 70
     0
102
RTVSPropertyOp52
 70
     0
102
RTVSPropertyOp53
 70
     1
102
RTVSPropertyOp54
 70
     1
102
RTVSPropertyOp55
 70
     1
102
RTVSPropertyOp56
 70
     1
102
RTVSPropertyOp57
 70
     1
102
RTVSPost2010Prop28
280
     0
102
RTVSPost2010PropOp28
 70
     1
102
RTVSPost2010Prop29
280
     1
102
RTVSPost2010PropOp29
 70
     1
102
RTVSPost2010Prop30
280
     1
102
RTVSPost2010PropOp30
 70
     1
102
RTVSPost2010Prop31
280
     0
102
RTVSPost2010PropOp31
 70
     1
102
RTVSPost2010Prop32
280
     0
102
RTVSPost2010PropOp32
 70
     1
102
RTVSPost2010Prop33
280
     0
102
RTVSPost2010PropOp33
 70
     1
102
RTVSPost2010Prop34
280
     0
102
RTVSPost2010PropOp34
 70
     1
102
RTVSPost2010Prop35
280
     0
102
RTVSPost2010PropOp35
 70
     1
102
RTVSPost2010Prop36
280
     0
102
RTVSPost2010PropOp36
 70
     1
102
RTVSPost2010Prop37
 90
       50
102
RTVSPost2010PropOp37
 70
     1
102
RTVSPost2010Prop38
140
0.0
102
RTVSPost2010PropOp38
 70
     1
102
RTVSPost2010Prop39
140
1.0
102
RTVSPost2010PropOp39
 70
     1
102
RTVSPost2010Prop40
 90
        0
102
RTVSPost2010PropOp40
 70
     1
102
RTVSPost2010Prop41ColorIndex
 90
       18
102
RTVSPost2010Prop41ColorRGB
 90
        0
102
RTVSPost2010PropOp41
 70
     1
102
RTVSPost2010Prop42
 90
       50
102
RTVSPost2010PropOp42
 70
     1
102
RTVSPost2010Prop43
 90
        3
102
RTVSPost2010PropOp43
 70
     1
102
RTVSPost2010Prop44ColorIndex
 90
        5
102
RTVSPost2010Prop44ColorRGB
 90
      255
102
RTVSPost2010PropOp44
 70
     1
102
RTVSPost2010Prop45
280
     0
102
RTVSPost2010PropOp45
 70
     1
102
RTVSPost2010Prop46
 90
       50
102
RTVSPost2010PropOp46
 70
     1
102
RTVSPost2010Prop47
 90
       50
102
RTVSPost2010PropOp47
 70
     1
102
RTVSPost2010Prop48
 90
       50
102
RTVSPost2010PropOp48
 70
     1
102
RTVSPost2010Prop49
280
     0
102
RTVSPost2010PropOp49
 70
     1
102
RTVSPost2010Prop50
 90
       50
102
RTVSPost2010PropOp50
 70
     1
102
RTVSPost2010Prop51ColorIndex
 90
      256
102
RTVSPost2010Prop51ColorRGB
 90
-16777216
102
RTVSPost2010PropOp51
 70
     0
102
RTVSPost2010Prop52
140
1.0
102
RTVSPost2010PropOp52
 70
     0
102
RTVSPost2010Prop53
 90
        2
102
RTVSPost2010PropOp53
 70
     1
102
RTVSPost2010Prop54
  1
strokes_ogs.tif
102
RTVSPost2010PropOp54
 70
     1
102
RTVSPost2010Prop55
280
     0
102
RTVSPost2010PropOp55
 70
     1
102
RTVSPost2010Prop56
140
1.0
102
RTVSPost2010PropOp56
 70
     1
102
RTVSPost2010Prop57
140
1.0
102
RTVSPost2010PropOp57
 70
     1
  0
XRECORD
  5
DC
102
{ACAD_REACTORS
330
DB
102
}
330
DB
100
AcDbXrecord
280
     1
102
RTVSPropertyOp0
 70
     1
102
RTVSPropertyOp1
 70
     1
102
RTVSPropertyOp2
 70
     1
102
RTVSPropertyOp3
 70
     1
102
RTVSPropertyOp4
 70
     1
102
RTVSPropertyOp5
 70
     1
102
RTVSPropertyOp6
 70
     1
102
RTVSPropertyOp7
 70
     1
102
RTVSPropertyOp8
 70
     1
102
RTVSPropertyOp9
 70
     1
102
RTVSPropertyOp10
 70
     1
102
RTVSPropertyOp11
 70
     1
102
RTVSPropertyOp12
 70
     1
102
RTVSPropertyOp13
 70
     1
102
RTVSPropertyOp14
 70
     1
102
RTVSPropertyOp15
 70
     1
102
RTVSPropertyOp16
 70
     1
102
RTVSPropertyOp17
 70
     1
102
RTVSPropertyOp18
 70
     1
102
RTVSPropertyOp19
 70
     1
102
RTVSPropertyOp20
 70
     1
102
RTVSPropertyOp21
 70
     1
102
RTVSPropertyOp22
 70
     1
102
RTVSPropertyOp23
 70
     1
102
RTVSPropertyOp24
 70
     1
102
RTVSPropertyOp25
 70
     1
102
RTVSPropertyOp26
 70
     1
102
RTVSPropertyOp27
 70
     1
102
RTVSPropertyOp28
 70
     1
102
RTVSPropertyOp29
 70
     1
102
RTVSPropertyOp30
 70
     1
102
RTVSPropertyOp31
 70
     1
102
RTVSPropertyOp32
 70
     1
102
RTVSPropertyOp33
 70
     1
102
RTVSPropertyOp34
 70
     1
102
RTVSPropertyOp35
 70
     1
102
RTVSPropertyOp36
 70
     1
102
RTVSPropertyOp37
 70
     1
102
RTVSPropertyOp38
 70
     1
102
RTVSPropertyOp39
 70
     1
102
RTVSPropertyOp40
 70
     1
102
RTVSPropertyOp41
 70
     1
102
RTVSPropertyOp42
 70
     1
102
RTVSPropertyOp43
 70
     1
102
RTVSPropertyOp44
 70
     1
102
RTVSPropertyOp45
 70
     1
102
RTVSPropertyOp46
 70
     1
102
RTVSPropertyOp47
 70
     1
102
RTVSPropertyOp48
 70
     1
102
RTVSPropertyOp49
 70
     1
102
RTVSPropertyOp50
 70
     1
102
RTVSPropertyOp51
 70
     0
102
RTVSPropertyOp52
 70
     0
102
RTVSPropertyOp53
 70
     1
102
RTVSPropertyOp54
 70
     1
102
RTVSPropertyOp55
 70
     1
102
RTVSPropertyOp56
 70
     1
102
RTVSPropertyOp57
 70
     1
102
RTVSPost2010Prop28
280
     0
102
RTVSPost2010PropOp28
 70
     1
102
RTVSPost2010Prop29
280
     1
102
RTVSPost2010PropOp29
 70
     1
102
RTVSPost2010Prop30
280
     1
102
RTVSPost2010PropOp30
 70
     1
102
RTVSPost2010Prop31
280
     0
102
RTVSPost2010PropOp31
 70
     1
102
RTVSPost2010Prop32
280
     0
102
RTVSPost2010PropOp32
 70
     1
102
RTVSPost2010Prop33
280
     0
102
RTVSPost2010PropOp33
 70
     1
102
RTVSPost2010Prop34
280
     0
102
RTVSPost2010PropOp34
 70
     1
102
RTVSPost2010Prop35
280
     0
102
RTVSPost2010PropOp35
 70
     1
102
RTVSPost2010Prop36
280
     0
102
RTVSPost2010PropOp36
 70
     1
102
RTVSPost2010Prop37
 90
       50
102
RTVSPost2010PropOp37
 70
     1
102
RTVSPost2010Prop38
140
0.0
102
RTVSPost2010PropOp38
 70
     1
102
RTVSPost2010Prop39
140
1.0
102
RTVSPost2010PropOp39
 70
     1
102
RTVSPost2010Prop40
 90
        0
102
RTVSPost2010PropOp40
 70
     1
102
RTVSPost2010Prop41ColorIndex
 90
       18
102
RTVSPost2010Prop41ColorRGB
 90
        0
102
RTVSPost2010PropOp41
 70
     1
102
RTVSPost2010Prop42
 90
       50
102
RTVSPost2010PropOp42
 70
     1
102
RTVSPost2010Prop43
 90
        3
102
RTVSPost2010PropOp43
 70
     1
102
RTVSPost2010Prop44ColorIndex
 90
        5
102
RTVSPost2010Prop44ColorRGB
 90
      255
102
RTVSPost2010PropOp44
 70
     1
102
RTVSPost2010Prop45
280
     0
102
RTVSPost2010PropOp45
 70
     1
102
RTVSPost2010Prop46
 90
       50
102
RTVSPost2010PropOp46
 70
     1
102
RTVSPost2010Prop47
 90
       50
102
RTVSPost2010PropOp47
 70
     1
102
RTVSPost2010Prop48
 90
       50
102
RTVSPost2010PropOp48
 70
     1
102
RTVSPost2010Prop49
280
     0
102
RTVSPost2010PropOp49
 70
     1
102
RTVSPost2010Prop50
 90
       50
102
RTVSPost2010PropOp50
 70
     1
102
RTVSPost2010Prop51ColorIndex
 90
      256
102
RTVSPost2010Prop51ColorRGB
 90
-16777216
102
RTVSPost2010PropOp51
 70
     0
102
RTVSPost2010Prop52
140
1.0
102
RTVSPost2010PropOp52
 70
     0
102
RTVSPost2010Prop53
 90
        2
102
RTVSPost2010PropOp53
 70
     1
102
RTVSPost2010Prop54
  1
strokes_ogs.tif
102
RTVSPost2010PropOp54
 70
     1
102
RTVSPost2010Prop55
280
     0
102
RTVSPost2010PropOp55
 70
     1
102
RTVSPost2010Prop56
140
1.0
102
RTVSPost2010PropOp56
 70
     1
102
RTVSPost2010Prop57
140
1.0
102
RTVSPost2010PropOp57
 70
     1
  0
ENDSEC
  0
EOF
