  0
SECTION
  2
HEADER
  9
$ACADVER
  1
AC1015
  9
$ACADMAINTVER
 70
     6
  9
$DWGCODEPAGE
  3
ANSI_1252
  9
$INSBASE
 10
352.4717940871022
 20
413.7133722860761
 30
0.0
  9
$EXTMIN
 10
339.9217116874584
 20
407.3228472174027
 30
0.0
  9
$EXTMAX
 10
372.483094550336
 20
424.8886892664087
 30
0.0
  9
$LIMMIN
 10
0.0
 20
0.0
  9
$LIMMAX
 10
12.0
 20
9.0
  9
$ORTHOMODE
 70
     0
  9
$REGENMODE
 70
     1
  9
$FILLMODE
 70
     1
  9
$QTEXTMODE
 70
     0
  9
$MIRRTEXT
 70
     1
  9
$LTSCALE
 40
1.0
  9
$ATTMODE
 70
     1
  9
$TEXTSIZE
 40
0.2
  9
$TRACEWID
 40
0.05
  9
$TEXTSTYLE
  7
Standard
  9
$CLAYER
  8
0
  9
$CELTYPE
  6
ByLayer
  9
$CECOLOR
 62
   256
  9
$CELTSCALE
 40
1.0
  9
$DISPSILH
 70
     0
  9
$DIMSCALE
 40
1.0
  9
$DIMASZ
 40
0.18
  9
$DIMEXO
 40
0.0625
  9
$DIMDLI
 40
0.38
  9
$DIMRND
 40
0.0
  9
$DIMDLE
 40
0.0
  9
$DIMEXE
 40
0.18
  9
$DIMTP
 40
0.0
  9
$DIMTM
 40
0.0
  9
$DIMTXT
 40
0.18
  9
$DIMCEN
 40
0.09
  9
$DIMTSZ
 40
0.0
  9
$DIMTOL
 70
     0
  9
$DIMLIM
 70
     0
  9
$DIMTIH
 70
     1
  9
$DIMTOH
 70
     1
  9
$DIMSE1
 70
     0
  9
$DIMSE2
 70
     0
  9
$DIMTAD
 70
     0
  9
$DIMZIN
 70
     0
  9
$DIMBLK
  1

  9
$DIMASO
 70
     1
  9
$DIMSHO
 70
     1
  9
$DIMPOST
  1

  9
$DIMAPOST
  1

  9
$DIMALT
 70
     0
  9
$DIMALTD
 70
     2
  9
$DIMALTF
 40
25.4
  9
$DIMLFAC
 40
1.0
  9
$DIMTOFL
 70
     0
  9
$DIMTVP
 40
0.0
  9
$DIMTIX
 70
     0
  9
$DIMSOXD
 70
     0
  9
$DIMSAH
 70
     0
  9
$DIMBLK1
  1

  9
$DIMBLK2
  1

  9
$DIMSTYLE
  2
Standard
  9
$DIMCLRD
 70
     0
  9
$DIMCLRE
 70
     0
  9
$DIMCLRT
 70
     0
  9
$DIMTFAC
 40
1.0
  9
$DIMGAP
 40
0.09
  9
$DIMJUST
 70
     0
  9
$DIMSD1
 70
     0
  9
$DIMSD2
 70
     0
  9
$DIMTOLJ
 70
     1
  9
$DIMTZIN
 70
     0
  9
$DIMALTZ
 70
     0
  9
$DIMALTTZ
 70
     0
  9
$DIMUPT
 70
     0
  9
$DIMDEC
 70
     4
  9
$DIMTDEC
 70
     4
  9
$DIMALTU
 70
     2
  9
$DIMALTTD
 70
     2
  9
$DIMTXSTY
  7
Standard
  9
$DIMAUNIT
 70
     0
  9
$DIMADEC
 70
     0
  9
$DIMALTRND
 40
0.0
  9
$DIMAZIN
 70
     0
  9
$DIMDSEP
 70
    46
  9
$DIMATFIT
 70
     3
  9
$DIMFRAC
 70
     0
  9
$DIMLDRBLK
  1

  9
$DIMLUNIT
 70
     2
  9
$DIMLWD
 70
    -2
  9
$DIMLWE
 70
    -2
  9
$DIMTMOVE
 70
     0
  9
$LUNITS
 70
     2
  9
$LUPREC
 70
     4
  9
$SKETCHINC
 40
0.1
  9
$FILLETRAD
 40
0.5
  9
$AUNITS
 70
     0
  9
$AUPREC
 70
     0
  9
$MENU
  1
.
  9
$ELEVATION
 40
0.0
  9
$PELEVATION
 40
0.0
  9
$THICKNESS
 40
0.0
  9
$LIMCHECK
 70
     0
  9
$CHAMFERA
 40
0.5
  9
$CHAMFERB
 40
0.5
  9
$CHAMFERC
 40
1.0
  9
$CHAMFERD
 40
0.0
  9
$SKPOLY
 70
     0
  9
$TDCREATE
 40
2458676.485268229
  9
$TDUCREATE
 40
2458676.651934896
  9
$TDUPDATE
 40
2458708.511945868
  9
$TDUUPDATE
 40
2458708.678612535
  9
$TDINDWG
 40
0.1600564468
  9
$TDUSRTIMER
 40
0.1600564468
  9
$USRTIMER
 70
     1
  9
$ANGBASE
 50
0.0
  9
$ANGDIR
 70
     0
  9
$PDMODE
 70
     0
  9
$PDSIZE
 40
0.0
  9
$PLINEWID
 40
0.0
  9
$SPLFRAME
 70
     0
  9
$SPLINETYPE
 70
     6
  9
$SPLINESEGS
 70
     8
  9
$HANDSEED
  5
CE
  9
$SURFTAB1
 70
     6
  9
$SURFTAB2
 70
     6
  9
$SURFTYPE
 70
     6
  9
$SURFU
 70
     6
  9
$SURFV
 70
     6
  9
$UCSBASE
  2

  9
$UCSNAME
  2

  9
$UCSORG
 10
0.0
 20
0.0
 30
0.0
  9
$UCSXDIR
 10
1.0
 20
0.0
 30
0.0
  9
$UCSYDIR
 10
0.0
 20
1.0
 30
0.0
  9
$UCSORTHOREF
  2

  9
$UCSORTHOVIEW
 70
     0
  9
$UCSORGTOP
 10
0.0
 20
0.0
 30
0.0
  9
$UCSORGBOTTOM
 10
0.0
 20
0.0
 30
0.0
  9
$UCSORGLEFT
 10
0.0
 20
0.0
 30
0.0
  9
$UCSORGRIGHT
 10
0.0
 20
0.0
 30
0.0
  9
$UCSORGFRONT
 10
0.0
 20
0.0
 30
0.0
  9
$UCSORGBACK
 10
0.0
 20
0.0
 30
0.0
  9
$PUCSBASE
  2

  9
$PUCSNAME
  2

  9
$PUCSORG
 10
0.0
 20
0.0
 30
0.0
  9
$PUCSXDIR
 10
1.0
 20
0.0
 30
0.0
  9
$PUCSYDIR
 10
0.0
 20
1.0
 30
0.0
  9
$PUCSORTHOREF
  2

  9
$PUCSORTHOVIEW
 70
     0
  9
$PUCSORGTOP
 10
0.0
 20
0.0
 30
0.0
  9
$PUCSORGBOTTOM
 10
0.0
 20
0.0
 30
0.0
  9
$PUCSORGLEFT
 10
0.0
 20
0.0
 30
0.0
  9
$PUCSORGRIGHT
 10
0.0
 20
0.0
 30
0.0
  9
$PUCSORGFRONT
 10
0.0
 20
0.0
 30
0.0
  9
$PUCSORGBACK
 10
0.0
 20
0.0
 30
0.0
  9
$USERI1
 70
     0
  9
$USERI2
 70
     0
  9
$USERI3
 70
     0
  9
$USERI4
 70
     0
  9
$USERI5
 70
     0
  9
$USERR1
 40
0.0
  9
$USERR2
 40
0.0
  9
$USERR3
 40
0.0
  9
$USERR4
 40
0.0
  9
$USERR5
 40
0.0
  9
$WORLDVIEW
 70
     1
  9
$SHADEDGE
 70
     3
  9
$SHADEDIF
 70
    70
  9
$TILEMODE
 70
     1
  9
$MAXACTVP
 70
    64
  9
$PINSBASE
 10
0.0
 20
0.0
 30
0.0
  9
$PLIMCHECK
 70
     0
  9
$PEXTMIN
 10
1.000000000000000E+20
 20
1.000000000000000E+20
 30
1.000000000000000E+20
  9
$PEXTMAX
 10
-1.000000000000000E+20
 20
-1.000000000000000E+20
 30
-1.000000000000000E+20
  9
$PLIMMIN
 10
-0.25
 20
-0.25
  9
$PLIMMAX
 10
10.75
 20
8.25
  9
$UNITMODE
 70
     0
  9
$VISRETAIN
 70
     1
  9
$PLINEGEN
 70
     0
  9
$PSLTSCALE
 70
     1
  9
$TREEDEPTH
 70
  3020
  9
$CMLSTYLE
  2
Standard
  9
$CMLJUST
 70
     0
  9
$CMLSCALE
 40
1.0
  9
$PROXYGRAPHICS
 70
     1
  9
$MEASUREMENT
 70
     0
  9
$CELWEIGHT
370
    -1
  9
$ENDCAPS
280
     0
  9
$JOINSTYLE
280
     0
  9
$LWDISPLAY
290
     1
  9
$INSUNITS
 70
     1
  9
$HYPERLINKBASE
  1

  9
$STYLESHEET
  1

  9
$XEDIT
290
     1
  9
$CEPSNTYPE
380
     0
  9
$PSTYLEMODE
290
     1
  9
$FINGERPRINTGUID
  2
{3FF96223-F9C2-48F7-A4C5-C732E40B2087}
  9
$VERSIONGUID
  2
{FAEB1C32-E019-11D5-929B-00C0DF256EC4}
  9
$EXTNAMES
290
     1
  9
$PSVPSCALE
 40
0.0
  9
$OLESTARTUP
290
     0
  0
ENDSEC
  0
SECTION
  2
CLASSES
  0
CLASS
  1
ACDBDICTIONARYWDFLT
  2
AcDbDictionaryWithDefault
  3
ObjectDBX Classes
 90
        0
280
     0
281
     0
  0
CLASS
  1
MATERIAL
  2
AcDbMaterial
  3
ObjectDBX Classes
 90
     1153
280
     0
281
     0
  0
CLASS
  1
VISUALSTYLE
  2
AcDbVisualStyle
  3
ObjectDBX Classes
 90
     4095
280
     0
281
     0
  0
CLASS
  1
SUN
  2
AcDbSun
  3
SCENEOE
 90
     1153
280
     0
281
     0
  0
CLASS
  1
SCALE
  2
AcDbScale
  3
ObjectDBX Classes
 90
     1153
280
     0
281
     0
  0
CLASS
  1
DICTIONARYVAR
  2
AcDbDictionaryVar
  3
ObjectDBX Classes
 90
        0
280
     0
281
     0
  0
CLASS
  1
MLEADERSTYLE
  2
AcDbMLeaderStyle
  3
ACDB_MLEADERSTYLE_CLASS
 90
     4095
280
     0
281
     0
  0
CLASS
  1
TABLESTYLE
  2
AcDbTableStyle
  3
ObjectDBX Classes
 90
     4095
280
     0
281
     0
  0
CLASS
  1
ACDBPLACEHOLDER
  2
AcDbPlaceHolder
  3
ObjectDBX Classes
 90
        0
280
     0
281
     0
  0
CLASS
  1
LAYOUT
  2
AcDbLayout
  3
ObjectDBX Classes
 90
        0
280
     0
281
     0
  0
ENDSEC
  0
SECTION
  2
TABLES
  0
TABLE
  2
VPORT
  5
1F
102
{ACAD_XDICTIONARY
360
92
102
}
330
0
100
AcDbSymbolTable
 70
     1
  0
VPORT
  5
25
330
1F
100
AcDbSymbolTableRecord
100
AcDbViewportTableRecord
  2
*Active
 70
     0
 10
0.0
 20
0.0
 11
1.0
 21
1.0
 12
356.2024031188972
 22
416.1057682419057
 13
0.0
 23
0.0
 14
0.5
 24
0.5
 15
0.5
 25
0.5
 16
0.0
 26
0.0
 36
1.0
 17
0.0
 27
0.0
 37
0.0
 40
17.91715888998612
 41
1.853676172883504
 42
50.0
 43
0.0
 44
0.0
 50
0.0
 51
0.0
 71
    16
 72
   100
 73
     1
 74
     3
 75
     0
 76
     0
 77
     0
 78
     0
281
     0
 65
     1
110
0.0
120
0.0
130
0.0
111
1.0
121
0.0
131
0.0
112
0.0
122
1.0
132
0.0
 79
     0
146
0.0
  0
ENDTAB
  0
TABLE
  2
LTYPE
  5
9
330
0
100
AcDbSymbolTable
 70
     1
  0
LTYPE
  5
A
330
9
100
AcDbSymbolTableRecord
100
AcDbLinetypeTableRecord
  2
ByBlock
 70
     0
  3

 72
    65
 73
     0
 40
0.0
  0
LTYPE
  5
B
330
9
100
AcDbSymbolTableRecord
100
AcDbLinetypeTableRecord
  2
ByLayer
 70
     0
  3

 72
    65
 73
     0
 40
0.0
  0
LTYPE
  5
8
330
9
100
AcDbSymbolTableRecord
100
AcDbLinetypeTableRecord
  2
Continuous
 70
     0
  3
Solid line
 72
    65
 73
     0
 40
0.0
  0
ENDTAB
  0
TABLE
  2
LAYER
  5
2
330
0
100
AcDbSymbolTable
 70
     2
  0
LAYER
  5
1
330
2
100
AcDbSymbolTableRecord
100
AcDbLayerTableRecord
  2
0
 70
     0
 62
     7
  6
Continuous
370
    -3
390
3
  0
LAYER
  5
4E
330
2
100
AcDbSymbolTableRecord
100
AcDbLayerTableRecord
  2
Layer 1
 70
     0
 62
     7
  6
Continuous
370
    -3
390
3
  0
ENDTAB
  0
TABLE
  2
STYLE
  5
D
330
0
100
AcDbSymbolTable
 70
     1
  0
STYLE
  5
C
330
D
100
AcDbSymbolTableRecord
100
AcDbTextStyleTableRecord
  2
Standard
 70
     0
 40
0.0
 41
1.0
 50
0.0
 71
     0
 42
0.2
  3
txt
  4

  0
ENDTAB
  0
TABLE
  2
VIEW
  5
1D
330
0
100
AcDbSymbolTable
 70
     0
  0
ENDTAB
  0
TABLE
  2
UCS
  5
1E
330
0
100
AcDbSymbolTable
 70
     0
  0
ENDTAB
  0
TABLE
  2
APPID
  5
20
330
0
100
AcDbSymbolTable
 70
     2
  0
APPID
  5
24
330
20
100
AcDbSymbolTableRecord
100
AcDbRegAppTableRecord
  2
ACAD
 70
     0
  0
APPID
  5
CB
330
20
100
AcDbSymbolTableRecord
100
AcDbRegAppTableRecord
  2
ACAD_MLEADERVER
 70
     0
  0
ENDTAB
  0
TABLE
  2
DIMSTYLE
  5
10
330
0
100
AcDbSymbolTable
 70
     1
100
AcDbDimStyleTable
  0
DIMSTYLE
105
F
330
10
100
AcDbSymbolTableRecord
100
AcDbDimStyleTableRecord
  2
Standard
 70
     0
178
     0
340
C
  0
ENDTAB
  0
TABLE
  2
BLOCK_RECORD
  5
13
330
0
100
AcDbSymbolTable
 70
     0
  0
BLOCK_RECORD
  5
14
330
13
100
AcDbSymbolTableRecord
100
AcDbBlockTableRecord
  2
*Model_Space
340
17
  0
BLOCK_RECORD
  5
19
330
13
100
AcDbSymbolTableRecord
100
AcDbBlockTableRecord
  2
*Paper_Space
340
1C
  0
ENDTAB
  0
ENDSEC
  0
SECTION
  2
BLOCKS
  0
BLOCK
  5
15
330
14
100
AcDbEntity
  8
0
100
AcDbBlockBegin
  2
*Model_Space
 70
     0
 10
0.0
 20
0.0
 30
0.0
  3
*Model_Space
  1

  0
ENDBLK
  5
16
330
14
100
AcDbEntity
  8
0
100
AcDbBlockEnd
  0
BLOCK
  5
1A
330
19
100
AcDbEntity
 67
     1
  8
0
100
AcDbBlockBegin
  2
*Paper_Space
 70
     0
 10
0.0
 20
0.0
 30
0.0
  3
*Paper_Space
  1

  0
ENDBLK
  5
1B
330
19
100
AcDbEntity
 67
     1
  8
0
100
AcDbBlockEnd
  0
ENDSEC
  0
SECTION
  2
ENTITIES
  0
SPLINE
  5
4D
330
14
100
AcDbEntity
  8
Layer 1
370
     0
100
AcDbSpline
210
0.0
220
0.0
230
1.0
 70
    11
 71
     3
 72
    32
 73
    28
 74
     0
 42
0.000000001
 43
0.0000000001
 40
0.0
 40
0.0
 40
0.0
 40
0.0
 40
1.0
 40
1.0
 40
1.0
 40
2.0
 40
2.0
 40
2.0
 40
3.0
 40
3.0
 40
3.0
 40
4.0
 40
4.0
 40
4.0
 40
5.0
 40
5.0
 40
5.0
 40
6.0
 40
6.0
 40
6.0
 40
7.0
 40
7.0
 40
7.0
 40
8.0
 40
8.0
 40
8.0
 40
9.0
 40
9.0
 40
9.0
 40
9.0
 10
358.8124909356338
 20
414.714789523423
 30
0.0
 10
358.2636909494977
 20
415.2636895095566
 30
0.0
 10
357.5058909686413
 20
415.6024895009978
 30
0.0
 10
356.6688909897857
 20
415.6024895009978
 30
0.0
 10
355.8320000000003
 20
415.6024895009978
 30
0.0
 10
355.0741910300712
 20
415.2636895095566
 30
0.0
 10
354.5253910439351
 20
414.714789523423
 30
0.0
 10
353.9774910577762
 20
414.1659999999993
 30
0.0
 10
353.638691066335
 20
413.4081895564304
 30
0.0
 10
353.638691066335
 20
412.5722895775471
 30
0.0
 10
353.638691066335
 20
411.7343895987142
 30
0.0
 10
353.9774910577762
 20
410.9765896178578
 30
0.0
 10
354.5253910439351
 20
410.4286896316989
 30
0.0
 10
355.0741910300712
 20
409.8808896455375
 30
0.0
 10
355.8320000000003
 20
409.5409999999993
 30
0.0
 10
356.6688909897857
 20
409.5409999999993
 30
0.0
 10
357.5058909686413
 20
409.5409999999993
 30
0.0
 10
358.2636909494977
 20
409.8808896455375
 30
0.0
 10
358.8124909356338
 20
410.4286896316989
 30
0.0
 10
359.3603909217927
 20
410.9765896178578
 30
0.0
 10
359.6991909132339
 20
411.7343895987142
 30
0.0
 10
359.6991909132339
 20
412.5722895775471
 30
0.0
 10
359.6991909132339
 20
413.4081895564304
 30
0.0
 10
359.3603909217927
 20
414.1659999999993
 30
0.0
 10
358.8124909356338
 20
414.714789523423
 30
0.0
 10
358.8124909356338
 20
414.714789523423
 30
0.0
 10
358.8124909356338
 20
414.714789523423
 30
0.0
 10
358.8124909356338
 20
414.714789523423
 30
0.0
  0
SPLINE
  5
4F
330
14
100
AcDbEntity
  8
Layer 1
370
     0
100
AcDbSpline
210
0.0
220
0.0
230
1.0
 70
    11
 71
     3
 72
    59
 73
    55
 74
     0
 42
0.000000001
 43
0.0000000001
 40
0.0
 40
0.0
 40
0.0
 40
0.0
 40
1.0
 40
1.0
 40
1.0
 40
2.0
 40
2.0
 40
2.0
 40
3.0
 40
3.0
 40
3.0
 40
4.0
 40
4.0
 40
4.0
 40
5.0
 40
5.0
 40
5.0
 40
6.0
 40
6.0
 40
6.0
 40
7.0
 40
7.0
 40
7.0
 40
8.0
 40
8.0
 40
8.0
 40
9.0
 40
9.0
 40
9.0
 40
10.0
 40
10.0
 40
10.0
 40
11.0
 40
11.0
 40
11.0
 40
12.0
 40
12.0
 40
12.0
 40
13.0
 40
13.0
 40
13.0
 40
14.0
 40
14.0
 40
14.0
 40
15.0
 40
15.0
 40
15.0
 40
16.0
 40
16.0
 40
16.0
 40
17.0
 40
17.0
 40
17.0
 40
18.0
 40
18.0
 40
18.0
 40
18.0
 10
354.5087910443544
 20
417.1132894628317
 30
0.0
 10
354.5087910443544
 20
417.1132894628317
 30
0.0
 10
354.5087910443544
 20
417.3485894568876
 30
0.0
 10
354.5087910443544
 20
417.3485894568876
 30
0.0
 10
354.5087910443544
 20
417.3485894568876
 30
0.0
 10
353.640591066287
 20
417.3485894568876
 30
0.0
 10
353.640591066287
 20
417.3485894568876
 30
0.0
 10
353.640591066287
 20
417.3485894568876
 30
0.0
 10
352.2216911021314
 20
416.3261894827156
 30
0.0
 10
352.2216911021314
 20
416.3261894827156
 30
0.0
 10
352.2216911021314
 20
416.3261894827156
 30
0.0
 10
351.8729999999996
 20
416.6757894738839
 30
0.0
 10
351.8729999999996
 20
416.6757894738839
 30
0.0
 10
351.8729999999996
 20
416.6757894738839
 30
0.0
 10
352.7606910885152
 20
417.3485894568876
 30
0.0
 10
352.7606910885152
 20
417.3485894568876
 30
0.0
 10
352.7606910885152
 20
417.3485894568876
 30
0.0
 10
351.1503911291948
 20
417.3485894568876
 30
0.0
 10
351.1503911291948
 20
417.3485894568876
 30
0.0
 10
351.1503911291948
 20
417.3485894568876
 30
0.0
 10
351.1503911291948
 20
415.0820000000003
 30
0.0
 10
351.1503911291948
 20
415.0820000000003
 30
0.0
 10
351.1503911291948
 20
415.0820000000003
 30
0.0
 10
352.16989110344
 20
415.0820000000003
 30
0.0
 10
352.16989110344
 20
415.0820000000003
 30
0.0
 10
352.2362911017626
 20
415.1444895125678
 30
0.0
 10
352.3026911000852
 20
415.2011895111355
 30
0.0
 10
352.375
 20
415.2528895098294
 30
0.0
 10
352.375
 20
415.2528895098294
 30
0.0
 10
352.4081910974201
 20
415.2421895100997
 30
0.0
 10
352.4081910974201
 20
415.2421895100997
 30
0.0
 10
352.6112910922893
 20
415.5624895020082
 30
0.0
 10
352.8476910863174
 20
415.8593894945079
 30
0.0
 10
353.1142910795825
 20
416.1270000000004
 30
0.0
 10
353.1679999999997
 20
416.1796894864165
 30
0.0
 10
353.2226910768441
 20
416.2333894850599
 30
0.0
 10
353.2792910754142
 20
416.2851894837513
 30
0.0
 10
353.2792910754142
 20
416.2851894837513
 30
0.0
 10
353.1874910777333
 20
416.2890894836528
 30
0.0
 10
353.1874910777333
 20
416.2890894836528
 30
0.0
 10
353.1308910791631
 20
416.3612894818289
 30
0.0
 10
353.0741910805955
 20
416.4335894800024
 30
0.0
 10
353.0175910820253
 20
416.5038894782265
 30
0.0
 10
353.4550910709731
 20
416.8153894703573
 30
0.0
 10
353.8788910602671
 20
417.0
 30
0.0
 10
354.2900000000009
 20
417.0409999999993
 30
0.0
 10
354.2900000000009
 20
417.0409999999993
 30
0.0
 10
354.3144910492629
 20
417.0155894652999
 30
0.0
 10
354.3144910492629
 20
417.0155894652999
 30
0.0
 10
354.378891047636
 20
417.0487894644612
 30
0.0
 10
354.4433910460066
 20
417.0810894636452
 30
0.0
 10
354.5087910443544
 20
417.1132894628317
 30
0.0
 10
354.5087910443544
 20
417.1132894628317
 30
0.0
 10
354.5087910443544
 20
417.1132894628317
 30
0.0
 10
354.5087910443544
 20
417.1132894628317
 30
0.0
  0
SPLINE
  5
50
330
14
100
AcDbEntity
  8
Layer 1
370
     0
100
AcDbSpline
210
0.0
220
0.0
230
1.0
 70
    11
 71
     3
 72
    32
 73
    28
 74
     0
 42
0.000000001
 43
0.0000000001
 40
0.0
 40
0.0
 40
0.0
 40
0.0
 40
1.0
 40
1.0
 40
1.0
 40
2.0
 40
2.0
 40
2.0
 40
3.0
 40
3.0
 40
3.0
 40
4.0
 40
4.0
 40
4.0
 40
5.0
 40
5.0
 40
5.0
 40
6.0
 40
6.0
 40
6.0
 40
7.0
 40
7.0
 40
7.0
 40
8.0
 40
8.0
 40
8.0
 40
9.0
 40
9.0
 40
9.0
 40
9.0
 10
358.1376909526807
 20
414.0400000000009
 30
0.0
 10
357.7616909621793
 20
414.4159999999993
 30
0.0
 10
357.2421909753029
 20
414.6483895251004
 30
0.0
 10
356.6688909897857
 20
414.6483895251004
 30
0.0
 10
356.095691004266
 20
414.6483895251004
 30
0.0
 10
355.5761910173896
 20
414.4159999999993
 30
0.0
 10
355.2011910268629
 20
414.0400000000009
 30
0.0
 10
354.8261910363362
 20
413.6650000000009
 30
0.0
 10
354.5927910422324
 20
413.1444895630921
 30
0.0
 10
354.5927910422324
 20
412.5722895775471
 30
0.0
 10
354.5927910422324
 20
411.9979999999996
 30
0.0
 10
354.8261910363362
 20
411.4794896051535
 30
0.0
 10
355.2011910268629
 20
411.1034896146521
 30
0.0
 10
355.5761910173896
 20
410.7284896241254
 30
0.0
 10
356.095691004266
 20
410.4960896299963
 30
0.0
 10
356.6688909897857
 20
410.4960896299963
 30
0.0
 10
357.2421909753029
 20
410.4960896299963
 30
0.0
 10
357.7616909621793
 20
410.7284896241254
 30
0.0
 10
358.1376909526807
 20
411.1034896146521
 30
0.0
 10
358.5136909431822
 20
411.4794896051535
 30
0.0
 10
358.7460909373112
 20
411.9979999999996
 30
0.0
 10
358.7460909373112
 20
412.5722895775471
 30
0.0
 10
358.7460909373112
 20
413.1444895630921
 30
0.0
 10
358.5136909431822
 20
413.6650000000009
 30
0.0
 10
358.1376909526807
 20
414.0400000000009
 30
0.0
 10
358.1376909526807
 20
414.0400000000009
 30
0.0
 10
358.1376909526807
 20
414.0400000000009
 30
0.0
 10
358.1376909526807
 20
414.0400000000009
 30
0.0
  0
SPLINE
  5
51
330
14
100
AcDbEntity
  8
Layer 1
370
     0
100
AcDbSpline
210
0.0
220
0.0
230
1.0
 70
    11
 71
     3
 72
    32
 73
    28
 74
     0
 42
0.000000001
 43
0.0000000001
 40
0.0
 40
0.0
 40
0.0
 40
0.0
 40
1.0
 40
1.0
 40
1.0
 40
2.0
 40
2.0
 40
2.0
 40
3.0
 40
3.0
 40
3.0
 40
4.0
 40
4.0
 40
4.0
 40
5.0
 40
5.0
 40
5.0
 40
6.0
 40
6.0
 40
6.0
 40
7.0
 40
7.0
 40
7.0
 40
8.0
 40
8.0
 40
8.0
 40
9.0
 40
9.0
 40
9.0
 40
9.0
 10
356.6688909897857
 20
415.0507895149349
 30
0.0
 10
355.9843910070776
 20
415.0507895149349
 30
0.0
 10
355.36519102272
 20
414.7733895219426
 30
0.0
 10
354.9179999999997
 20
414.3241895332903
 30
0.0
 10
354.4687910453649
 20
413.8770000000004
 30
0.0
 10
354.1913910523726
 20
413.2558895602779
 30
0.0
 10
354.1913910523726
 20
412.5722895775471
 30
0.0
 10
354.1913910523726
 20
411.8886895948162
 30
0.0
 10
354.4687910453649
 20
411.2675896105065
 30
0.0
 10
354.9179999999997
 20
410.8202896218063
 30
0.0
 10
355.36519102272
 20
410.371089633154
 30
0.0
 10
355.9843910070776
 20
410.0937896401592
 30
0.0
 10
356.6688909897857
 20
410.0937896401592
 30
0.0
 10
357.3524909725165
 20
410.0937896401592
 30
0.0
 10
357.9735909568262
 20
410.371089633154
 30
0.0
 10
358.4218909455012
 20
410.8202896218063
 30
0.0
 10
358.8710909341535
 20
411.2675896105065
 30
0.0
 10
359.147490927171
 20
411.8886895948162
 30
0.0
 10
359.147490927171
 20
412.5722895775471
 30
0.0
 10
359.147490927171
 20
413.2558895602779
 30
0.0
 10
358.8710909341535
 20
413.8770000000004
 30
0.0
 10
358.4218909455012
 20
414.3241895332903
 30
0.0
 10
357.9735909568262
 20
414.7733895219426
 30
0.0
 10
357.3524909725165
 20
415.0507895149349
 30
0.0
 10
356.6688909897857
 20
415.0507895149349
 30
0.0
 10
356.6688909897857
 20
415.0507895149349
 30
0.0
 10
356.6688909897857
 20
415.0507895149349
 30
0.0
 10
356.6688909897857
 20
415.0507895149349
 30
0.0
  0
SPLINE
  5
52
330
14
100
AcDbEntity
  8
Layer 1
370
     0
100
AcDbSpline
210
0.0
220
0.0
230
1.0
 70
    11
 71
     3
 72
    41
 73
    37
 74
     0
 42
0.000000001
 43
0.0000000001
 40
0.0
 40
0.0
 40
0.0
 40
0.0
 40
1.0
 40
1.0
 40
1.0
 40
2.0
 40
2.0
 40
2.0
 40
3.0
 40
3.0
 40
3.0
 40
4.0
 40
4.0
 40
4.0
 40
5.0
 40
5.0
 40
5.0
 40
6.0
 40
6.0
 40
6.0
 40
7.0
 40
7.0
 40
7.0
 40
8.0
 40
8.0
 40
8.0
 40
9.0
 40
9.0
 40
9.0
 40
10.0
 40
10.0
 40
10.0
 40
11.0
 40
11.0
 40
11.0
 40
12.0
 40
12.0
 40
12.0
 40
12.0
 10
369.9979999999996
 20
421.3324893562458
 30
0.0
 10
370.0165906525945
 20
421.5233893514232
 30
0.0
 10
369.9618906539763
 20
421.7201893464517
 30
0.0
 10
369.8290906573311
 20
421.8793893424299
 30
0.0
 10
369.6972906606607
 20
422.0385893384082
 30
0.0
 10
369.5136906652988
 20
422.128889336127
 30
0.0
 10
369.324190670086
 20
422.1459999999997
 30
0.0
 10
369.324190670086
 20
422.1459999999997
 30
0.0
 10
369.3231906701112
 20
422.1450000000004
 30
0.0
 10
369.3231906701112
 20
422.1450000000004
 30
0.0
 10
369.1337906748959
 20
422.1630893352631
 30
0.0
 10
368.9354906799053
 20
422.1073893366702
 30
0.0
 10
368.7772906839018
 20
421.9755893399997
 30
0.0
 10
368.6190906878983
 20
421.8432893433419
 30
0.0
 10
368.5272906902173
 20
421.65968934798
 30
0.0
 10
368.5097906906594
 20
421.4706893527546
 30
0.0
 10
368.5097906906594
 20
421.4706893527546
 30
0.0
 10
368.5097906906594
 20
421.4687893528026
 30
0.0
 10
368.5097906906594
 20
421.4687893528026
 30
0.0
 10
368.492190691104
 20
421.2797893575771
 30
0.0
 10
368.5478906896969
 20
421.0824893625613
 30
0.0
 10
368.6796906863674
 20
420.923289366583
 30
0.0
 10
368.8124906830126
 20
420.7645893705921
 30
0.0
 10
368.9960906783745
 20
420.6747893728607
 30
0.0
 10
369.1854906735898
 20
420.6571893733053
 30
0.0
 10
369.1854906735898
 20
420.6571893733053
 30
0.0
 10
369.1874906735393
 20
420.6566893733179
 30
0.0
 10
369.1874906735393
 20
420.6566893733179
 30
0.0
 10
369.3760000000002
 20
420.6386893737726
 30
0.0
 10
369.5741906637704
 20
420.6942893723681
 30
0.0
 10
369.732390659774
 20
420.8266893690234
 30
0.0
 10
369.8905906557775
 20
420.9594893656686
 30
0.0
 10
369.9804906535064
 20
421.1425893610431
 30
0.0
 10
369.9979999999996
 20
421.3324893562458
 30
0.0
 10
369.9979999999996
 20
421.3324893562458
 30
0.0
 10
369.9979999999996
 20
421.3324893562458
 30
0.0
 10
369.9979999999996
 20
421.3324893562458
 30
0.0
  0
SPLINE
  5
53
330
14
100
AcDbEntity
  8
Layer 1
370
     0
100
AcDbSpline
210
0.0
220
0.0
230
1.0
 70
    11
 71
     3
 72
    41
 73
    37
 74
     0
 42
0.000000001
 43
0.0000000001
 40
0.0
 40
0.0
 40
0.0
 40
0.0
 40
1.0
 40
1.0
 40
1.0
 40
2.0
 40
2.0
 40
2.0
 40
3.0
 40
3.0
 40
3.0
 40
4.0
 40
4.0
 40
4.0
 40
5.0
 40
5.0
 40
5.0
 40
6.0
 40
6.0
 40
6.0
 40
7.0
 40
7.0
 40
7.0
 40
8.0
 40
8.0
 40
8.0
 40
9.0
 40
9.0
 40
9.0
 40
10.0
 40
10.0
 40
10.0
 40
11.0
 40
11.0
 40
11.0
 40
12.0
 40
12.0
 40
12.0
 40
12.0
 10
367.197290723816
 20
419.0020000000004
 30
0.0
 10
367.2147907233739
 20
419.193389410284
 30
0.0
 10
367.1591907247785
 20
419.3905894053023
 30
0.0
 10
367.0272907281105
 20
419.5487894013058
 30
0.0
 10
366.8944907314653
 20
419.7070000000003
 30
0.0
 10
366.7108907361035
 20
419.7987893949903
 30
0.0
 10
366.5224907408628
 20
419.8144893945937
 30
0.0
 10
366.5224907408628
 20
419.8144893945937
 30
0.0
 10
366.5204907409134
 20
419.8144893945937
 30
0.0
 10
366.5204907409134
 20
419.8144893945937
 30
0.0
 10
366.3300907457233
 20
419.8320000000003
 30
0.0
 10
366.1327907507075
 20
419.7772893955334
 30
0.0
 10
365.974590754704
 20
419.6444893988883
 30
0.0
 10
365.8163907587004
 20
419.5116894022431
 30
0.0
 10
365.7255907609942
 20
419.3280894068812
 30
0.0
 10
365.7080000000005
 20
419.1395894116431
 30
0.0
 10
365.7080000000005
 20
419.1395894116431
 30
0.0
 10
365.7080000000005
 20
419.1386894116658
 30
0.0
 10
365.7080000000005
 20
419.1386894116658
 30
0.0
 10
365.6913907618582
 20
418.949189416453
 30
0.0
 10
365.7460907604764
 20
418.7520000000004
 30
0.0
 10
365.8788907571216
 20
418.5937894254312
 30
0.0
 10
366.0097907538147
 20
418.4335894294782
 30
0.0
 10
366.1952907491286
 20
418.3437894317467
 30
0.0
 10
366.3847907443414
 20
418.3270894321686
 30
0.0
 10
366.3847907443414
 20
418.3270894321686
 30
0.0
 10
366.3856907443187
 20
418.3251894322166
 30
0.0
 10
366.3856907443187
 20
418.3251894322166
 30
0.0
 10
366.5741907395568
 20
418.3085894326359
 30
0.0
 10
366.7714907345726
 20
418.3642894312288
 30
0.0
 10
366.9296907305761
 20
418.4960894278993
 30
0.0
 10
367.0897907265316
 20
418.6288894245445
 30
0.0
 10
367.1796907242606
 20
418.8114894199316
 30
0.0
 10
367.197290723816
 20
419.0020000000004
 30
0.0
 10
367.197290723816
 20
419.0020000000004
 30
0.0
 10
367.197290723816
 20
419.0020000000004
 30
0.0
 10
367.197290723816
 20
419.0020000000004
 30
0.0
  0
SPLINE
  5
54
330
14
100
AcDbEntity
  8
Layer 1
370
     0
100
AcDbSpline
210
0.0
220
0.0
230
1.0
 70
    11
 71
     3
 72
    44
 73
    40
 74
     0
 42
0.000000001
 43
0.0000000001
 40
0.0
 40
0.0
 40
0.0
 40
0.0
 40
1.0
 40
1.0
 40
1.0
 40
2.0
 40
2.0
 40
2.0
 40
3.0
 40
3.0
 40
3.0
 40
4.0
 40
4.0
 40
4.0
 40
5.0
 40
5.0
 40
5.0
 40
6.0
 40
6.0
 40
6.0
 40
7.0
 40
7.0
 40
7.0
 40
8.0
 40
8.0
 40
8.0
 40
9.0
 40
9.0
 40
9.0
 40
10.0
 40
10.0
 40
10.0
 40
11.0
 40
11.0
 40
11.0
 40
12.0
 40
12.0
 40
12.0
 40
13.0
 40
13.0
 40
13.0
 40
13.0
 10
367.5722907143427
 20
420.0020000000004
 30
0.0
 10
367.3163907208072
 20
420.3104893820637
 30
0.0
 10
366.9580000000005
 20
420.4843893776706
 30
0.0
 10
366.5858907392612
 20
420.5194893767839
 30
0.0
 10
366.5858907392612
 20
420.5194893767839
 30
0.0
 10
366.5858907392612
 20
420.5200000000004
 30
0.0
 10
366.5858907392612
 20
420.5200000000004
 30
0.0
 10
366.214790748636
 20
420.5546893758947
 30
0.0
 10
365.8310907583291
 20
420.4472893786078
 30
0.0
 10
365.5214907661502
 20
420.1894893851204
 30
0.0
 10
365.2147907738981
 20
419.933589391585
 30
0.0
 10
365.0390907783367
 20
419.5761894006137
 30
0.0
 10
365.0038907792259
 20
419.2050894099884
 30
0.0
 10
365.0038907792259
 20
419.2050894099884
 30
0.0
 10
365.0038907792259
 20
419.203089410039
 30
0.0
 10
365.0038907792259
 20
419.203089410039
 30
0.0
 10
365.0038907792259
 20
419.203089410039
 30
0.0
 10
365.0038907792259
 20
419.203089410039
 30
0.0
 10
365.0038907792259
 20
419.203089410039
 30
0.0
 10
364.9706907800646
 20
418.8310894194365
 30
0.0
 10
365.0780907773515
 20
418.4472894291321
 30
0.0
 10
365.3340000000007
 20
418.14058943688
 30
0.0
 10
365.5897907644248
 20
417.8300894447239
 30
0.0
 10
365.9491907553456
 20
417.6552894491397
 30
0.0
 10
366.3202907459709
 20
417.6210894500036
 30
0.0
 10
366.3202907459709
 20
417.6210894500036
 30
0.0
 10
366.3202907459709
 20
417.6220894499784
 30
0.0
 10
366.3202907459709
 20
417.6220894499784
 30
0.0
 10
366.6913907365961
 20
417.5888894508171
 30
0.0
 10
367.0761907268752
 20
417.6952894481292
 30
0.0
 10
367.3827907191298
 20
417.9511894416646
 30
0.0
 10
367.6933907112834
 20
418.2090000000007
 30
0.0
 10
367.8681907068676
 20
418.5673894260981
 30
0.0
 10
367.9022907060062
 20
418.9374894167486
 30
0.0
 10
367.9364907051422
 20
419.3085894073738
 30
0.0
 10
367.8280907078806
 20
419.6933893976529
 30
0.0
 10
367.5722907143427
 20
420.0020000000004
 30
0.0
 10
367.5722907143427
 20
420.0020000000004
 30
0.0
 10
367.5722907143427
 20
420.0020000000004
 30
0.0
 10
367.5722907143427
 20
420.0020000000004
 30
0.0
  0
SPLINE
  5
55
330
14
100
AcDbEntity
  8
Layer 1
370
     0
100
AcDbSpline
210
0.0
220
0.0
230
1.0
 70
    11
 71
     3
 72
    47
 73
    43
 74
     0
 42
0.000000001
 43
0.0000000001
 40
0.0
 40
0.0
 40
0.0
 40
0.0
 40
1.0
 40
1.0
 40
1.0
 40
2.0
 40
2.0
 40
2.0
 40
3.0
 40
3.0
 40
3.0
 40
4.0
 40
4.0
 40
4.0
 40
5.0
 40
5.0
 40
5.0
 40
6.0
 40
6.0
 40
6.0
 40
7.0
 40
7.0
 40
7.0
 40
8.0
 40
8.0
 40
8.0
 40
9.0
 40
9.0
 40
9.0
 40
10.0
 40
10.0
 40
10.0
 40
11.0
 40
11.0
 40
11.0
 40
12.0
 40
12.0
 40
12.0
 40
13.0
 40
13.0
 40
13.0
 40
14.0
 40
14.0
 40
14.0
 40
14.0
 10
362.3340000000007
 20
416.2802894838751
 30
0.0
 10
362.3340000000007
 20
416.2802894838751
 30
0.0
 10
362.3690908457866
 20
416.0370894900188
 30
0.0
 10
362.3690908457866
 20
416.0370894900188
 30
0.0
 10
362.3983908450464
 20
415.9491894922394
 30
0.0
 10
362.4433908439096
 20
415.8651894943614
 30
0.0
 10
362.5077908422827
 20
415.7890894962839
 30
0.0
 10
362.6395908389532
 20
415.6308895002803
 30
0.0
 10
362.8222908343378
 20
415.5400000000009
 30
0.0
 10
363.0136908295026
 20
415.5224895030187
 30
0.0
 10
363.0136908295026
 20
415.5224895030187
 30
0.0
 10
363.0155908294546
 20
415.521489503044
 30
0.0
 10
363.0155908294546
 20
415.521489503044
 30
0.0
 10
363.2030908247179
 20
415.5038895034886
 30
0.0
 10
363.4003908197337
 20
415.5595895020815
 30
0.0
 10
363.559590815712
 20
415.691389498752
 30
0.0
 10
363.7177908117155
 20
415.8241894953971
 30
0.0
 10
363.8085908094217
 20
416.007789490759
 30
0.0
 10
363.8261908089771
 20
416.1991894859239
 30
0.0
 10
363.8427908085578
 20
416.3886894811367
 30
0.0
 10
363.7880908099396
 20
416.585889476155
 30
0.0
 10
363.6562908132692
 20
416.7440894721585
 30
0.0
 10
363.5233908166265
 20
416.9042894681115
 30
0.0
 10
363.3397908212646
 20
416.994089465843
 30
0.0
 10
363.1503908260493
 20
417.0116894653984
 30
0.0
 10
363.1503908260493
 20
417.0116894653984
 30
0.0
 10
363.1503908260493
 20
417.0106894654236
 30
0.0
 10
363.1503908260493
 20
417.0106894654236
 30
0.0
 10
362.9608908308364
 20
417.028289464979
 30
0.0
 10
362.7626908358434
 20
416.9726894663836
 30
0.0
 10
362.6044908398399
 20
416.8407894697157
 30
0.0
 10
362.4452908438616
 20
416.7090000000007
 30
0.0
 10
362.3544908461554
 20
416.5253894776833
 30
0.0
 10
362.3378908465747
 20
416.3358894824705
 30
0.0
 10
362.3378908465747
 20
416.3358894824705
 30
0.0
 10
362.3358908466253
 20
416.3340000000007
 30
0.0
 10
362.3358908466253
 20
416.3340000000007
 30
0.0
 10
362.3358908466253
 20
416.3163894829631
 30
0.0
 10
362.3340000000007
 20
416.2987894834077
 30
0.0
 10
362.3340000000007
 20
416.2802894838751
 30
0.0
 10
362.3340000000007
 20
416.2802894838751
 30
0.0
 10
362.3340000000007
 20
416.2802894838751
 30
0.0
 10
362.3340000000007
 20
416.2802894838751
 30
0.0
  0
SPLINE
  5
56
330
14
100
AcDbEntity
  8
Layer 1
370
     0
100
AcDbSpline
210
0.0
220
0.0
230
1.0
 70
    11
 71
     3
 72
    32
 73
    28
 74
     0
 42
0.000000001
 43
0.0000000001
 40
0.0
 40
0.0
 40
0.0
 40
0.0
 40
1.0
 40
1.0
 40
1.0
 40
2.0
 40
2.0
 40
2.0
 40
3.0
 40
3.0
 40
3.0
 40
4.0
 40
4.0
 40
4.0
 40
5.0
 40
5.0
 40
5.0
 40
6.0
 40
6.0
 40
6.0
 40
7.0
 40
7.0
 40
7.0
 40
8.0
 40
8.0
 40
8.0
 40
9.0
 40
9.0
 40
9.0
 40
9.0
 10
344.1405913062772
 20
411.5478896034256
 30
0.0
 10
343.8788913128883
 20
411.8104895967917
 30
0.0
 10
343.515591322066
 20
411.9726895926942
 30
0.0
 10
343.1142913322037
 20
411.9726895926942
 30
0.0
 10
342.7128913423439
 20
411.9726895926942
 30
0.0
 10
342.3495913515217
 20
411.8104895967917
 30
0.0
 10
342.086891358158
 20
411.5478896034256
 30
0.0
 10
341.8241913647944
 20
411.2851896100619
 30
0.0
 10
341.6620913688894
 20
410.9218896192397
 30
0.0
 10
341.6620913688894
 20
410.5204896293799
 30
0.0
 10
341.6620913688894
 20
410.1190896395201
 30
0.0
 10
341.8241913647944
 20
409.7558896486953
 30
0.0
 10
342.086891358158
 20
409.4931896553317
 30
0.0
 10
342.3495913515217
 20
409.230489661968
 30
0.0
 10
342.7128913423439
 20
409.068389666063
 30
0.0
 10
343.1142913322037
 20
409.068389666063
 30
0.0
 10
343.515591322066
 20
409.068389666063
 30
0.0
 10
343.8788913128883
 20
409.230489661968
 30
0.0
 10
344.1405913062772
 20
409.4931896553317
 30
0.0
 10
344.4042912996156
 20
409.7558896486953
 30
0.0
 10
344.5673912954953
 20
410.1190896395201
 30
0.0
 10
344.5673912954953
 20
410.5204896293799
 30
0.0
 10
344.5673912954953
 20
410.9218896192397
 30
0.0
 10
344.4042912996156
 20
411.2851896100619
 30
0.0
 10
344.1405913062772
 20
411.5478896034256
 30
0.0
 10
344.1405913062772
 20
411.5478896034256
 30
0.0
 10
344.1405913062772
 20
411.5478896034256
 30
0.0
 10
344.1405913062772
 20
411.5478896034256
 30
0.0
  0
SPLINE
  5
57
330
14
100
AcDbEntity
  8
Layer 1
370
     0
100
AcDbSpline
210
0.0
220
0.0
230
1.0
 70
    11
 71
     3
 72
    32
 73
    28
 74
     0
 42
0.000000001
 43
0.0000000001
 40
0.0
 40
0.0
 40
0.0
 40
0.0
 40
1.0
 40
1.0
 40
1.0
 40
2.0
 40
2.0
 40
2.0
 40
3.0
 40
3.0
 40
3.0
 40
4.0
 40
4.0
 40
4.0
 40
5.0
 40
5.0
 40
5.0
 40
6.0
 40
6.0
 40
6.0
 40
7.0
 40
7.0
 40
7.0
 40
8.0
 40
8.0
 40
8.0
 40
9.0
 40
9.0
 40
9.0
 40
9.0
 10
343.843791313775
 20
411.25
 30
0.0
 10
343.6571913184889
 20
411.4374896062145
 30
0.0
 10
343.3983913250268
 20
411.5517896033271
 30
0.0
 10
343.1142913322037
 20
411.5517896033271
 30
0.0
 10
342.8290913394085
 20
411.5517896033271
 30
0.0
 10
342.5722913458958
 20
411.4374896062145
 30
0.0
 10
342.3847913506324
 20
411.25
 30
0.0
 10
342.1972913553691
 20
411.0634896156625
 30
0.0
 10
342.0820000000003
 20
410.8046896222004
 30
0.0
 10
342.0820000000003
 20
410.5204896293799
 30
0.0
 10
342.0820000000003
 20
410.2343896366074
 30
0.0
 10
342.1972913553691
 20
409.9774896430972
 30
0.0
 10
342.3847913506324
 20
409.7909999999993
 30
0.0
 10
342.5722913458958
 20
409.6034896525452
 30
0.0
 10
342.8290913394085
 20
409.4882896554554
 30
0.0
 10
343.1142913322037
 20
409.4882896554554
 30
0.0
 10
343.3983913250268
 20
409.4882896554554
 30
0.0
 10
343.6571913184889
 20
409.6034896525452
 30
0.0
 10
343.843791313775
 20
409.7909999999993
 30
0.0
 10
344.0312913090384
 20
409.9774896430972
 30
0.0
 10
344.1454913061534
 20
410.2343896366074
 30
0.0
 10
344.1454913061534
 20
410.5204896293799
 30
0.0
 10
344.1454913061534
 20
410.8046896222004
 30
0.0
 10
344.0312913090384
 20
411.0634896156625
 30
0.0
 10
343.843791313775
 20
411.25
 30
0.0
 10
343.843791313775
 20
411.25
 30
0.0
 10
343.843791313775
 20
411.25
 30
0.0
 10
343.843791313775
 20
411.25
 30
0.0
  0
SPLINE
  5
58
330
14
100
AcDbEntity
  8
Layer 1
370
     0
100
AcDbSpline
210
0.0
220
0.0
230
1.0
 70
    11
 71
     3
 72
    32
 73
    28
 74
     0
 42
0.000000001
 43
0.0000000001
 40
0.0
 40
0.0
 40
0.0
 40
0.0
 40
1.0
 40
1.0
 40
1.0
 40
2.0
 40
2.0
 40
2.0
 40
3.0
 40
3.0
 40
3.0
 40
4.0
 40
4.0
 40
4.0
 40
5.0
 40
5.0
 40
5.0
 40
6.0
 40
6.0
 40
6.0
 40
7.0
 40
7.0
 40
7.0
 40
8.0
 40
8.0
 40
8.0
 40
9.0
 40
9.0
 40
9.0
 40
9.0
 10
343.1142913322037
 20
411.7520000000004
 30
0.0
 10
342.7743913407903
 20
411.7520000000004
 30
0.0
 10
342.4657913485862
 20
411.6132896017734
 30
0.0
 10
342.2440913541868
 20
411.391589607374
 30
0.0
 10
342.0214913598102
 20
411.1679999999997
 30
0.0
 10
341.882791363314
 20
410.8603896207933
 30
0.0
 10
341.882791363314
 20
410.5204896293799
 30
0.0
 10
341.882791363314
 20
410.1796896379892
 30
0.0
 10
342.0214913598102
 20
409.8729999999996
 30
0.0
 10
342.2440913541868
 20
409.6493896513857
 30
0.0
 10
342.4657913485862
 20
409.4276896569863
 30
0.0
 10
342.7743913407903
 20
409.2890896604877
 30
0.0
 10
343.1142913322037
 20
409.2890896604877
 30
0.0
 10
343.4540913236197
 20
409.2890896604877
 30
0.0
 10
343.761691315849
 20
409.4276896569863
 30
0.0
 10
343.9853913101979
 20
409.6493896513857
 30
0.0
 10
344.2070000000003
 20
409.8729999999996
 30
0.0
 10
344.3456913010959
 20
410.1796896379892
 30
0.0
 10
344.3456913010959
 20
410.5204896293799
 30
0.0
 10
344.3456913010959
 20
410.8603896207933
 30
0.0
 10
344.2070000000003
 20
411.1679999999997
 30
0.0
 10
343.9853913101979
 20
411.391589607374
 30
0.0
 10
343.761691315849
 20
411.6132896017734
 30
0.0
 10
343.4540913236197
 20
411.7520000000004
 30
0.0
 10
343.1142913322037
 20
411.7520000000004
 30
0.0
 10
343.1142913322037
 20
411.7520000000004
 30
0.0
 10
343.1142913322037
 20
411.7520000000004
 30
0.0
 10
343.1142913322037
 20
411.7520000000004
 30
0.0
  0
SPLINE
  5
59
330
14
100
AcDbEntity
  8
Layer 1
370
     0
100
AcDbSpline
210
0.0
220
0.0
230
1.0
 70
    11
 71
     3
 72
    56
 73
    52
 74
     0
 42
0.000000001
 43
0.0000000001
 40
0.0
 40
0.0
 40
0.0
 40
0.0
 40
1.0
 40
1.0
 40
1.0
 40
2.0
 40
2.0
 40
2.0
 40
3.0
 40
3.0
 40
3.0
 40
4.0
 40
4.0
 40
4.0
 40
5.0
 40
5.0
 40
5.0
 40
6.0
 40
6.0
 40
6.0
 40
7.0
 40
7.0
 40
7.0
 40
8.0
 40
8.0
 40
8.0
 40
9.0
 40
9.0
 40
9.0
 40
10.0
 40
10.0
 40
10.0
 40
11.0
 40
11.0
 40
11.0
 40
12.0
 40
12.0
 40
12.0
 40
13.0
 40
13.0
 40
13.0
 40
14.0
 40
14.0
 40
14.0
 40
15.0
 40
15.0
 40
15.0
 40
16.0
 40
16.0
 40
16.0
 40
17.0
 40
17.0
 40
17.0
 40
17.0
 10
343.1229999999996
 20
413.4706895548516
 30
0.0
 10
343.2099999999991
 20
413.4706895548516
 30
0.0
 10
343.2948913276414
 20
413.4667895549501
 30
0.0
 10
343.3808913254688
 20
413.4590000000007
 30
0.0
 10
343.3808913254688
 20
413.4590000000007
 30
0.0
 10
343.2938913276666
 20
413.5624895525325
 30
0.0
 10
343.2938913276666
 20
413.5624895525325
 30
0.0
 10
343.3026913274443
 20
413.6122895512744
 30
0.0
 10
343.30959132727
 20
413.6630895499911
 30
0.0
 10
343.3183913270477
 20
413.7128895487331
 30
0.0
 10
343.6132913195979
 20
413.652289550264
 30
0.0
 10
343.8495913136285
 20
413.5487895528786
 30
0.0
 10
344.0233913092379
 20
413.3954895567513
 30
0.0
 10
344.0233913092379
 20
413.3954895567513
 30
0.0
 10
344.0204913093112
 20
413.3280895584539
 30
0.0
 10
344.0204913093112
 20
413.3280895584539
 30
0.0
 10
344.1972913048448
 20
413.2714895598838
 30
0.0
 10
344.3671913005528
 20
413.1972895617582
 30
0.0
 10
344.5272912965083
 20
413.1112895639308
 30
0.0
 10
344.5272912965083
 20
413.1112895639308
 30
0.0
 10
344.7099999999991
 20
413.1112895639308
 30
0.0
 10
344.7099999999991
 20
413.1112895639308
 30
0.0
 10
344.7099999999991
 20
413.1112895639308
 30
0.0
 10
344.7099999999991
 20
415.7450894973954
 30
0.0
 10
344.7099999999991
 20
415.7450894973954
 30
0.0
 10
344.7099999999991
 20
415.7450894973954
 30
0.0
 10
344.7099999999991
 20
416.1190894879473
 30
0.0
 10
344.7099999999991
 20
416.1190894879473
 30
0.0
 10
344.7099999999991
 20
416.1190894879473
 30
0.0
 10
345.0840000000007
 20
416.1190894879473
 30
0.0
 10
345.0840000000007
 20
416.1190894879473
 30
0.0
 10
345.0840000000007
 20
416.1190894879473
 30
0.0
 10
350.0116911579607
 20
416.1190894879473
 30
0.0
 10
350.0116911579607
 20
416.1190894879473
 30
0.0
 10
350.0116911579607
 20
416.1190894879473
 30
0.0
 10
350.0820000000003
 20
416.7714894714663
 30
0.0
 10
350.0820000000003
 20
416.7714894714663
 30
0.0
 10
350.0820000000003
 20
416.7714894714663
 30
0.0
 10
350.0820000000003
 20
417.3808894560716
 30
0.0
 10
350.0820000000003
 20
417.3808894560716
 30
0.0
 10
350.0820000000003
 20
417.3808894560716
 30
0.0
 10
342.5097913474747
 20
417.3808894560716
 30
0.0
 10
342.5097913474747
 20
417.3808894560716
 30
0.0
 10
342.5097913474747
 20
417.3808894560716
 30
0.0
 10
342.5097913474747
 20
416.6874894735884
 30
0.0
 10
342.5097913474747
 20
416.6874894735884
 30
0.0
 10
342.5097913474747
 20
416.6874894735884
 30
0.0
 10
343.1229999999996
 20
413.4706895548516
 30
0.0
 10
343.1229999999996
 20
413.4706895548516
 30
0.0
 10
343.1229999999996
 20
413.4706895548516
 30
0.0
 10
343.1229999999996
 20
413.4706895548516
 30
0.0
 10
343.1229999999996
 20
413.4706895548516
 30
0.0
  0
HATCH
  5
5A
330
14
100
AcDbEntity
  8
Layer 1
 62
     7
100
AcDbHatch
 10
0.0
 20
0.0
 30
0.0
210
0.0
220
0.0
230
1.0
  2
SOLID
 70
     1
 71
     0
 91
       17
 92
        1
 93
        1
 72
     4
 94
        3
 73
     0
 74
     1
 95
      527
 96
      523
 40
0.0
 40
0.0
 40
0.0
 40
0.0
 40
1.0
 40
1.0
 40
1.0
 40
2.0
 40
2.0
 40
2.0
 40
3.0
 40
3.0
 40
3.0
 40
4.0
 40
4.0
 40
4.0
 40
5.0
 40
5.0
 40
5.0
 40
6.0
 40
6.0
 40
6.0
 40
7.0
 40
7.0
 40
7.0
 40
8.0
 40
8.0
 40
8.0
 40
9.0
 40
9.0
 40
9.0
 40
10.0
 40
10.0
 40
10.0
 40
11.0
 40
11.0
 40
11.0
 40
12.0
 40
12.0
 40
12.0
 40
13.0
 40
13.0
 40
13.0
 40
14.0
 40
14.0
 40
14.0
 40
15.0
 40
15.0
 40
15.0
 40
16.0
 40
16.0
 40
16.0
 40
17.0
 40
17.0
 40
17.0
 40
18.0
 40
18.0
 40
18.0
 40
19.0
 40
19.0
 40
19.0
 40
20.0
 40
20.0
 40
20.0
 40
21.0
 40
21.0
 40
21.0
 40
22.0
 40
22.0
 40
22.0
 40
23.0
 40
23.0
 40
23.0
 40
24.0
 40
24.0
 40
24.0
 40
25.0
 40
25.0
 40
25.0
 40
26.0
 40
26.0
 40
26.0
 40
27.0
 40
27.0
 40
27.0
 40
28.0
 40
28.0
 40
28.0
 40
29.0
 40
29.0
 40
29.0
 40
30.0
 40
30.0
 40
30.0
 40
31.0
 40
31.0
 40
31.0
 40
32.0
 40
32.0
 40
32.0
 40
33.0
 40
33.0
 40
33.0
 40
34.0
 40
34.0
 40
34.0
 40
35.0
 40
35.0
 40
35.0
 40
36.0
 40
36.0
 40
36.0
 40
37.0
 40
37.0
 40
37.0
 40
38.0
 40
38.0
 40
38.0
 40
39.0
 40
39.0
 40
39.0
 40
40.0
 40
40.0
 40
40.0
 40
41.0
 40
41.0
 40
41.0
 40
42.0
 40
42.0
 40
42.0
 40
43.0
 40
43.0
 40
43.0
 40
44.0
 40
44.0
 40
44.0
 40
45.0
 40
45.0
 40
45.0
 40
46.0
 40
46.0
 40
46.0
 40
47.0
 40
47.0
 40
47.0
 40
48.0
 40
48.0
 40
48.0
 40
49.0
 40
49.0
 40
49.0
 40
50.0
 40
50.0
 40
50.0
 40
51.0
 40
51.0
 40
51.0
 40
52.0
 40
52.0
 40
52.0
 40
53.0
 40
53.0
 40
53.0
 40
54.0
 40
54.0
 40
54.0
 40
55.0
 40
55.0
 40
55.0
 40
56.0
 40
56.0
 40
56.0
 40
57.0
 40
57.0
 40
57.0
 40
58.0
 40
58.0
 40
58.0
 40
59.0
 40
59.0
 40
59.0
 40
60.0
 40
60.0
 40
60.0
 40
61.0
 40
61.0
 40
61.0
 40
62.0
 40
62.0
 40
62.0
 40
63.0
 40
63.0
 40
63.0
 40
64.0
 40
64.0
 40
64.0
 40
65.0
 40
65.0
 40
65.0
 40
66.0
 40
66.0
 40
66.0
 40
67.0
 40
67.0
 40
67.0
 40
68.0
 40
68.0
 40
68.0
 40
69.0
 40
69.0
 40
69.0
 40
70.0
 40
70.0
 40
70.0
 40
71.0
 40
71.0
 40
71.0
 40
72.0
 40
72.0
 40
72.0
 40
73.0
 40
73.0
 40
73.0
 40
74.0
 40
74.0
 40
74.0
 40
75.0
 40
75.0
 40
75.0
 40
76.0
 40
76.0
 40
76.0
 40
77.0
 40
77.0
 40
77.0
 40
78.0
 40
78.0
 40
78.0
 40
79.0
 40
79.0
 40
79.0
 40
80.0
 40
80.0
 40
80.0
 40
81.0
 40
81.0
 40
81.0
 40
82.0
 40
82.0
 40
82.0
 40
83.0
 40
83.0
 40
83.0
 40
84.0
 40
84.0
 40
84.0
 40
85.0
 40
85.0
 40
85.0
 40
86.0
 40
86.0
 40
86.0
 40
87.0
 40
87.0
 40
87.0
 40
88.0
 40
88.0
 40
88.0
 40
89.0
 40
89.0
 40
89.0
 40
90.0
 40
90.0
 40
90.0
 40
91.0
 40
91.0
 40
91.0
 40
92.0
 40
92.0
 40
92.0
 40
93.0
 40
93.0
 40
93.0
 40
94.0
 40
94.0
 40
94.0
 40
95.0
 40
95.0
 40
95.0
 40
96.0
 40
96.0
 40
96.0
 40
97.0
 40
97.0
 40
97.0
 40
98.0
 40
98.0
 40
98.0
 40
99.0
 40
99.0
 40
99.0
 40
100.0
 40
100.0
 40
100.0
 40
101.0
 40
101.0
 40
101.0
 40
102.0
 40
102.0
 40
102.0
 40
103.0
 40
103.0
 40
103.0
 40
104.0
 40
104.0
 40
104.0
 40
105.0
 40
105.0
 40
105.0
 40
106.0
 40
106.0
 40
106.0
 40
107.0
 40
107.0
 40
107.0
 40
108.0
 40
108.0
 40
108.0
 40
109.0
 40
109.0
 40
109.0
 40
110.0
 40
110.0
 40
110.0
 40
111.0
 40
111.0
 40
111.0
 40
112.0
 40
112.0
 40
112.0
 40
113.0
 40
113.0
 40
113.0
 40
114.0
 40
114.0
 40
114.0
 40
115.0
 40
115.0
 40
115.0
 40
116.0
 40
116.0
 40
116.0
 40
117.0
 40
117.0
 40
117.0
 40
118.0
 40
118.0
 40
118.0
 40
119.0
 40
119.0
 40
119.0
 40
120.0
 40
120.0
 40
120.0
 40
121.0
 40
121.0
 40
121.0
 40
122.0
 40
122.0
 40
122.0
 40
123.0
 40
123.0
 40
123.0
 40
124.0
 40
124.0
 40
124.0
 40
125.0
 40
125.0
 40
125.0
 40
126.0
 40
126.0
 40
126.0
 40
127.0
 40
127.0
 40
127.0
 40
128.0
 40
128.0
 40
128.0
 40
129.0
 40
129.0
 40
129.0
 40
130.0
 40
130.0
 40
130.0
 40
131.0
 40
131.0
 40
131.0
 40
132.0
 40
132.0
 40
132.0
 40
133.0
 40
133.0
 40
133.0
 40
134.0
 40
134.0
 40
134.0
 40
135.0
 40
135.0
 40
135.0
 40
136.0
 40
136.0
 40
136.0
 40
137.0
 40
137.0
 40
137.0
 40
138.0
 40
138.0
 40
138.0
 40
139.0
 40
139.0
 40
139.0
 40
140.0
 40
140.0
 40
140.0
 40
141.0
 40
141.0
 40
141.0
 40
142.0
 40
142.0
 40
142.0
 40
143.0
 40
143.0
 40
143.0
 40
144.0
 40
144.0
 40
144.0
 40
145.0
 40
145.0
 40
145.0
 40
146.0
 40
146.0
 40
146.0
 40
147.0
 40
147.0
 40
147.0
 40
148.0
 40
148.0
 40
148.0
 40
149.0
 40
149.0
 40
149.0
 40
150.0
 40
150.0
 40
150.0
 40
151.0
 40
151.0
 40
151.0
 40
152.0
 40
152.0
 40
152.0
 40
153.0
 40
153.0
 40
153.0
 40
154.0
 40
154.0
 40
154.0
 40
155.0
 40
155.0
 40
155.0
 40
156.0
 40
156.0
 40
156.0
 40
157.0
 40
157.0
 40
157.0
 40
158.0
 40
158.0
 40
158.0
 40
159.0
 40
159.0
 40
159.0
 40
160.0
 40
160.0
 40
160.0
 40
161.0
 40
161.0
 40
161.0
 40
162.0
 40
162.0
 40
162.0
 40
163.0
 40
163.0
 40
163.0
 40
164.0
 40
164.0
 40
164.0
 40
165.0
 40
165.0
 40
165.0
 40
166.0
 40
166.0
 40
166.0
 40
167.0
 40
167.0
 40
167.0
 40
168.0
 40
168.0
 40
168.0
 40
169.0
 40
169.0
 40
169.0
 40
170.0
 40
170.0
 40
170.0
 40
171.0
 40
171.0
 40
171.0
 40
172.0
 40
172.0
 40
172.0
 40
173.0
 40
173.0
 40
173.0
 40
174.0
 40
174.0
 40
174.0
 40
174.0
 10
342.1337913569732
 20
418.1288894371755
 10
342.1337913569732
 20
418.1288894371755
 10
350.2284911524839
 20
418.1288894371755
 10
350.2284911524839
 20
418.1288894371755
 10
350.2284911524839
 20
418.1288894371755
 10
350.8085911378294
 20
423.5238893008864
 10
350.8085911378294
 20
423.5238893008864
 10
350.8085911378294
 20
423.5238893008864
 10
350.4257911474997
 20
423.5238893008864
 10
350.4257911474997
 20
423.5238893008864
 10
350.4257911474997
 20
423.5238893008864
 10
350.4257911474997
 20
424.3895892790169
 10
350.4257911474997
 20
424.3895892790169
 10
350.4257911474997
 20
424.3895892790169
 10
353.5087910696166
 20
424.8886892664086
 10
353.5087910696166
 20
424.8886892664086
 10
353.5087910696166
 20
424.8886892664086
 10
359.59959091575
 20
424.8886892664086
 10
359.59959091575
 20
424.8886892664086
 10
359.59959091575
 20
424.8886892664086
 10
359.8495909094345
 20
423.5238893008864
 10
359.8495909094345
 20
423.5238893008864
 10
359.8495909094345
 20
423.5238893008864
 10
359.6366909148128
 20
423.5238893008864
 10
359.6366909148128
 20
423.5238893008864
 10
359.6366909148128
 20
423.5238893008864
 10
359.6708909139488
 20
423.0414893130728
 10
359.6708909139488
 20
423.0414893130728
 10
359.6708909139488
 20
423.0414893130728
 10
359.8144909103212
 20
422.0360893384714
 10
359.8144909103212
 20
422.0360893384714
 10
359.8144909103212
 20
422.0360893384714
 10
361.5
 20
421.8617893428745
 10
361.5
 20
421.8617893428745
 10
361.5
 20
421.8617893428745
 10
361.8729999999996
 20
419.3671894058934
 10
361.8729999999996
 20
419.3671894058934
 10
361.8729999999996
 20
419.3671894058934
 10
361.8690908584176
 20
420.0136893895615
 10
361.8690908584176
 20
420.0136893895615
 10
362.0663908534334
 20
419.9062893922746
 10
362.2655908484012
 20
419.8007893949398
 10
362.462890843417
 20
419.6952893976049
 10
362.462890843417
 20
419.6952893976049
 10
362.4472908438111
 20
419.3983894051053
 10
362.4472908438111
 20
419.3983894051053
 10
362.4472908438111
 20
419.3983894051053
 10
363.3202908217572
 20
420.0370893889703
 10
363.3202908217572
 20
420.0370893889703
 10
363.3202908217572
 20
420.0370893889703
 10
363.3144908219037
 20
421.0546893632636
 10
363.3144908219037
 20
421.0546893632636
 10
363.5136908168715
 20
420.948189365954
 10
363.7108908118898
 20
420.8417893686419
 10
363.9081908069056
 20
420.7353893713298
 10
363.9081908069056
 20
420.7353893713298
 10
363.8944908072517
 20
420.4550893784108
 10
363.8944908072517
 20
420.4550893784108
 10
363.8944908072517
 20
420.4550893784108
 10
364.7675907851954
 20
421.0917893623264
 10
364.7675907851954
 20
421.0917893623264
 10
364.7675907851954
 20
421.0917893623264
 10
364.7616907853444
 20
422.0951893369784
 10
364.7616907853444
 20
422.0951893369784
 10
364.9590000000007
 20
421.9887893396663
 10
365.156290775376
 20
421.8817893423693
 10
365.3554907703437
 20
421.7763893450319
 10
365.3554907703437
 20
421.7763893450319
 10
365.3417907706898
 20
421.5111893517314
 10
365.3417907706898
 20
421.5111893517314
 10
365.3417907706898
 20
421.5111893517314
 10
366.2118907487093
 20
422.1478893356471
 10
366.2118907487093
 20
422.1478893356471
 10
366.2118907487093
 20
422.1478893356471
 10
366.2070000000003
 20
423.1366893106679
 10
366.2070000000003
 20
423.1366893106679
 10
366.4042907438488
 20
423.0302893133558
 10
366.6034907388166
 20
422.9237893160462
 10
366.8007907338324
 20
422.8168893187467
 10
366.8007907338324
 20
422.8168893187467
 10
366.789090734128
 20
422.5683893250243
 10
366.789090734128
 20
422.5683893250243
 10
366.789090734128
 20
422.5683893250243
 10
367.6581907121727
 20
423.2035893089778
 10
367.6581907121727
 20
423.2035893089778
 10
367.6581907121727
 20
423.2035893089778
 10
367.6522907123217
 20
424.1771892843826
 10
367.6522907123217
 20
424.1771892843826
 10
367.6522907123217
 20
424.1771892843826
 10
368.2460906973211
 20
423.8583892924362
 10
368.2460906973211
 20
423.8583892924362
 10
368.2460906973211
 20
423.8583892924362
 10
368.2323906976671
 20
423.582489299406
 10
368.2323906976671
 20
423.582489299406
 10
368.4198906929305
 20
423.6767892970238
 10
368.6132906880448
 20
423.7489999999998
 10
368.8104906830631
 20
423.7963892940024
 10
368.8104906830631
 20
423.7963892940024
 10
369.4706906663851
 20
424.6820892716278
 10
369.4706906663851
 20
424.6820892716278
 10
369.4706906663851
 20
424.6820892716278
 10
369.7520000000004
 20
424.0683892871311
 10
369.7520000000004
 20
424.0683892871311
 10
369.7520000000004
 20
424.0683892871311
 10
369.5790906636466
 20
423.8607892923756
 10
369.5790906636466
 20
423.8607892923756
 10
369.5790906636466
 20
423.8607892923756
 10
369.625
 20
423.8573892924614
 10
369.625
 20
423.8573892924614
 10
369.7567906591576
 20
423.8451892927696
 10
369.8876906558507
 20
423.8231892933254
 10
370.0155906526197
 20
423.7885892941995
 10
370.0155906526197
 20
423.7885892941995
 10
371.0663906260743
 20
424.2230892832231
 10
371.0663906260743
 20
424.2230892832231
 10
371.0663906260743
 20
424.2230892832231
 10
370.9960906278502
 20
423.5536893001336
 10
370.9960906278502
 20
423.5536893001336
 10
370.9960906278502
 20
423.5536893001336
 10
370.7304906345598
 20
423.46
 10
370.7304906345598
 20
423.46
 10
370.8964906303663
 20
423.3451893054007
 10
371.0507906264684
 20
423.2040893089652
 10
371.187490623015
 20
423.0395893131208
 10
371.187490623015
 20
423.0395893131208
 10
371.187490623015
 20
423.0395893131208
 10
371.187490623015
 20
423.0395893131208
 10
371.187490623015
 20
423.0395893131208
 10
371.2147906223254
 20
423.006289313962
 10
371.2147906223254
 20
423.006289313962
 10
371.2147906223254
 20
423.006289313962
 10
372.2675905957294
 20
422.789089319449
 10
372.2675905957294
 20
422.789089319449
 10
372.2675905957294
 20
422.789089319449
 10
371.8320000000003
 20
422.273889332464
 10
371.8320000000003
 20
422.273889332464
 10
371.8320000000003
 20
422.273889332464
 10
371.5878906129001
 20
422.338889330822
 10
371.5878906129001
 20
422.338889330822
 10
371.6483906113717
 20
422.1684893351267
 10
371.687490610384
 20
421.9931893395551
 10
371.7050906099394
 20
421.8163893440214
 10
371.7050906099394
 20
421.8163893440214
 10
372.496090589957
 20
421.29
 10
372.496090589957
 20
421.29
 10
372.496090589957
 20
421.29
 10
371.9003906050057
 20
420.9760893652492
 10
371.9003906050057
 20
420.9760893652492
 10
371.9003906050057
 20
420.9760893652492
 10
371.6786906106063
 20
421.141089361081
 10
371.6786906106063
 20
421.141089361081
 10
371.6386906116168
 20
420.9193893666816
 10
371.567390613418
 20
420.7016893721811
 10
371.4667906159593
 20
420.4940893774256
 10
371.4667906159593
 20
420.4940893774256
 10
371.8866906053518
 20
419.7401893964707
 10
371.8866906053518
 20
419.7401893964707
 10
371.8866906053518
 20
419.7401893964707
 10
371.2128906223734
 20
419.7333893966425
 10
371.2128906223734
 20
419.7333893966425
 10
371.2128906223734
 20
419.7333893966425
 10
371.109390624988
 20
419.9452893912894
 10
371.109390624988
 20
419.9452893912894
 10
371.0438906266427
 20
419.8661893932876
 10
370.9735906284186
 20
419.7909999999993
 10
370.8974906303411
 20
419.7196893969885
 10
370.8974906303411
 20
419.7196893969885
 10
370.5526906390514
 20
419.3935894052265
 10
370.5526906390514
 20
419.3935894052265
 10
370.5526906390514
 20
419.3935894052265
 10
370.9540906289112
 20
418.6728894234329
 10
370.9540906289112
 20
418.6728894234329
 10
370.9540906289112
 20
418.6728894234329
 10
370.2792906459581
 20
418.6669999999995
 10
370.2792906459581
 20
418.6669999999995
 10
370.2792906459581
 20
418.6669999999995
 10
370.1229999999996
 20
418.9882894154653
 10
370.1229999999996
 20
418.9882894154653
 10
370.1229999999996
 20
418.9882894154653
 10
369.4735906663118
 20
418.375
 10
369.4735906663118
 20
418.375
 10
369.4735906663118
 20
418.375
 10
369.8710906562701
 20
417.6591894490412
 10
369.8710906562701
 20
417.6591894490412
 10
369.646490661944
 20
417.6562894491144
 10
369.4218906676178
 20
417.6542894491649
 10
369.1972906732917
 20
417.6522894492155
 10
369.1972906732917
 20
417.6522894492155
 10
369.0429999999997
 20
417.96878944122
 10
369.0429999999997
 20
417.96878944122
 10
369.0429999999997
 20
417.96878944122
 10
368.3944906935722
 20
417.3544894567385
 10
368.3944906935722
 20
417.3544894567385
 10
368.3944906935722
 20
417.3544894567385
 10
368.7890906836037
 20
416.6444894746746
 10
368.7890906836037
 20
416.6444894746746
 10
368.5644906892776
 20
416.6425894747226
 10
368.339790694954
 20
416.6395894747984
 10
368.1142907006506
 20
416.6386894748211
 10
368.1142907006506
 20
416.6386894748211
 10
367.9647907044273
 20
416.9491894669773
 10
367.9647907044273
 20
416.9491894669773
 10
367.9647907044273
 20
416.9491894669773
 10
367.3144907208552
 20
416.3349999999991
 10
367.3144907208552
 20
416.3349999999991
 10
367.3144907208552
 20
416.3349999999991
 10
367.7050907109879
 20
415.6308895002803
 10
367.7050907109879
 20
415.6308895002803
 10
367.481390716639
 20
415.6278895003561
 10
367.2558907223356
 20
415.6270000000004
 10
367.0321907279867
 20
415.6229999999996
 10
367.0321907279867
 20
415.6229999999996
 10
366.8837907317356
 20
415.9276894927825
 10
366.8837907317356
 20
415.9276894927825
 10
366.8837907317356
 20
415.9276894927825
 10
366.2343907481409
 20
415.3144895082733
 10
366.2343907481409
 20
415.3144895082733
 10
366.2343907481409
 20
415.3144895082733
 10
366.6229999999996
 20
414.6151895259391
 10
366.6229999999996
 20
414.6151895259391
 10
366.3983907439979
 20
414.6132895259871
 10
366.1737907496718
 20
414.6112895260376
 10
365.9491907553456
 20
414.6093895260856
 10
365.9491907553456
 20
414.6093895260856
 10
365.804690758996
 20
414.9081895185373
 10
365.804690758996
 20
414.9081895185373
 10
365.804690758996
 20
414.9081895185373
 10
365.1542907754265
 20
414.2948895340305
 10
365.1542907754265
 20
414.2948895340305
 10
365.1542907754265
 20
414.2948895340305
 10
365.5409999999993
 20
413.6015895515447
 10
365.5409999999993
 20
413.6015895515447
 10
365.5409999999993
 20
413.6015895515447
 10
364.8661907827045
 20
413.5956895516938
 10
364.8661907827045
 20
413.5956895516938
 10
364.8661907827045
 20
413.5956895516938
 10
364.7245907862816
 20
413.888689544292
 10
364.7245907862816
 20
413.888689544292
 10
364.7245907862816
 20
413.888689544292
 10
364.2714907977279
 20
413.4608895550991
 10
364.2714907977279
 20
413.4608895550991
 10
364.2440907984201
 20
413.4354895557408
 10
364.2206907990112
 20
413.4140895562814
 10
364.2011907995038
 20
413.398389556678
 10
363.7099999999991
 20
412.988289567038
 10
363.0136908295026
 20
412.9403895682481
 10
362.3378908465747
 20
413.1132895638802
 10
362.1952908501771
 20
413.150389562943
 10
362.0536908537542
 20
413.1962895617835
 10
361.9159999999993
 20
413.25
 10
361.9022908575789
 20
412.9315895684704
 10
361.8407908591325
 20
412.6464895756726
 10
361.7284908619695
 20
412.3983895819401
 10
361.7284908619695
 20
412.3983895819401
 10
361.6933908628562
 20
412.3886895821852
 10
361.6933908628562
 20
412.3886895821852
 10
361.6767908632755
 20
411.9237895939295
 10
361.5976908652738
 20
411.475589605252
 10
361.4628908686791
 20
411.0526896159354
 10
361.4628908686791
 20
411.0526896159354
 10
361.5429999999997
 20
411.0927896149224
 10
361.5429999999997
 20
411.0927896149224
 10
361.6288908644856
 20
411.0595896157611
 10
361.7128908623636
 20
411.025389616625
 10
361.7968908602415
 20
410.9921896174637
 10
361.5741908658674
 20
410.504889629774
 10
361.2987908728246
 20
410.1317896391993
 10
360.9647908812622
 20
409.8905896452925
 10
360.9647908812622
 20
409.8905896452925
 10
360.9296908821489
 20
409.9013896450197
 10
360.9296908821489
 20
409.9013896450197
 10
360.7265908872796
 20
409.5800896531364
 10
360.4911908932263
 20
409.2831896606367
 10
360.2245908999612
 20
409.0175896673463
 10
360.169890901343
 20
408.9628896687282
 10
360.1151909027249
 20
408.9101896700595
 10
360.0585909041547
 20
408.8593896713428
 10
360.0585909041547
 20
408.8593896713428
 10
360.1503909018356
 20
408.8534896714918
 10
360.1503909018356
 20
408.8534896714918
 10
360.2070000000003
 20
408.782189673293
 10
360.2636908989734
 20
408.7108896750942
 10
360.3202908975436
 20
408.6386896769181
 10
359.8827909085958
 20
408.3290896847393
 10
359.4590000000007
 20
408.1444896894027
 10
359.0487909296644
 20
408.1034896904384
 10
359.0487909296644
 20
408.1034896904384
 10
359.023390930306
 20
408.1288896897968
 10
359.023390930306
 20
408.1288896897968
 10
358.6270000000004
 20
407.9188896951018
 10
358.1991909511271
 20
407.759789699121
 10
357.75
 20
407.6610897016144
 10
357.75
 20
407.6610897016144
 10
357.8251909605751
 20
407.6112897028725
 10
357.8251909605751
 20
407.6112897028725
 10
357.8378909602543
 20
407.521489705141
 10
357.8515909599082
 20
407.4306897074348
 10
357.8642909595874
 20
407.3407897097059
 10
357.3300909730824
 20
407.2909999999993
 10
356.8710909846777
 20
407.3437897096301
 10
356.4950909941763
 20
407.5116897053886
 10
356.4950909941763
 20
407.5116897053886
 10
356.4862909943986
 20
407.5487897044513
 10
356.4862909943986
 20
407.5487897044513
 10
356.0214910061404
 20
407.5644897040547
 10
355.5722910174882
 20
407.6444897020338
 10
355.1503910281463
 20
407.7792896986284
 10
355.1503910281463
 20
407.7792896986284
 10
355.1903910271358
 20
407.6972897006999
 10
355.1903910271358
 20
407.6972897006999
 10
355.1562910279972
 20
407.6132897028219
 10
355.1229999999996
 20
407.5272897049945
 10
355.0888910296999
 20
407.443389707114
 10
354.6015910420101
 20
407.6679999999997
 10
354.2294910514102
 20
407.9433896944829
 10
353.9882910575034
 20
408.2772896860479
 10
353.9882910575034
 20
408.2772896860479
 10
353.9979999999996
 20
408.3124896851587
 10
353.9979999999996
 20
408.3124896851587
 10
353.6776910653498
 20
408.5136896800759
 10
353.3808910728476
 20
408.75
 10
353.1142910795825
 20
409.0175896673463
 10
353.0604910809416
 20
409.0712896659898
 10
353.0077910822729
 20
409.1260000000002
 10
352.9570000000003
 20
409.1825896631781
 10
352.9570000000003
 20
409.1825896631781
 10
352.9511910837027
 20
409.0897896655224
 10
352.9511910837027
 20
409.0897896655224
 10
352.8798910855039
 20
409.0331896669522
 10
352.8085910873051
 20
408.9765896683821
 10
352.7362910891316
 20
408.9218896697639
 10
352.4257910969754
 20
409.3573896587623
 10
352.2411911016388
 20
409.7831896480056
 10
352.2011911026493
 20
410.1923896376684
 10
352.2011911026493
 20
410.1923896376684
 10
352.2265911020077
 20
410.2187896370015
 10
352.2265911020077
 20
410.2187896370015
 10
352.015591107338
 20
410.6132896270356
 10
351.8563911113597
 20
411.0419999999995
 10
351.7587911138253
 20
411.4921896048327
 10
351.7587911138253
 20
411.4921896048327
 10
351.7090000000007
 20
411.4159999999993
 10
351.7090000000007
 20
411.4159999999993
 10
351.6171911174024
 20
411.4022896071037
 10
351.5272911196735
 20
411.3895896074246
 10
351.437491121942
 20
411.3770000000004
 10
351.4237911222881
 20
411.5351896037464
 10
351.4169999999995
 20
411.687489599899
 10
351.4198911223866
 20
411.8330000000005
 10
351.4198911223866
 20
411.8330000000005
 10
350.4394911471536
 20
411.8330000000005
 10
350.4394911471536
 20
411.8330000000005
 10
350.4394911471536
 20
411.8330000000005
 10
347.0487912328099
 20
411.8330000000005
 10
347.0487912328099
 20
411.8330000000005
 10
347.0487912328099
 20
411.8330000000005
 10
347.0487912328099
 20
411.0644896156373
 10
347.0487912328099
 20
411.0644896156373
 10
347.0487912328099
 20
411.0644896156373
 10
346.0136912589587
 20
411.0644896156373
 10
346.0136912589587
 20
411.0644896156373
 10
346.04689125812
 20
410.8886896200784
 10
346.0644912576754
 20
410.7070000000003
 10
346.0644912576754
 20
410.5204896293799
 10
346.0644912576754
 20
410.4306896316484
 10
346.0604912577764
 20
410.342789633869
 10
346.0526912579735
 20
410.2538896361148
 10
346.0526912579735
 20
410.2538896361148
 10
346.1562912553563
 20
410.3397896339447
 10
346.1562912553563
 20
410.3397896339447
 10
346.2060912540983
 20
410.3320000000003
 10
346.2567912528175
 20
410.3241896343388
 10
346.3065912515594
 20
410.3163896345359
 10
346.2460912530878
 20
410.0214896419857
 10
346.1425912557024
 20
409.7831896480056
 10
345.9892912595751
 20
409.6103896523709
 10
345.9892912595751
 20
409.6103896523709
 10
345.9218912612778
 20
409.6142896522724
 10
345.9218912612778
 20
409.6142896522724
 10
345.8300912635968
 20
409.3280896595024
 10
345.6952912670022
 20
409.0604896662626
 10
345.5253912712942
 20
408.8212896723053
 10
345.5253912712942
 20
408.8212896723053
 10
345.6581912679394
 20
408.8437896717369
 10
345.6581912679394
 20
408.8437896717369
 10
345.6981912669289
 20
408.8104896725781
 10
345.7382912659159
 20
408.7792896733663
 10
345.7772912649307
 20
408.7479999999996
 10
345.5770912699882
 20
408.5233896798309
 10
345.3690912752427
 20
408.3690896837288
 10
345.148391280818
 20
408.2948896856033
 10
345.148391280818
 20
408.2948896856033
 10
345.0917912822479
 20
408.3320000000003
 10
345.0917912822479
 20
408.3320000000003
 10
344.8729999999996
 20
408.133789689673
 10
344.625
 20
407.9677896938665
 10
344.3534913008989
 20
407.843789696999
 10
344.3534913008989
 20
407.843789696999
 10
344.4784912977411
 20
407.7948896982343
 10
344.4784912977411
 20
407.7948896982343
 10
344.4979999999996
 20
407.7479999999996
 10
344.5155912968039
 20
407.6991897006519
 10
344.5331912963593
 20
407.6522897018367
 10
344.2479999999996
 20
407.5595897041785
 10
343.9901913100766
 20
407.5302897049187
 10
343.7636913157985
 20
407.5761897037592
 10
343.7636913157985
 20
407.5761897037592
 10
343.7323913165892
 20
407.6347897022788
 10
343.7323913165892
 20
407.6347897022788
 10
343.5341913215962
 20
407.5927897033398
 10
343.3261913268507
 20
407.5702897039082
 10
343.1142913322037
 20
407.5702897039082
 10
343.0243913344748
 20
407.5702897039082
 10
342.9354913367206
 20
407.5741897038097
 10
342.8485913389159
 20
407.5820000000003
 10
342.8485913389159
 20
407.5820000000003
 10
342.9335913367686
 20
407.4784897062273
 10
342.9335913367686
 20
407.4784897062273
 10
342.9257913369656
 20
407.4276897075106
 10
342.9179999999997
 20
407.3770000000004
 10
342.9101913373597
 20
407.3261897100747
 10
342.6161913447868
 20
407.3886897084958
 10
342.3770000000004
 20
407.4921897058812
 10
342.205091355172
 20
407.6454897020085
 10
342.205091355172
 20
407.6454897020085
 10
342.2080000000005
 20
407.7118897003311
 10
342.2080000000005
 20
407.7118897003311
 10
341.9218913623263
 20
407.803689698012
 10
341.6552913690612
 20
407.9394896945814
 10
341.4150000000009
 20
408.1093896902894
 10
341.4150000000009
 20
408.1093896902894
 10
341.4374913745633
 20
407.9765896936442
 10
341.4374913745633
 20
407.9765896936442
 10
341.404291375402
 20
407.9364896946572
 10
341.3729999999996
 20
407.8964896956677
 10
341.3417913769808
 20
407.8563896966807
 10
341.1171913826547
 20
408.0565896916232
 10
340.9628913865527
 20
408.2655896863434
 10
340.8886913884271
 20
408.4862896807681
 10
340.8886913884271
 20
408.4862896807681
 10
340.9257913874899
 20
408.5429999999997
 10
340.9257913874899
 20
408.5429999999997
 10
340.7274913924994
 20
408.7606896738362
 10
340.5624913966676
 20
409.0097896675434
 10
340.4374913998254
 20
409.2812896606847
 10
340.4374913998254
 20
409.2812896606847
 10
340.3895914010354
 20
409.1552896638677
 10
340.3895914010354
 20
409.1552896638677
 10
340.341791402243
 20
409.1366896643376
 10
340.293891403453
 20
409.1190896647822
 10
340.2460914046605
 20
409.0995896652748
 10
340.1522914070301
 20
409.3847896580701
 10
340.125
 20
409.6444896515095
 10
340.1698914065855
 20
409.8710896457851
 10
340.1698914065855
 20
409.8710896457851
 10
340.2294914050799
 20
409.9013896450197
 10
340.2294914050799
 20
409.9013896450197
 10
340.1874914061409
 20
410.1015896399622
 10
340.164091406732
 20
410.3085896347329
 10
340.164091406732
 20
410.5204896293799
 10
340.164091406732
 20
410.6103896271088
 10
340.1679999999997
 20
410.6981896248908
 10
340.1757914064365
 20
410.7860896226703
 10
340.1757914064365
 20
410.7860896226703
 10
340.0722914090511
 20
410.7001896248403
 10
340.0722914090511
 20
410.7001896248403
 10
340.0214914103344
 20
410.7090000000007
 10
339.9716914115925
 20
410.7157896244462
 10
339.9198914129011
 20
410.7245896242239
 10
339.9823914113222
 20
411.0194896167741
 10
340.0858914087075
 20
411.2558896108021
 10
340.2392914048323
 20
411.4296896064116
 10
340.2392914048323
 20
411.4296896064116
 10
340.3056914031549
 20
411.4267896064848
 10
340.3056914031549
 20
411.4267896064848
 10
340.3983914008131
 20
411.7128895992573
 10
340.5331913974078
 20
411.9794895925224
 10
340.7030913931158
 20
412.2196895864545
 10
340.7030913931158
 20
412.2196895864545
 10
340.5702913964706
 20
412.1972895870204
 10
340.5702913964706
 20
412.1972895870204
 10
340.5302913974811
 20
412.2284895862322
 10
340.4901913984941
 20
412.2616895853935
 10
340.4511913994793
 20
412.29388958458
 10
340.6503913944471
 20
412.5175895789289
 10
340.860391389142
 20
412.6718895750309
 10
341.0800913835919
 20
412.7460895731565
 10
341.0800913835919
 20
412.7460895731565
 10
341.1366913821621
 20
412.7090000000007
 10
341.1366913821621
 20
412.7090000000007
 10
341.3554913766347
 20
412.9071895690868
 10
341.6034913703697
 20
413.072289564916
 10
341.875
 20
413.1972895617582
 10
341.875
 20
413.1972895617582
 10
341.75
 20
413.244089560576
 10
341.75
 20
413.244089560576
 10
341.7304913671614
 20
413.2929999999997
 10
341.7128913676061
 20
413.3397895581584
 10
341.6933913680987
 20
413.3886895569231
 10
341.9364913619575
 20
413.4677895549248
 10
342.1601913563063
 20
413.5
 10
342.3593913512741
 20
413.480489554604
 10
342.3593913512741
 20
413.480489554604
 10
341.7675913662242
 20
416.5840000000007
 10
341.7675913662242
 20
416.5840000000007
 10
341.7675913662242
 20
416.5840000000007
 10
341.7597913664213
 20
416.6229999999996
 10
341.7597913664213
 20
416.6229999999996
 10
341.7597913664213
 20
416.6229999999996
 10
341.7597913664213
 20
416.6542894744271
 10
341.7597913664213
 20
416.6542894744271
 10
341.7597913664213
 20
416.6542894744271
 10
341.7597913664213
 20
417.7558894465983
 10
341.7597913664213
 20
417.7558894465983
 10
341.7597913664213
 20
417.7558894465983
 10
341.7597913664213
 20
418.1288894371755
 10
341.7597913664213
 20
418.1288894371755
 10
341.7597913664213
 20
418.1288894371755
 10
342.1337913569732
 20
418.1288894371755
 10
342.1337913569732
 20
418.1288894371755
 10
342.1337913569732
 20
418.1288894371755
 10
342.1337913569732
 20
418.1288894371755
 10
342.1337913569732
 20
418.1288894371755
 97
        0
 92
        1
 93
        1
 72
     4
 94
        3
 73
     0
 74
     1
 95
       83
 96
       79
 40
0.0
 40
0.0
 40
0.0
 40
0.0
 40
1.0
 40
1.0
 40
1.0
 40
2.0
 40
2.0
 40
2.0
 40
3.0
 40
3.0
 40
3.0
 40
4.0
 40
4.0
 40
4.0
 40
5.0
 40
5.0
 40
5.0
 40
6.0
 40
6.0
 40
6.0
 40
7.0
 40
7.0
 40
7.0
 40
8.0
 40
8.0
 40
8.0
 40
9.0
 40
9.0
 40
9.0
 40
10.0
 40
10.0
 40
10.0
 40
11.0
 40
11.0
 40
11.0
 40
12.0
 40
12.0
 40
12.0
 40
13.0
 40
13.0
 40
13.0
 40
14.0
 40
14.0
 40
14.0
 40
15.0
 40
15.0
 40
15.0
 40
16.0
 40
16.0
 40
16.0
 40
17.0
 40
17.0
 40
17.0
 40
18.0
 40
18.0
 40
18.0
 40
19.0
 40
19.0
 40
19.0
 40
20.0
 40
20.0
 40
20.0
 40
21.0
 40
21.0
 40
21.0
 40
22.0
 40
22.0
 40
22.0
 40
23.0
 40
23.0
 40
23.0
 40
24.0
 40
24.0
 40
24.0
 40
25.0
 40
25.0
 40
25.0
 40
26.0
 40
26.0
 40
26.0
 40
26.0
 10
362.0429999999997
 20
418.2265894347074
 10
362.0429999999997
 20
418.2265894347074
 10
362.1669999999995
 20
417.3983894556295
 10
362.1669999999995
 20
417.3983894556295
 10
362.4726908431694
 20
417.646489449362
 10
362.8495908336481
 20
417.75
 10
363.2147908244224
 20
417.7167894475861
 10
363.2147908244224
 20
417.7167894475861
 10
363.2147908244224
 20
417.7147894476366
 10
363.2147908244224
 20
417.7147894476366
 10
363.5858908150476
 20
417.680689448498
 10
363.9452908059684
 20
417.5058894529138
 10
364.2011907995038
 20
417.1972894607097
 10
364.4580000000005
 20
416.8886894685056
 10
364.5644907903261
 20
416.5038894782265
 10
364.5312907911648
 20
416.1347894875507
 10
364.4970907920288
 20
415.761689496976
 10
364.3222907964446
 20
415.4042895060047
 10
364.0126908042657
 20
415.147489512492
 10
363.7050908120364
 20
414.8915895189566
 10
363.3202908217572
 20
414.7841895216698
 10
362.949190831132
 20
414.8183895208058
 10
362.949190831132
 20
414.8183895208058
 10
362.949190831132
 20
414.8183895208058
 10
362.949190831132
 20
414.8183895208058
 10
362.8085908346839
 20
414.8300895205102
 10
362.6698908381877
 20
414.8632895196715
 10
362.5370908415425
 20
414.9159999999993
 10
362.5370908415425
 20
414.9159999999993
 10
362.5546908410979
 20
414.8075895210786
 10
362.5546908410979
 20
414.8075895210786
 10
362.5546908410979
 20
414.8075895210786
 10
362.619090839471
 20
414.5644895272198
 10
362.619090839471
 20
414.5644895272198
 10
362.619090839471
 20
414.5644895272198
 10
362.4755908430961
 20
414.5253895282076
 10
362.4755908430961
 20
414.5253895282076
 10
362.4755908430961
 20
414.5253895282076
 10
362.4687908432679
 20
414.4979999999996
 10
362.4687908432679
 20
414.4979999999996
 10
362.4687908432679
 20
414.4979999999996
 10
362.3397908465267
 20
414.4892895291196
 10
362.3397908465267
 20
414.4892895291196
 10
362.3397908465267
 20
414.4892895291196
 10
361.5116908674463
 20
414.2675895347202
 10
361.5116908674463
 20
414.2675895347202
 10
361.802690860095
 20
414.05858954
 10
362.1562908511623
 20
413.890589544244
 10
362.5126908421589
 20
413.7987895465631
 10
362.9853908302175
 20
413.678689549597
 10
363.4511908184504
 20
413.6952895491777
 10
363.75
 20
413.9433895429102
 10
363.7675908104575
 20
413.9590000000007
 10
363.7802908101366
 20
413.9696895422458
 10
363.7870908099649
 20
413.974589542122
 10
363.7870908099649
 20
413.974589542122
 10
370.4120906426033
 20
420.2343893839861
 10
370.4120906426033
 20
420.2343893839861
 10
370.7577906338702
 20
420.5590893757835
 10
370.9628906286889
 20
420.9853893650143
 10
371.0020000000004
 20
421.4188893540631
 10
371.0400000000009
 20
421.8275893437385
 10
370.9276906295781
 20
422.2445893332042
 10
370.6425906367804
 20
422.5863893245696
 10
370.6425906367804
 20
422.5863893245696
 10
370.6425906367804
 20
422.5863893245696
 10
370.6425906367804
 20
422.5863893245696
 10
370.3573906439851
 20
422.928189315935
 10
369.968790653802
 20
423.115189311211
 10
369.5604906641165
 20
423.1522893102738
 10
369.1270000000004
 20
423.1923893092608
 10
368.6718906865644
 20
423.0678893124059
 10
368.2870906962853
 20
422.7885893194616
 10
368.2870906962853
 20
422.7885893194616
 10
362.0429999999997
 20
418.2265894347074
 10
362.0429999999997
 20
418.2265894347074
 10
362.0429999999997
 20
418.2265894347074
 10
362.0429999999997
 20
418.2265894347074
 10
362.0429999999997
 20
418.2265894347074
 97
        0
 92
        1
 93
        1
 72
     4
 94
        3
 73
     0
 74
     1
 95
       47
 96
       43
 40
0.0
 40
0.0
 40
0.0
 40
0.0
 40
1.0
 40
1.0
 40
1.0
 40
2.0
 40
2.0
 40
2.0
 40
3.0
 40
3.0
 40
3.0
 40
4.0
 40
4.0
 40
4.0
 40
5.0
 40
5.0
 40
5.0
 40
6.0
 40
6.0
 40
6.0
 40
7.0
 40
7.0
 40
7.0
 40
8.0
 40
8.0
 40
8.0
 40
9.0
 40
9.0
 40
9.0
 40
10.0
 40
10.0
 40
10.0
 40
11.0
 40
11.0
 40
11.0
 40
12.0
 40
12.0
 40
12.0
 40
13.0
 40
13.0
 40
13.0
 40
14.0
 40
14.0
 40
14.0
 40
14.0
 10
362.3340000000007
 20
416.2802894838751
 10
362.3340000000007
 20
416.2802894838751
 10
362.3690908457866
 20
416.0370894900188
 10
362.3690908457866
 20
416.0370894900188
 10
362.3983908450464
 20
415.9491894922394
 10
362.4433908439096
 20
415.8651894943614
 10
362.5077908422827
 20
415.7890894962839
 10
362.6395908389532
 20
415.6308895002803
 10
362.8222908343378
 20
415.5400000000009
 10
363.0136908295026
 20
415.5224895030187
 10
363.0136908295026
 20
415.5224895030187
 10
363.0155908294546
 20
415.521489503044
 10
363.0155908294546
 20
415.521489503044
 10
363.2030908247179
 20
415.5038895034886
 10
363.4003908197337
 20
415.5595895020815
 10
363.559590815712
 20
415.691389498752
 10
363.7177908117155
 20
415.8241894953971
 10
363.8085908094217
 20
416.007789490759
 10
363.8261908089771
 20
416.1991894859239
 10
363.8427908085578
 20
416.3886894811367
 10
363.7880908099396
 20
416.585889476155
 10
363.6562908132692
 20
416.7440894721585
 10
363.5233908166265
 20
416.9042894681115
 10
363.3397908212646
 20
416.994089465843
 10
363.1503908260493
 20
417.0116894653984
 10
363.1503908260493
 20
417.0116894653984
 10
363.1503908260493
 20
417.0106894654236
 10
363.1503908260493
 20
417.0106894654236
 10
362.9608908308364
 20
417.028289464979
 10
362.7626908358434
 20
416.9726894663836
 10
362.6044908398399
 20
416.8407894697157
 10
362.4452908438616
 20
416.7090000000007
 10
362.3544908461554
 20
416.5253894776833
 10
362.3378908465747
 20
416.3358894824705
 10
362.3378908465747
 20
416.3358894824705
 10
362.3358908466253
 20
416.3340000000007
 10
362.3358908466253
 20
416.3340000000007
 10
362.3358908466253
 20
416.3163894829631
 10
362.3340000000007
 20
416.2987894834077
 10
362.3340000000007
 20
416.2802894838751
 10
362.3340000000007
 20
416.2802894838751
 10
362.3340000000007
 20
416.2802894838751
 10
362.3340000000007
 20
416.2802894838751
 97
        0
 92
        1
 93
        1
 72
     4
 94
        3
 73
     0
 74
     1
 95
       44
 96
       40
 40
0.0
 40
0.0
 40
0.0
 40
0.0
 40
1.0
 40
1.0
 40
1.0
 40
2.0
 40
2.0
 40
2.0
 40
3.0
 40
3.0
 40
3.0
 40
4.0
 40
4.0
 40
4.0
 40
5.0
 40
5.0
 40
5.0
 40
6.0
 40
6.0
 40
6.0
 40
7.0
 40
7.0
 40
7.0
 40
8.0
 40
8.0
 40
8.0
 40
9.0
 40
9.0
 40
9.0
 40
10.0
 40
10.0
 40
10.0
 40
11.0
 40
11.0
 40
11.0
 40
12.0
 40
12.0
 40
12.0
 40
13.0
 40
13.0
 40
13.0
 40
13.0
 10
367.5722907143427
 20
420.0020000000004
 10
367.3163907208072
 20
420.3104893820637
 10
366.9580000000005
 20
420.4843893776706
 10
366.5858907392612
 20
420.5194893767839
 10
366.5858907392612
 20
420.5194893767839
 10
366.5858907392612
 20
420.5200000000004
 10
366.5858907392612
 20
420.5200000000004
 10
366.214790748636
 20
420.5546893758947
 10
365.8310907583291
 20
420.4472893786078
 10
365.5214907661502
 20
420.1894893851204
 10
365.2147907738981
 20
419.933589391585
 10
365.0390907783367
 20
419.5761894006137
 10
365.0038907792259
 20
419.2050894099884
 10
365.0038907792259
 20
419.2050894099884
 10
365.0038907792259
 20
419.203089410039
 10
365.0038907792259
 20
419.203089410039
 10
365.0038907792259
 20
419.203089410039
 10
365.0038907792259
 20
419.203089410039
 10
365.0038907792259
 20
419.203089410039
 10
364.9706907800646
 20
418.8310894194365
 10
365.0780907773515
 20
418.4472894291321
 10
365.3340000000007
 20
418.14058943688
 10
365.5897907644248
 20
417.8300894447239
 10
365.9491907553456
 20
417.6552894491397
 10
366.3202907459709
 20
417.6210894500036
 10
366.3202907459709
 20
417.6210894500036
 10
366.3202907459709
 20
417.6220894499784
 10
366.3202907459709
 20
417.6220894499784
 10
366.6913907365961
 20
417.5888894508171
 10
367.0761907268752
 20
417.6952894481292
 10
367.3827907191298
 20
417.9511894416646
 10
367.6933907112834
 20
418.2090000000007
 10
367.8681907068676
 20
418.5673894260981
 10
367.9022907060062
 20
418.9374894167486
 10
367.9364907051422
 20
419.3085894073738
 10
367.8280907078806
 20
419.6933893976529
 10
367.5722907143427
 20
420.0020000000004
 10
367.5722907143427
 20
420.0020000000004
 10
367.5722907143427
 20
420.0020000000004
 10
367.5722907143427
 20
420.0020000000004
 97
        0
 92
        1
 93
        1
 72
     4
 94
        3
 73
     0
 74
     1
 95
       41
 96
       37
 40
0.0
 40
0.0
 40
0.0
 40
0.0
 40
1.0
 40
1.0
 40
1.0
 40
2.0
 40
2.0
 40
2.0
 40
3.0
 40
3.0
 40
3.0
 40
4.0
 40
4.0
 40
4.0
 40
5.0
 40
5.0
 40
5.0
 40
6.0
 40
6.0
 40
6.0
 40
7.0
 40
7.0
 40
7.0
 40
8.0
 40
8.0
 40
8.0
 40
9.0
 40
9.0
 40
9.0
 40
10.0
 40
10.0
 40
10.0
 40
11.0
 40
11.0
 40
11.0
 40
12.0
 40
12.0
 40
12.0
 40
12.0
 10
367.197290723816
 20
419.0020000000004
 10
367.2147907233739
 20
419.193389410284
 10
367.1591907247785
 20
419.3905894053023
 10
367.0272907281105
 20
419.5487894013058
 10
366.8944907314653
 20
419.7070000000003
 10
366.7108907361035
 20
419.7987893949903
 10
366.5224907408628
 20
419.8144893945937
 10
366.5224907408628
 20
419.8144893945937
 10
366.5204907409134
 20
419.8144893945937
 10
366.5204907409134
 20
419.8144893945937
 10
366.3300907457233
 20
419.8320000000003
 10
366.1327907507075
 20
419.7772893955334
 10
365.974590754704
 20
419.6444893988883
 10
365.8163907587004
 20
419.5116894022431
 10
365.7255907609942
 20
419.3280894068812
 10
365.7080000000005
 20
419.1395894116431
 10
365.7080000000005
 20
419.1395894116431
 10
365.7080000000005
 20
419.1386894116658
 10
365.7080000000005
 20
419.1386894116658
 10
365.6913907618582
 20
418.949189416453
 10
365.7460907604764
 20
418.7520000000004
 10
365.8788907571216
 20
418.5937894254312
 10
366.0097907538147
 20
418.4335894294782
 10
366.1952907491286
 20
418.3437894317467
 10
366.3847907443414
 20
418.3270894321686
 10
366.3847907443414
 20
418.3270894321686
 10
366.3856907443187
 20
418.3251894322166
 10
366.3856907443187
 20
418.3251894322166
 10
366.5741907395568
 20
418.3085894326359
 10
366.7714907345726
 20
418.3642894312288
 10
366.9296907305761
 20
418.4960894278993
 10
367.0897907265316
 20
418.6288894245445
 10
367.1796907242606
 20
418.8114894199316
 10
367.197290723816
 20
419.0020000000004
 10
367.197290723816
 20
419.0020000000004
 10
367.197290723816
 20
419.0020000000004
 10
367.197290723816
 20
419.0020000000004
 97
        0
 92
        1
 93
        1
 72
     4
 94
        3
 73
     0
 74
     1
 95
       44
 96
       40
 40
0.0
 40
0.0
 40
0.0
 40
0.0
 40
1.0
 40
1.0
 40
1.0
 40
2.0
 40
2.0
 40
2.0
 40
3.0
 40
3.0
 40
3.0
 40
4.0
 40
4.0
 40
4.0
 40
5.0
 40
5.0
 40
5.0
 40
6.0
 40
6.0
 40
6.0
 40
7.0
 40
7.0
 40
7.0
 40
8.0
 40
8.0
 40
8.0
 40
9.0
 40
9.0
 40
9.0
 40
10.0
 40
10.0
 40
10.0
 40
11.0
 40
11.0
 40
11.0
 40
12.0
 40
12.0
 40
12.0
 40
13.0
 40
13.0
 40
13.0
 40
13.0
 10
370.3739999999998
 20
422.3324893309837
 10
370.1171906500531
 20
422.640089323213
 10
369.7597906590818
 20
422.8153893187846
 10
369.3886906684565
 20
422.8490893179332
 10
369.3886906684565
 20
422.8490893179332
 10
369.3886906684565
 20
422.850089317908
 10
369.3886906684565
 20
422.850089317908
 10
369.0175906778313
 20
422.8847893170314
 10
368.6327906875522
 20
422.7772893197471
 10
368.3241906953481
 20
422.5204893262344
 10
368.015590703144
 20
422.264589332699
 10
367.8407907075598
 20
421.9071893417276
 10
367.8065907084238
 20
421.535589351115
 10
367.8065907084238
 20
421.535589351115
 10
367.8065907084238
 20
421.5346893511378
 10
367.8065907084238
 20
421.5346893511378
 10
367.8065907084238
 20
421.5346893511378
 10
367.8065907084238
 20
421.533689351163
 10
367.8065907084238
 20
421.533689351163
 10
367.7724907092852
 20
421.1625893605378
 10
367.879890706572
 20
420.7787893702334
 10
368.1347907001327
 20
420.4706893780167
 10
368.3925906936201
 20
420.1620893858126
 10
368.75
 20
419.9853893902764
 10
369.1229999999996
 20
419.9520893911176
 10
369.1229999999996
 20
419.9520893911176
 10
369.1229999999996
 20
419.9530893910924
 10
369.1229999999996
 20
419.9530893910924
 10
369.4940906657939
 20
419.9188893919563
 10
369.8770000000004
 20
420.0263893892406
 10
370.1854906483277
 20
420.2821893827786
 10
370.4940906405318
 20
420.5395893762761
 10
370.6698906360907
 20
420.8969999999999
 10
370.703090635252
 20
421.2675893578853
 10
370.7382906343628
 20
421.6395893484878
 10
370.6308906370759
 20
422.0228893388048
 10
370.3739999999998
 20
422.3324893309837
 10
370.3739999999998
 20
422.3324893309837
 10
370.3739999999998
 20
422.3324893309837
 10
370.3739999999998
 20
422.3324893309837
 97
        0
 92
        1
 93
        1
 72
     4
 94
        3
 73
     0
 74
     1
 95
       41
 96
       37
 40
0.0
 40
0.0
 40
0.0
 40
0.0
 40
1.0
 40
1.0
 40
1.0
 40
2.0
 40
2.0
 40
2.0
 40
3.0
 40
3.0
 40
3.0
 40
4.0
 40
4.0
 40
4.0
 40
5.0
 40
5.0
 40
5.0
 40
6.0
 40
6.0
 40
6.0
 40
7.0
 40
7.0
 40
7.0
 40
8.0
 40
8.0
 40
8.0
 40
9.0
 40
9.0
 40
9.0
 40
10.0
 40
10.0
 40
10.0
 40
11.0
 40
11.0
 40
11.0
 40
12.0
 40
12.0
 40
12.0
 40
12.0
 10
369.9979999999996
 20
421.3324893562458
 10
370.0165906525945
 20
421.5233893514232
 10
369.9618906539763
 20
421.7201893464517
 10
369.8290906573311
 20
421.8793893424299
 10
369.6972906606607
 20
422.0385893384082
 10
369.5136906652988
 20
422.128889336127
 10
369.324190670086
 20
422.1459999999997
 10
369.324190670086
 20
422.1459999999997
 10
369.3231906701112
 20
422.1450000000004
 10
369.3231906701112
 20
422.1450000000004
 10
369.1337906748959
 20
422.1630893352631
 10
368.9354906799053
 20
422.1073893366702
 10
368.7772906839018
 20
421.9755893399997
 10
368.6190906878983
 20
421.8432893433419
 10
368.5272906902173
 20
421.65968934798
 10
368.5097906906594
 20
421.4706893527546
 10
368.5097906906594
 20
421.4706893527546
 10
368.5097906906594
 20
421.4687893528026
 10
368.5097906906594
 20
421.4687893528026
 10
368.492190691104
 20
421.2797893575771
 10
368.5478906896969
 20
421.0824893625613
 10
368.6796906863674
 20
420.923289366583
 10
368.8124906830126
 20
420.7645893705921
 10
368.9960906783745
 20
420.6747893728607
 10
369.1854906735898
 20
420.6571893733053
 10
369.1854906735898
 20
420.6571893733053
 10
369.1874906735393
 20
420.6566893733179
 10
369.1874906735393
 20
420.6566893733179
 10
369.3760000000002
 20
420.6386893737726
 10
369.5741906637704
 20
420.6942893723681
 10
369.732390659774
 20
420.8266893690234
 10
369.8905906557775
 20
420.9594893656686
 10
369.9804906535064
 20
421.1425893610431
 10
369.9979999999996
 20
421.3324893562458
 10
369.9979999999996
 20
421.3324893562458
 10
369.9979999999996
 20
421.3324893562458
 10
369.9979999999996
 20
421.3324893562458
 97
        0
 92
        1
 93
        4
 72
     1
 10
358.2323909502884
 20
418.2196894348817
 11
358.2323909502884
 21
423.5238893008864
 72
     1
 10
358.2323909502884
 20
423.5238893008864
 11
354.8153910366091
 21
423.5238893008864
 72
     1
 10
354.8153910366091
 20
423.5238893008864
 11
354.8153910366091
 21
418.2196894348817
 72
     1
 10
354.8153910366091
 20
418.2196894348817
 11
358.2323909502884
 21
418.2196894348817
 97
        0
 92
        1
 93
        1
 72
     4
 94
        3
 73
     0
 74
     1
 95
       32
 96
       28
 40
0.0
 40
0.0
 40
0.0
 40
0.0
 40
1.0
 40
1.0
 40
1.0
 40
2.0
 40
2.0
 40
2.0
 40
3.0
 40
3.0
 40
3.0
 40
4.0
 40
4.0
 40
4.0
 40
5.0
 40
5.0
 40
5.0
 40
6.0
 40
6.0
 40
6.0
 40
7.0
 40
7.0
 40
7.0
 40
8.0
 40
8.0
 40
8.0
 40
9.0
 40
9.0
 40
9.0
 40
9.0
 10
356.6688909897857
 20
415.0507895149349
 10
355.9843910070776
 20
415.0507895149349
 10
355.36519102272
 20
414.7733895219426
 10
354.9179999999997
 20
414.3241895332903
 10
354.4687910453649
 20
413.8770000000004
 10
354.1913910523726
 20
413.2558895602779
 10
354.1913910523726
 20
412.5722895775471
 10
354.1913910523726
 20
411.8886895948162
 10
354.4687910453649
 20
411.2675896105065
 10
354.9179999999997
 20
410.8202896218063
 10
355.36519102272
 20
410.371089633154
 10
355.9843910070776
 20
410.0937896401592
 10
356.6688909897857
 20
410.0937896401592
 10
357.3524909725165
 20
410.0937896401592
 10
357.9735909568262
 20
410.371089633154
 10
358.4218909455012
 20
410.8202896218063
 10
358.8710909341535
 20
411.2675896105065
 10
359.147490927171
 20
411.8886895948162
 10
359.147490927171
 20
412.5722895775471
 10
359.147490927171
 20
413.2558895602779
 10
358.8710909341535
 20
413.8770000000004
 10
358.4218909455012
 20
414.3241895332903
 10
357.9735909568262
 20
414.7733895219426
 10
357.3524909725165
 20
415.0507895149349
 10
356.6688909897857
 20
415.0507895149349
 10
356.6688909897857
 20
415.0507895149349
 10
356.6688909897857
 20
415.0507895149349
 10
356.6688909897857
 20
415.0507895149349
 97
        0
 92
        1
 93
        1
 72
     4
 94
        3
 73
     0
 74
     1
 95
       32
 96
       28
 40
0.0
 40
0.0
 40
0.0
 40
0.0
 40
1.0
 40
1.0
 40
1.0
 40
2.0
 40
2.0
 40
2.0
 40
3.0
 40
3.0
 40
3.0
 40
4.0
 40
4.0
 40
4.0
 40
5.0
 40
5.0
 40
5.0
 40
6.0
 40
6.0
 40
6.0
 40
7.0
 40
7.0
 40
7.0
 40
8.0
 40
8.0
 40
8.0
 40
9.0
 40
9.0
 40
9.0
 40
9.0
 10
358.1376909526807
 20
414.0400000000009
 10
357.7616909621793
 20
414.4159999999993
 10
357.2421909753029
 20
414.6483895251004
 10
356.6688909897857
 20
414.6483895251004
 10
356.095691004266
 20
414.6483895251004
 10
355.5761910173896
 20
414.4159999999993
 10
355.2011910268629
 20
414.0400000000009
 10
354.8261910363362
 20
413.6650000000009
 10
354.5927910422324
 20
413.1444895630921
 10
354.5927910422324
 20
412.5722895775471
 10
354.5927910422324
 20
411.9979999999996
 10
354.8261910363362
 20
411.4794896051535
 10
355.2011910268629
 20
411.1034896146521
 10
355.5761910173896
 20
410.7284896241254
 10
356.095691004266
 20
410.4960896299963
 10
356.6688909897857
 20
410.4960896299963
 10
357.2421909753029
 20
410.4960896299963
 10
357.7616909621793
 20
410.7284896241254
 10
358.1376909526807
 20
411.1034896146521
 10
358.5136909431822
 20
411.4794896051535
 10
358.7460909373112
 20
411.9979999999996
 10
358.7460909373112
 20
412.5722895775471
 10
358.7460909373112
 20
413.1444895630921
 10
358.5136909431822
 20
413.6650000000009
 10
358.1376909526807
 20
414.0400000000009
 10
358.1376909526807
 20
414.0400000000009
 10
358.1376909526807
 20
414.0400000000009
 10
358.1376909526807
 20
414.0400000000009
 97
        0
 92
        1
 93
        1
 72
     4
 94
        3
 73
     0
 74
     1
 95
       59
 96
       55
 40
0.0
 40
0.0
 40
0.0
 40
0.0
 40
1.0
 40
1.0
 40
1.0
 40
2.0
 40
2.0
 40
2.0
 40
3.0
 40
3.0
 40
3.0
 40
4.0
 40
4.0
 40
4.0
 40
5.0
 40
5.0
 40
5.0
 40
6.0
 40
6.0
 40
6.0
 40
7.0
 40
7.0
 40
7.0
 40
8.0
 40
8.0
 40
8.0
 40
9.0
 40
9.0
 40
9.0
 40
10.0
 40
10.0
 40
10.0
 40
11.0
 40
11.0
 40
11.0
 40
12.0
 40
12.0
 40
12.0
 40
13.0
 40
13.0
 40
13.0
 40
14.0
 40
14.0
 40
14.0
 40
15.0
 40
15.0
 40
15.0
 40
16.0
 40
16.0
 40
16.0
 40
17.0
 40
17.0
 40
17.0
 40
18.0
 40
18.0
 40
18.0
 40
18.0
 10
354.5087910443544
 20
417.1132894628317
 10
354.5087910443544
 20
417.1132894628317
 10
354.5087910443544
 20
417.3485894568876
 10
354.5087910443544
 20
417.3485894568876
 10
354.5087910443544
 20
417.3485894568876
 10
353.640591066287
 20
417.3485894568876
 10
353.640591066287
 20
417.3485894568876
 10
353.640591066287
 20
417.3485894568876
 10
352.2216911021314
 20
416.3261894827156
 10
352.2216911021314
 20
416.3261894827156
 10
352.2216911021314
 20
416.3261894827156
 10
351.8729999999996
 20
416.6757894738839
 10
351.8729999999996
 20
416.6757894738839
 10
351.8729999999996
 20
416.6757894738839
 10
352.7606910885152
 20
417.3485894568876
 10
352.7606910885152
 20
417.3485894568876
 10
352.7606910885152
 20
417.3485894568876
 10
351.1503911291948
 20
417.3485894568876
 10
351.1503911291948
 20
417.3485894568876
 10
351.1503911291948
 20
417.3485894568876
 10
351.1503911291948
 20
415.0820000000003
 10
351.1503911291948
 20
415.0820000000003
 10
351.1503911291948
 20
415.0820000000003
 10
352.16989110344
 20
415.0820000000003
 10
352.16989110344
 20
415.0820000000003
 10
352.2362911017626
 20
415.1444895125678
 10
352.3026911000852
 20
415.2011895111355
 10
352.375
 20
415.2528895098294
 10
352.375
 20
415.2528895098294
 10
352.4081910974201
 20
415.2421895100997
 10
352.4081910974201
 20
415.2421895100997
 10
352.6112910922893
 20
415.5624895020082
 10
352.8476910863174
 20
415.8593894945079
 10
353.1142910795825
 20
416.1270000000004
 10
353.1679999999997
 20
416.1796894864165
 10
353.2226910768441
 20
416.2333894850599
 10
353.2792910754142
 20
416.2851894837513
 10
353.2792910754142
 20
416.2851894837513
 10
353.1874910777333
 20
416.2890894836528
 10
353.1874910777333
 20
416.2890894836528
 10
353.1308910791631
 20
416.3612894818289
 10
353.0741910805955
 20
416.4335894800024
 10
353.0175910820253
 20
416.5038894782265
 10
353.4550910709731
 20
416.8153894703573
 10
353.8788910602671
 20
417.0
 10
354.2900000000009
 20
417.0409999999993
 10
354.2900000000009
 20
417.0409999999993
 10
354.3144910492629
 20
417.0155894652999
 10
354.3144910492629
 20
417.0155894652999
 10
354.378891047636
 20
417.0487894644612
 10
354.4433910460066
 20
417.0810894636452
 10
354.5087910443544
 20
417.1132894628317
 10
354.5087910443544
 20
417.1132894628317
 10
354.5087910443544
 20
417.1132894628317
 10
354.5087910443544
 20
417.1132894628317
 97
        0
 92
        1
 93
        1
 72
     4
 94
        3
 73
     0
 74
     1
 95
       32
 96
       28
 40
0.0
 40
0.0
 40
0.0
 40
0.0
 40
1.0
 40
1.0
 40
1.0
 40
2.0
 40
2.0
 40
2.0
 40
3.0
 40
3.0
 40
3.0
 40
4.0
 40
4.0
 40
4.0
 40
5.0
 40
5.0
 40
5.0
 40
6.0
 40
6.0
 40
6.0
 40
7.0
 40
7.0
 40
7.0
 40
8.0
 40
8.0
 40
8.0
 40
9.0
 40
9.0
 40
9.0
 40
9.0
 10
358.8124909356338
 20
414.714789523423
 10
358.2636909494977
 20
415.2636895095566
 10
357.5058909686413
 20
415.6024895009978
 10
356.6688909897857
 20
415.6024895009978
 10
355.8320000000003
 20
415.6024895009978
 10
355.0741910300712
 20
415.2636895095566
 10
354.5253910439351
 20
414.714789523423
 10
353.9774910577762
 20
414.1659999999993
 10
353.638691066335
 20
413.4081895564304
 10
353.638691066335
 20
412.5722895775471
 10
353.638691066335
 20
411.7343895987142
 10
353.9774910577762
 20
410.9765896178578
 10
354.5253910439351
 20
410.4286896316989
 10
355.0741910300712
 20
409.8808896455375
 10
355.8320000000003
 20
409.5409999999993
 10
356.6688909897857
 20
409.5409999999993
 10
357.5058909686413
 20
409.5409999999993
 10
358.2636909494977
 20
409.8808896455375
 10
358.8124909356338
 20
410.4286896316989
 10
359.3603909217927
 20
410.9765896178578
 10
359.6991909132339
 20
411.7343895987142
 10
359.6991909132339
 20
412.5722895775471
 10
359.6991909132339
 20
413.4081895564304
 10
359.3603909217927
 20
414.1659999999993
 10
358.8124909356338
 20
414.714789523423
 10
358.8124909356338
 20
414.714789523423
 10
358.8124909356338
 20
414.714789523423
 10
358.8124909356338
 20
414.714789523423
 97
        0
 92
        1
 93
        1
 72
     4
 94
        3
 73
     0
 74
     1
 95
       56
 96
       52
 40
0.0
 40
0.0
 40
0.0
 40
0.0
 40
1.0
 40
1.0
 40
1.0
 40
2.0
 40
2.0
 40
2.0
 40
3.0
 40
3.0
 40
3.0
 40
4.0
 40
4.0
 40
4.0
 40
5.0
 40
5.0
 40
5.0
 40
6.0
 40
6.0
 40
6.0
 40
7.0
 40
7.0
 40
7.0
 40
8.0
 40
8.0
 40
8.0
 40
9.0
 40
9.0
 40
9.0
 40
10.0
 40
10.0
 40
10.0
 40
11.0
 40
11.0
 40
11.0
 40
12.0
 40
12.0
 40
12.0
 40
13.0
 40
13.0
 40
13.0
 40
14.0
 40
14.0
 40
14.0
 40
15.0
 40
15.0
 40
15.0
 40
16.0
 40
16.0
 40
16.0
 40
17.0
 40
17.0
 40
17.0
 40
17.0
 10
343.1229999999996
 20
413.4706895548516
 10
343.2099999999991
 20
413.4706895548516
 10
343.2948913276414
 20
413.4667895549501
 10
343.3808913254688
 20
413.4590000000007
 10
343.3808913254688
 20
413.4590000000007
 10
343.2938913276666
 20
413.5624895525325
 10
343.2938913276666
 20
413.5624895525325
 10
343.3026913274443
 20
413.6122895512744
 10
343.30959132727
 20
413.6630895499911
 10
343.3183913270477
 20
413.7128895487331
 10
343.6132913195979
 20
413.652289550264
 10
343.8495913136285
 20
413.5487895528786
 10
344.0233913092379
 20
413.3954895567513
 10
344.0233913092379
 20
413.3954895567513
 10
344.0204913093112
 20
413.3280895584539
 10
344.0204913093112
 20
413.3280895584539
 10
344.1972913048448
 20
413.2714895598838
 10
344.3671913005528
 20
413.1972895617582
 10
344.5272912965083
 20
413.1112895639308
 10
344.5272912965083
 20
413.1112895639308
 10
344.7099999999991
 20
413.1112895639308
 10
344.7099999999991
 20
413.1112895639308
 10
344.7099999999991
 20
413.1112895639308
 10
344.7099999999991
 20
415.7450894973954
 10
344.7099999999991
 20
415.7450894973954
 10
344.7099999999991
 20
415.7450894973954
 10
344.7099999999991
 20
416.1190894879473
 10
344.7099999999991
 20
416.1190894879473
 10
344.7099999999991
 20
416.1190894879473
 10
345.0840000000007
 20
416.1190894879473
 10
345.0840000000007
 20
416.1190894879473
 10
345.0840000000007
 20
416.1190894879473
 10
350.0116911579607
 20
416.1190894879473
 10
350.0116911579607
 20
416.1190894879473
 10
350.0116911579607
 20
416.1190894879473
 10
350.0820000000003
 20
416.7714894714663
 10
350.0820000000003
 20
416.7714894714663
 10
350.0820000000003
 20
416.7714894714663
 10
350.0820000000003
 20
417.3808894560716
 10
350.0820000000003
 20
417.3808894560716
 10
350.0820000000003
 20
417.3808894560716
 10
342.5097913474747
 20
417.3808894560716
 10
342.5097913474747
 20
417.3808894560716
 10
342.5097913474747
 20
417.3808894560716
 10
342.5097913474747
 20
416.6874894735884
 10
342.5097913474747
 20
416.6874894735884
 10
342.5097913474747
 20
416.6874894735884
 10
343.1229999999996
 20
413.4706895548516
 10
343.1229999999996
 20
413.4706895548516
 10
343.1229999999996
 20
413.4706895548516
 10
343.1229999999996
 20
413.4706895548516
 10
343.1229999999996
 20
413.4706895548516
 97
        0
 92
        1
 93
        1
 72
     4
 94
        3
 73
     0
 74
     1
 95
       32
 96
       28
 40
0.0
 40
0.0
 40
0.0
 40
0.0
 40
1.0
 40
1.0
 40
1.0
 40
2.0
 40
2.0
 40
2.0
 40
3.0
 40
3.0
 40
3.0
 40
4.0
 40
4.0
 40
4.0
 40
5.0
 40
5.0
 40
5.0
 40
6.0
 40
6.0
 40
6.0
 40
7.0
 40
7.0
 40
7.0
 40
8.0
 40
8.0
 40
8.0
 40
9.0
 40
9.0
 40
9.0
 40
9.0
 10
343.1142913322037
 20
411.7520000000004
 10
342.7743913407903
 20
411.7520000000004
 10
342.4657913485862
 20
411.6132896017734
 10
342.2440913541868
 20
411.391589607374
 10
342.0214913598102
 20
411.1679999999997
 10
341.882791363314
 20
410.8603896207933
 10
341.882791363314
 20
410.5204896293799
 10
341.882791363314
 20
410.1796896379892
 10
342.0214913598102
 20
409.8729999999996
 10
342.2440913541868
 20
409.6493896513857
 10
342.4657913485862
 20
409.4276896569863
 10
342.7743913407903
 20
409.2890896604877
 10
343.1142913322037
 20
409.2890896604877
 10
343.4540913236197
 20
409.2890896604877
 10
343.761691315849
 20
409.4276896569863
 10
343.9853913101979
 20
409.6493896513857
 10
344.2070000000003
 20
409.8729999999996
 10
344.3456913010959
 20
410.1796896379892
 10
344.3456913010959
 20
410.5204896293799
 10
344.3456913010959
 20
410.8603896207933
 10
344.2070000000003
 20
411.1679999999997
 10
343.9853913101979
 20
411.391589607374
 10
343.761691315849
 20
411.6132896017734
 10
343.4540913236197
 20
411.7520000000004
 10
343.1142913322037
 20
411.7520000000004
 10
343.1142913322037
 20
411.7520000000004
 10
343.1142913322037
 20
411.7520000000004
 10
343.1142913322037
 20
411.7520000000004
 97
        0
 92
        1
 93
        1
 72
     4
 94
        3
 73
     0
 74
     1
 95
       32
 96
       28
 40
0.0
 40
0.0
 40
0.0
 40
0.0
 40
1.0
 40
1.0
 40
1.0
 40
2.0
 40
2.0
 40
2.0
 40
3.0
 40
3.0
 40
3.0
 40
4.0
 40
4.0
 40
4.0
 40
5.0
 40
5.0
 40
5.0
 40
6.0
 40
6.0
 40
6.0
 40
7.0
 40
7.0
 40
7.0
 40
8.0
 40
8.0
 40
8.0
 40
9.0
 40
9.0
 40
9.0
 40
9.0
 10
343.843791313775
 20
411.25
 10
343.6571913184889
 20
411.4374896062145
 10
343.3983913250268
 20
411.5517896033271
 10
343.1142913322037
 20
411.5517896033271
 10
342.8290913394085
 20
411.5517896033271
 10
342.5722913458958
 20
411.4374896062145
 10
342.3847913506324
 20
411.25
 10
342.1972913553691
 20
411.0634896156625
 10
342.0820000000003
 20
410.8046896222004
 10
342.0820000000003
 20
410.5204896293799
 10
342.0820000000003
 20
410.2343896366074
 10
342.1972913553691
 20
409.9774896430972
 10
342.3847913506324
 20
409.7909999999993
 10
342.5722913458958
 20
409.6034896525452
 10
342.8290913394085
 20
409.4882896554554
 10
343.1142913322037
 20
409.4882896554554
 10
343.3983913250268
 20
409.4882896554554
 10
343.6571913184889
 20
409.6034896525452
 10
343.843791313775
 20
409.7909999999993
 10
344.0312913090384
 20
409.9774896430972
 10
344.1454913061534
 20
410.2343896366074
 10
344.1454913061534
 20
410.5204896293799
 10
344.1454913061534
 20
410.8046896222004
 10
344.0312913090384
 20
411.0634896156625
 10
343.843791313775
 20
411.25
 10
343.843791313775
 20
411.25
 10
343.843791313775
 20
411.25
 10
343.843791313775
 20
411.25
 97
        0
 92
        1
 93
        1
 72
     4
 94
        3
 73
     0
 74
     1
 95
       32
 96
       28
 40
0.0
 40
0.0
 40
0.0
 40
0.0
 40
1.0
 40
1.0
 40
1.0
 40
2.0
 40
2.0
 40
2.0
 40
3.0
 40
3.0
 40
3.0
 40
4.0
 40
4.0
 40
4.0
 40
5.0
 40
5.0
 40
5.0
 40
6.0
 40
6.0
 40
6.0
 40
7.0
 40
7.0
 40
7.0
 40
8.0
 40
8.0
 40
8.0
 40
9.0
 40
9.0
 40
9.0
 40
9.0
 10
344.1405913062772
 20
411.5478896034256
 10
343.8788913128883
 20
411.8104895967917
 10
343.515591322066
 20
411.9726895926942
 10
343.1142913322037
 20
411.9726895926942
 10
342.7128913423439
 20
411.9726895926942
 10
342.3495913515217
 20
411.8104895967917
 10
342.086891358158
 20
411.5478896034256
 10
341.8241913647944
 20
411.2851896100619
 10
341.6620913688894
 20
410.9218896192397
 10
341.6620913688894
 20
410.5204896293799
 10
341.6620913688894
 20
410.1190896395201
 10
341.8241913647944
 20
409.7558896486953
 10
342.086891358158
 20
409.4931896553317
 10
342.3495913515217
 20
409.230489661968
 10
342.7128913423439
 20
409.068389666063
 10
343.1142913322037
 20
409.068389666063
 10
343.515591322066
 20
409.068389666063
 10
343.8788913128883
 20
409.230489661968
 10
344.1405913062772
 20
409.4931896553317
 10
344.4042912996156
 20
409.7558896486953
 10
344.5673912954953
 20
410.1190896395201
 10
344.5673912954953
 20
410.5204896293799
 10
344.5673912954953
 20
410.9218896192397
 10
344.4042912996156
 20
411.2851896100619
 10
344.1405913062772
 20
411.5478896034256
 10
344.1405913062772
 20
411.5478896034256
 10
344.1405913062772
 20
411.5478896034256
 10
344.1405913062772
 20
411.5478896034256
 97
        0
 92
        1
 93
        6
 72
     1
 10
353.808591062043
 20
418.1425894368294
 11
353.9110910594536
 21
418.2196894348817
 72
     1
 10
353.9110910594536
 20
418.2196894348817
 11
354.0663910555304
 21
418.2196894348817
 72
     1
 10
354.0663910555304
 20
418.2196894348817
 11
354.0663910555304
 21
423.5238893008864
 72
     1
 10
354.0663910555304
 20
423.5238893008864
 11
351.309591125173
 21
423.5238893008864
 72
     1
 10
351.309591125173
 20
423.5238893008864
 11
350.7304911398023
 21
418.1425894368294
 72
     1
 10
350.7304911398023
 20
418.1425894368294
 11
353.808591062043
 21
418.1425894368294
 97
        0
 75
     0
 76
     1
 98
        0
  0
POLYLINE
  5
5B
330
14
100
AcDbEntity
  8
Layer 1
370
     0
100
AcDb2dPolyline
 66
     1
 10
0.0
 20
0.0
 30
0.0
  0
VERTEX
  5
5C
330
5B
100
AcDbEntity
  8
Layer 1
370
     0
100
AcDbVertex
100
AcDb2dVertex
 10
353.808591062043
 20
418.1425894368294
 30
0.0
  0
VERTEX
  5
5D
330
5B
100
AcDbEntity
  8
Layer 1
370
     0
100
AcDbVertex
100
AcDb2dVertex
 10
353.9110910594536
 20
418.2196894348817
 30
0.0
  0
VERTEX
  5
5E
330
5B
100
AcDbEntity
  8
Layer 1
370
     0
100
AcDbVertex
100
AcDb2dVertex
 10
354.0663910555304
 20
418.2196894348817
 30
0.0
  0
VERTEX
  5
5F
330
5B
100
AcDbEntity
  8
Layer 1
370
     0
100
AcDbVertex
100
AcDb2dVertex
 10
354.0663910555304
 20
423.5238893008864
 30
0.0
  0
VERTEX
  5
60
330
5B
100
AcDbEntity
  8
Layer 1
370
     0
100
AcDbVertex
100
AcDb2dVertex
 10
351.309591125173
 20
423.5238893008864
 30
0.0
  0
VERTEX
  5
61
330
5B
100
AcDbEntity
  8
Layer 1
370
     0
100
AcDbVertex
100
AcDb2dVertex
 10
350.7304911398023
 20
418.1425894368294
 30
0.0
  0
VERTEX
  5
62
330
5B
100
AcDbEntity
  8
Layer 1
370
     0
100
AcDbVertex
100
AcDb2dVertex
 10
353.808591062043
 20
418.1425894368294
 30
0.0
  0
SEQEND
  5
63
330
5B
100
AcDbEntity
  8
Layer 1
370
     0
  0
POLYLINE
  5
64
330
14
100
AcDbEntity
  8
Layer 1
370
     0
100
AcDb2dPolyline
 66
     1
 10
0.0
 20
0.0
 30
0.0
  0
VERTEX
  5
65
330
64
100
AcDbEntity
  8
Layer 1
370
     0
100
AcDbVertex
100
AcDb2dVertex
 10
358.2323909502884
 20
418.2196894348817
 30
0.0
  0
VERTEX
  5
66
330
64
100
AcDbEntity
  8
Layer 1
370
     0
100
AcDbVertex
100
AcDb2dVertex
 10
358.2323909502884
 20
423.5238893008864
 30
0.0
  0
VERTEX
  5
67
330
64
100
AcDbEntity
  8
Layer 1
370
     0
100
AcDbVertex
100
AcDb2dVertex
 10
354.8153910366091
 20
423.5238893008864
 30
0.0
  0
VERTEX
  5
68
330
64
100
AcDbEntity
  8
Layer 1
370
     0
100
AcDbVertex
100
AcDb2dVertex
 10
354.8153910366091
 20
418.2196894348817
 30
0.0
  0
VERTEX
  5
69
330
64
100
AcDbEntity
  8
Layer 1
370
     0
100
AcDbVertex
100
AcDb2dVertex
 10
358.2323909502884
 20
418.2196894348817
 30
0.0
  0
VERTEX
  5
6A
330
64
100
AcDbEntity
  8
Layer 1
370
     0
100
AcDbVertex
100
AcDb2dVertex
 10
358.2323909502884
 20
418.2196894348817
 30
0.0
  0
SEQEND
  5
6B
330
64
100
AcDbEntity
  8
Layer 1
370
     0
  0
SPLINE
  5
6C
330
14
100
AcDbEntity
  8
Layer 1
370
     0
100
AcDbSpline
210
0.0
220
0.0
230
1.0
 70
    11
 71
     3
 72
    44
 73
    40
 74
     0
 42
0.000000001
 43
0.0000000001
 40
0.0
 40
0.0
 40
0.0
 40
0.0
 40
1.0
 40
1.0
 40
1.0
 40
2.0
 40
2.0
 40
2.0
 40
3.0
 40
3.0
 40
3.0
 40
4.0
 40
4.0
 40
4.0
 40
5.0
 40
5.0
 40
5.0
 40
6.0
 40
6.0
 40
6.0
 40
7.0
 40
7.0
 40
7.0
 40
8.0
 40
8.0
 40
8.0
 40
9.0
 40
9.0
 40
9.0
 40
10.0
 40
10.0
 40
10.0
 40
11.0
 40
11.0
 40
11.0
 40
12.0
 40
12.0
 40
12.0
 40
13.0
 40
13.0
 40
13.0
 40
13.0
 10
370.3739999999998
 20
422.3324893309837
 30
0.0
 10
370.1171906500531
 20
422.640089323213
 30
0.0
 10
369.7597906590818
 20
422.8153893187846
 30
0.0
 10
369.3886906684565
 20
422.8490893179332
 30
0.0
 10
369.3886906684565
 20
422.8490893179332
 30
0.0
 10
369.3886906684565
 20
422.850089317908
 30
0.0
 10
369.3886906684565
 20
422.850089317908
 30
0.0
 10
369.0175906778313
 20
422.8847893170314
 30
0.0
 10
368.6327906875522
 20
422.7772893197471
 30
0.0
 10
368.3241906953481
 20
422.5204893262344
 30
0.0
 10
368.015590703144
 20
422.264589332699
 30
0.0
 10
367.8407907075598
 20
421.9071893417276
 30
0.0
 10
367.8065907084238
 20
421.535589351115
 30
0.0
 10
367.8065907084238
 20
421.535589351115
 30
0.0
 10
367.8065907084238
 20
421.5346893511378
 30
0.0
 10
367.8065907084238
 20
421.5346893511378
 30
0.0
 10
367.8065907084238
 20
421.5346893511378
 30
0.0
 10
367.8065907084238
 20
421.533689351163
 30
0.0
 10
367.8065907084238
 20
421.533689351163
 30
0.0
 10
367.7724907092852
 20
421.1625893605378
 30
0.0
 10
367.879890706572
 20
420.7787893702334
 30
0.0
 10
368.1347907001327
 20
420.4706893780167
 30
0.0
 10
368.3925906936201
 20
420.1620893858126
 30
0.0
 10
368.75
 20
419.9853893902764
 30
0.0
 10
369.1229999999996
 20
419.9520893911176
 30
0.0
 10
369.1229999999996
 20
419.9520893911176
 30
0.0
 10
369.1229999999996
 20
419.9530893910924
 30
0.0
 10
369.1229999999996
 20
419.9530893910924
 30
0.0
 10
369.4940906657939
 20
419.9188893919563
 30
0.0
 10
369.8770000000004
 20
420.0263893892406
 30
0.0
 10
370.1854906483277
 20
420.2821893827786
 30
0.0
 10
370.4940906405318
 20
420.5395893762761
 30
0.0
 10
370.6698906360907
 20
420.8969999999999
 30
0.0
 10
370.703090635252
 20
421.2675893578853
 30
0.0
 10
370.7382906343628
 20
421.6395893484878
 30
0.0
 10
370.6308906370759
 20
422.0228893388048
 30
0.0
 10
370.3739999999998
 20
422.3324893309837
 30
0.0
 10
370.3739999999998
 20
422.3324893309837
 30
0.0
 10
370.3739999999998
 20
422.3324893309837
 30
0.0
 10
370.3739999999998
 20
422.3324893309837
 30
0.0
  0
SPLINE
  5
6D
330
14
100
AcDbEntity
  8
Layer 1
370
     0
100
AcDbSpline
210
0.0
220
0.0
230
1.0
 70
    11
 71
     3
 72
    83
 73
    79
 74
     0
 42
0.000000001
 43
0.0000000001
 40
0.0
 40
0.0
 40
0.0
 40
0.0
 40
1.0
 40
1.0
 40
1.0
 40
2.0
 40
2.0
 40
2.0
 40
3.0
 40
3.0
 40
3.0
 40
4.0
 40
4.0
 40
4.0
 40
5.0
 40
5.0
 40
5.0
 40
6.0
 40
6.0
 40
6.0
 40
7.0
 40
7.0
 40
7.0
 40
8.0
 40
8.0
 40
8.0
 40
9.0
 40
9.0
 40
9.0
 40
10.0
 40
10.0
 40
10.0
 40
11.0
 40
11.0
 40
11.0
 40
12.0
 40
12.0
 40
12.0
 40
13.0
 40
13.0
 40
13.0
 40
14.0
 40
14.0
 40
14.0
 40
15.0
 40
15.0
 40
15.0
 40
16.0
 40
16.0
 40
16.0
 40
17.0
 40
17.0
 40
17.0
 40
18.0
 40
18.0
 40
18.0
 40
19.0
 40
19.0
 40
19.0
 40
20.0
 40
20.0
 40
20.0
 40
21.0
 40
21.0
 40
21.0
 40
22.0
 40
22.0
 40
22.0
 40
23.0
 40
23.0
 40
23.0
 40
24.0
 40
24.0
 40
24.0
 40
25.0
 40
25.0
 40
25.0
 40
26.0
 40
26.0
 40
26.0
 40
26.0
 10
362.0429999999997
 20
418.2265894347074
 30
0.0
 10
362.0429999999997
 20
418.2265894347074
 30
0.0
 10
362.1669999999995
 20
417.3983894556295
 30
0.0
 10
362.1669999999995
 20
417.3983894556295
 30
0.0
 10
362.4726908431694
 20
417.646489449362
 30
0.0
 10
362.8495908336481
 20
417.75
 30
0.0
 10
363.2147908244224
 20
417.7167894475861
 30
0.0
 10
363.2147908244224
 20
417.7167894475861
 30
0.0
 10
363.2147908244224
 20
417.7147894476366
 30
0.0
 10
363.2147908244224
 20
417.7147894476366
 30
0.0
 10
363.5858908150476
 20
417.680689448498
 30
0.0
 10
363.9452908059684
 20
417.5058894529138
 30
0.0
 10
364.2011907995038
 20
417.1972894607097
 30
0.0
 10
364.4580000000005
 20
416.8886894685056
 30
0.0
 10
364.5644907903261
 20
416.5038894782265
 30
0.0
 10
364.5312907911648
 20
416.1347894875507
 30
0.0
 10
364.4970907920288
 20
415.761689496976
 30
0.0
 10
364.3222907964446
 20
415.4042895060047
 30
0.0
 10
364.0126908042657
 20
415.147489512492
 30
0.0
 10
363.7050908120364
 20
414.8915895189566
 30
0.0
 10
363.3202908217572
 20
414.7841895216698
 30
0.0
 10
362.949190831132
 20
414.8183895208058
 30
0.0
 10
362.949190831132
 20
414.8183895208058
 30
0.0
 10
362.949190831132
 20
414.8183895208058
 30
0.0
 10
362.949190831132
 20
414.8183895208058
 30
0.0
 10
362.8085908346839
 20
414.8300895205102
 30
0.0
 10
362.6698908381877
 20
414.8632895196715
 30
0.0
 10
362.5370908415425
 20
414.9159999999993
 30
0.0
 10
362.5370908415425
 20
414.9159999999993
 30
0.0
 10
362.5546908410979
 20
414.8075895210786
 30
0.0
 10
362.5546908410979
 20
414.8075895210786
 30
0.0
 10
362.5546908410979
 20
414.8075895210786
 30
0.0
 10
362.619090839471
 20
414.5644895272198
 30
0.0
 10
362.619090839471
 20
414.5644895272198
 30
0.0
 10
362.619090839471
 20
414.5644895272198
 30
0.0
 10
362.4755908430961
 20
414.5253895282076
 30
0.0
 10
362.4755908430961
 20
414.5253895282076
 30
0.0
 10
362.4755908430961
 20
414.5253895282076
 30
0.0
 10
362.4687908432679
 20
414.4979999999996
 30
0.0
 10
362.4687908432679
 20
414.4979999999996
 30
0.0
 10
362.4687908432679
 20
414.4979999999996
 30
0.0
 10
362.3397908465267
 20
414.4892895291196
 30
0.0
 10
362.3397908465267
 20
414.4892895291196
 30
0.0
 10
362.3397908465267
 20
414.4892895291196
 30
0.0
 10
361.5116908674463
 20
414.2675895347202
 30
0.0
 10
361.5116908674463
 20
414.2675895347202
 30
0.0
 10
361.802690860095
 20
414.05858954
 30
0.0
 10
362.1562908511623
 20
413.890589544244
 30
0.0
 10
362.5126908421589
 20
413.7987895465631
 30
0.0
 10
362.9853908302175
 20
413.678689549597
 30
0.0
 10
363.4511908184504
 20
413.6952895491777
 30
0.0
 10
363.75
 20
413.9433895429102
 30
0.0
 10
363.7675908104575
 20
413.9590000000007
 30
0.0
 10
363.7802908101366
 20
413.9696895422458
 30
0.0
 10
363.7870908099649
 20
413.974589542122
 30
0.0
 10
363.7870908099649
 20
413.974589542122
 30
0.0
 10
370.4120906426033
 20
420.2343893839861
 30
0.0
 10
370.4120906426033
 20
420.2343893839861
 30
0.0
 10
370.7577906338702
 20
420.5590893757835
 30
0.0
 10
370.9628906286889
 20
420.9853893650143
 30
0.0
 10
371.0020000000004
 20
421.4188893540631
 30
0.0
 10
371.0400000000009
 20
421.8275893437385
 30
0.0
 10
370.9276906295781
 20
422.2445893332042
 30
0.0
 10
370.6425906367804
 20
422.5863893245696
 30
0.0
 10
370.6425906367804
 20
422.5863893245696
 30
0.0
 10
370.6425906367804
 20
422.5863893245696
 30
0.0
 10
370.6425906367804
 20
422.5863893245696
 30
0.0
 10
370.3573906439851
 20
422.928189315935
 30
0.0
 10
369.968790653802
 20
423.115189311211
 30
0.0
 10
369.5604906641165
 20
423.1522893102738
 30
0.0
 10
369.1270000000004
 20
423.1923893092608
 30
0.0
 10
368.6718906865644
 20
423.0678893124059
 30
0.0
 10
368.2870906962853
 20
422.7885893194616
 30
0.0
 10
368.2870906962853
 20
422.7885893194616
 30
0.0
 10
362.0429999999997
 20
418.2265894347074
 30
0.0
 10
362.0429999999997
 20
418.2265894347074
 30
0.0
 10
362.0429999999997
 20
418.2265894347074
 30
0.0
 10
362.0429999999997
 20
418.2265894347074
 30
0.0
 10
362.0429999999997
 20
418.2265894347074
 30
0.0
  0
SPLINE
  5
6E
330
14
100
AcDbEntity
  8
Layer 1
370
     0
100
AcDbSpline
210
0.0
220
0.0
230
1.0
 70
    11
 71
     3
 72
   527
 73
   523
 74
     0
 42
0.000000001
 43
0.0000000001
 40
0.0
 40
0.0
 40
0.0
 40
0.0
 40
1.0
 40
1.0
 40
1.0
 40
2.0
 40
2.0
 40
2.0
 40
3.0
 40
3.0
 40
3.0
 40
4.0
 40
4.0
 40
4.0
 40
5.0
 40
5.0
 40
5.0
 40
6.0
 40
6.0
 40
6.0
 40
7.0
 40
7.0
 40
7.0
 40
8.0
 40
8.0
 40
8.0
 40
9.0
 40
9.0
 40
9.0
 40
10.0
 40
10.0
 40
10.0
 40
11.0
 40
11.0
 40
11.0
 40
12.0
 40
12.0
 40
12.0
 40
13.0
 40
13.0
 40
13.0
 40
14.0
 40
14.0
 40
14.0
 40
15.0
 40
15.0
 40
15.0
 40
16.0
 40
16.0
 40
16.0
 40
17.0
 40
17.0
 40
17.0
 40
18.0
 40
18.0
 40
18.0
 40
19.0
 40
19.0
 40
19.0
 40
20.0
 40
20.0
 40
20.0
 40
21.0
 40
21.0
 40
21.0
 40
22.0
 40
22.0
 40
22.0
 40
23.0
 40
23.0
 40
23.0
 40
24.0
 40
24.0
 40
24.0
 40
25.0
 40
25.0
 40
25.0
 40
26.0
 40
26.0
 40
26.0
 40
27.0
 40
27.0
 40
27.0
 40
28.0
 40
28.0
 40
28.0
 40
29.0
 40
29.0
 40
29.0
 40
30.0
 40
30.0
 40
30.0
 40
31.0
 40
31.0
 40
31.0
 40
32.0
 40
32.0
 40
32.0
 40
33.0
 40
33.0
 40
33.0
 40
34.0
 40
34.0
 40
34.0
 40
35.0
 40
35.0
 40
35.0
 40
36.0
 40
36.0
 40
36.0
 40
37.0
 40
37.0
 40
37.0
 40
38.0
 40
38.0
 40
38.0
 40
39.0
 40
39.0
 40
39.0
 40
40.0
 40
40.0
 40
40.0
 40
41.0
 40
41.0
 40
41.0
 40
42.0
 40
42.0
 40
42.0
 40
43.0
 40
43.0
 40
43.0
 40
44.0
 40
44.0
 40
44.0
 40
45.0
 40
45.0
 40
45.0
 40
46.0
 40
46.0
 40
46.0
 40
47.0
 40
47.0
 40
47.0
 40
48.0
 40
48.0
 40
48.0
 40
49.0
 40
49.0
 40
49.0
 40
50.0
 40
50.0
 40
50.0
 40
51.0
 40
51.0
 40
51.0
 40
52.0
 40
52.0
 40
52.0
 40
53.0
 40
53.0
 40
53.0
 40
54.0
 40
54.0
 40
54.0
 40
55.0
 40
55.0
 40
55.0
 40
56.0
 40
56.0
 40
56.0
 40
57.0
 40
57.0
 40
57.0
 40
58.0
 40
58.0
 40
58.0
 40
59.0
 40
59.0
 40
59.0
 40
60.0
 40
60.0
 40
60.0
 40
61.0
 40
61.0
 40
61.0
 40
62.0
 40
62.0
 40
62.0
 40
63.0
 40
63.0
 40
63.0
 40
64.0
 40
64.0
 40
64.0
 40
65.0
 40
65.0
 40
65.0
 40
66.0
 40
66.0
 40
66.0
 40
67.0
 40
67.0
 40
67.0
 40
68.0
 40
68.0
 40
68.0
 40
69.0
 40
69.0
 40
69.0
 40
70.0
 40
70.0
 40
70.0
 40
71.0
 40
71.0
 40
71.0
 40
72.0
 40
72.0
 40
72.0
 40
73.0
 40
73.0
 40
73.0
 40
74.0
 40
74.0
 40
74.0
 40
75.0
 40
75.0
 40
75.0
 40
76.0
 40
76.0
 40
76.0
 40
77.0
 40
77.0
 40
77.0
 40
78.0
 40
78.0
 40
78.0
 40
79.0
 40
79.0
 40
79.0
 40
80.0
 40
80.0
 40
80.0
 40
81.0
 40
81.0
 40
81.0
 40
82.0
 40
82.0
 40
82.0
 40
83.0
 40
83.0
 40
83.0
 40
84.0
 40
84.0
 40
84.0
 40
85.0
 40
85.0
 40
85.0
 40
86.0
 40
86.0
 40
86.0
 40
87.0
 40
87.0
 40
87.0
 40
88.0
 40
88.0
 40
88.0
 40
89.0
 40
89.0
 40
89.0
 40
90.0
 40
90.0
 40
90.0
 40
91.0
 40
91.0
 40
91.0
 40
92.0
 40
92.0
 40
92.0
 40
93.0
 40
93.0
 40
93.0
 40
94.0
 40
94.0
 40
94.0
 40
95.0
 40
95.0
 40
95.0
 40
96.0
 40
96.0
 40
96.0
 40
97.0
 40
97.0
 40
97.0
 40
98.0
 40
98.0
 40
98.0
 40
99.0
 40
99.0
 40
99.0
 40
100.0
 40
100.0
 40
100.0
 40
101.0
 40
101.0
 40
101.0
 40
102.0
 40
102.0
 40
102.0
 40
103.0
 40
103.0
 40
103.0
 40
104.0
 40
104.0
 40
104.0
 40
105.0
 40
105.0
 40
105.0
 40
106.0
 40
106.0
 40
106.0
 40
107.0
 40
107.0
 40
107.0
 40
108.0
 40
108.0
 40
108.0
 40
109.0
 40
109.0
 40
109.0
 40
110.0
 40
110.0
 40
110.0
 40
111.0
 40
111.0
 40
111.0
 40
112.0
 40
112.0
 40
112.0
 40
113.0
 40
113.0
 40
113.0
 40
114.0
 40
114.0
 40
114.0
 40
115.0
 40
115.0
 40
115.0
 40
116.0
 40
116.0
 40
116.0
 40
117.0
 40
117.0
 40
117.0
 40
118.0
 40
118.0
 40
118.0
 40
119.0
 40
119.0
 40
119.0
 40
120.0
 40
120.0
 40
120.0
 40
121.0
 40
121.0
 40
121.0
 40
122.0
 40
122.0
 40
122.0
 40
123.0
 40
123.0
 40
123.0
 40
124.0
 40
124.0
 40
124.0
 40
125.0
 40
125.0
 40
125.0
 40
126.0
 40
126.0
 40
126.0
 40
127.0
 40
127.0
 40
127.0
 40
128.0
 40
128.0
 40
128.0
 40
129.0
 40
129.0
 40
129.0
 40
130.0
 40
130.0
 40
130.0
 40
131.0
 40
131.0
 40
131.0
 40
132.0
 40
132.0
 40
132.0
 40
133.0
 40
133.0
 40
133.0
 40
134.0
 40
134.0
 40
134.0
 40
135.0
 40
135.0
 40
135.0
 40
136.0
 40
136.0
 40
136.0
 40
137.0
 40
137.0
 40
137.0
 40
138.0
 40
138.0
 40
138.0
 40
139.0
 40
139.0
 40
139.0
 40
140.0
 40
140.0
 40
140.0
 40
141.0
 40
141.0
 40
141.0
 40
142.0
 40
142.0
 40
142.0
 40
143.0
 40
143.0
 40
143.0
 40
144.0
 40
144.0
 40
144.0
 40
145.0
 40
145.0
 40
145.0
 40
146.0
 40
146.0
 40
146.0
 40
147.0
 40
147.0
 40
147.0
 40
148.0
 40
148.0
 40
148.0
 40
149.0
 40
149.0
 40
149.0
 40
150.0
 40
150.0
 40
150.0
 40
151.0
 40
151.0
 40
151.0
 40
152.0
 40
152.0
 40
152.0
 40
153.0
 40
153.0
 40
153.0
 40
154.0
 40
154.0
 40
154.0
 40
155.0
 40
155.0
 40
155.0
 40
156.0
 40
156.0
 40
156.0
 40
157.0
 40
157.0
 40
157.0
 40
158.0
 40
158.0
 40
158.0
 40
159.0
 40
159.0
 40
159.0
 40
160.0
 40
160.0
 40
160.0
 40
161.0
 40
161.0
 40
161.0
 40
162.0
 40
162.0
 40
162.0
 40
163.0
 40
163.0
 40
163.0
 40
164.0
 40
164.0
 40
164.0
 40
165.0
 40
165.0
 40
165.0
 40
166.0
 40
166.0
 40
166.0
 40
167.0
 40
167.0
 40
167.0
 40
168.0
 40
168.0
 40
168.0
 40
169.0
 40
169.0
 40
169.0
 40
170.0
 40
170.0
 40
170.0
 40
171.0
 40
171.0
 40
171.0
 40
172.0
 40
172.0
 40
172.0
 40
173.0
 40
173.0
 40
173.0
 40
174.0
 40
174.0
 40
174.0
 40
174.0
 10
342.1337913569732
 20
418.1288894371755
 30
0.0
 10
342.1337913569732
 20
418.1288894371755
 30
0.0
 10
350.2284911524839
 20
418.1288894371755
 30
0.0
 10
350.2284911524839
 20
418.1288894371755
 30
0.0
 10
350.2284911524839
 20
418.1288894371755
 30
0.0
 10
350.8085911378294
 20
423.5238893008864
 30
0.0
 10
350.8085911378294
 20
423.5238893008864
 30
0.0
 10
350.8085911378294
 20
423.5238893008864
 30
0.0
 10
350.4257911474997
 20
423.5238893008864
 30
0.0
 10
350.4257911474997
 20
423.5238893008864
 30
0.0
 10
350.4257911474997
 20
423.5238893008864
 30
0.0
 10
350.4257911474997
 20
424.3895892790169
 30
0.0
 10
350.4257911474997
 20
424.3895892790169
 30
0.0
 10
350.4257911474997
 20
424.3895892790169
 30
0.0
 10
353.5087910696166
 20
424.8886892664086
 30
0.0
 10
353.5087910696166
 20
424.8886892664086
 30
0.0
 10
353.5087910696166
 20
424.8886892664086
 30
0.0
 10
359.59959091575
 20
424.8886892664086
 30
0.0
 10
359.59959091575
 20
424.8886892664086
 30
0.0
 10
359.59959091575
 20
424.8886892664086
 30
0.0
 10
359.8495909094345
 20
423.5238893008864
 30
0.0
 10
359.8495909094345
 20
423.5238893008864
 30
0.0
 10
359.8495909094345
 20
423.5238893008864
 30
0.0
 10
359.6366909148128
 20
423.5238893008864
 30
0.0
 10
359.6366909148128
 20
423.5238893008864
 30
0.0
 10
359.6366909148128
 20
423.5238893008864
 30
0.0
 10
359.6708909139488
 20
423.0414893130728
 30
0.0
 10
359.6708909139488
 20
423.0414893130728
 30
0.0
 10
359.6708909139488
 20
423.0414893130728
 30
0.0
 10
359.8144909103212
 20
422.0360893384714
 30
0.0
 10
359.8144909103212
 20
422.0360893384714
 30
0.0
 10
359.8144909103212
 20
422.0360893384714
 30
0.0
 10
361.5
 20
421.8617893428745
 30
0.0
 10
361.5
 20
421.8617893428745
 30
0.0
 10
361.5
 20
421.8617893428745
 30
0.0
 10
361.8729999999996
 20
419.3671894058934
 30
0.0
 10
361.8729999999996
 20
419.3671894058934
 30
0.0
 10
361.8729999999996
 20
419.3671894058934
 30
0.0
 10
361.8690908584176
 20
420.0136893895615
 30
0.0
 10
361.8690908584176
 20
420.0136893895615
 30
0.0
 10
362.0663908534334
 20
419.9062893922746
 30
0.0
 10
362.2655908484012
 20
419.8007893949398
 30
0.0
 10
362.462890843417
 20
419.6952893976049
 30
0.0
 10
362.462890843417
 20
419.6952893976049
 30
0.0
 10
362.4472908438111
 20
419.3983894051053
 30
0.0
 10
362.4472908438111
 20
419.3983894051053
 30
0.0
 10
362.4472908438111
 20
419.3983894051053
 30
0.0
 10
363.3202908217572
 20
420.0370893889703
 30
0.0
 10
363.3202908217572
 20
420.0370893889703
 30
0.0
 10
363.3202908217572
 20
420.0370893889703
 30
0.0
 10
363.3144908219037
 20
421.0546893632636
 30
0.0
 10
363.3144908219037
 20
421.0546893632636
 30
0.0
 10
363.5136908168715
 20
420.948189365954
 30
0.0
 10
363.7108908118898
 20
420.8417893686419
 30
0.0
 10
363.9081908069056
 20
420.7353893713298
 30
0.0
 10
363.9081908069056
 20
420.7353893713298
 30
0.0
 10
363.8944908072517
 20
420.4550893784108
 30
0.0
 10
363.8944908072517
 20
420.4550893784108
 30
0.0
 10
363.8944908072517
 20
420.4550893784108
 30
0.0
 10
364.7675907851954
 20
421.0917893623264
 30
0.0
 10
364.7675907851954
 20
421.0917893623264
 30
0.0
 10
364.7675907851954
 20
421.0917893623264
 30
0.0
 10
364.7616907853444
 20
422.0951893369784
 30
0.0
 10
364.7616907853444
 20
422.0951893369784
 30
0.0
 10
364.9590000000007
 20
421.9887893396663
 30
0.0
 10
365.156290775376
 20
421.8817893423693
 30
0.0
 10
365.3554907703437
 20
421.7763893450319
 30
0.0
 10
365.3554907703437
 20
421.7763893450319
 30
0.0
 10
365.3417907706898
 20
421.5111893517314
 30
0.0
 10
365.3417907706898
 20
421.5111893517314
 30
0.0
 10
365.3417907706898
 20
421.5111893517314
 30
0.0
 10
366.2118907487093
 20
422.1478893356471
 30
0.0
 10
366.2118907487093
 20
422.1478893356471
 30
0.0
 10
366.2118907487093
 20
422.1478893356471
 30
0.0
 10
366.2070000000003
 20
423.1366893106679
 30
0.0
 10
366.2070000000003
 20
423.1366893106679
 30
0.0
 10
366.4042907438488
 20
423.0302893133558
 30
0.0
 10
366.6034907388166
 20
422.9237893160462
 30
0.0
 10
366.8007907338324
 20
422.8168893187467
 30
0.0
 10
366.8007907338324
 20
422.8168893187467
 30
0.0
 10
366.789090734128
 20
422.5683893250243
 30
0.0
 10
366.789090734128
 20
422.5683893250243
 30
0.0
 10
366.789090734128
 20
422.5683893250243
 30
0.0
 10
367.6581907121727
 20
423.2035893089778
 30
0.0
 10
367.6581907121727
 20
423.2035893089778
 30
0.0
 10
367.6581907121727
 20
423.2035893089778
 30
0.0
 10
367.6522907123217
 20
424.1771892843826
 30
0.0
 10
367.6522907123217
 20
424.1771892843826
 30
0.0
 10
367.6522907123217
 20
424.1771892843826
 30
0.0
 10
368.2460906973211
 20
423.8583892924362
 30
0.0
 10
368.2460906973211
 20
423.8583892924362
 30
0.0
 10
368.2460906973211
 20
423.8583892924362
 30
0.0
 10
368.2323906976671
 20
423.582489299406
 30
0.0
 10
368.2323906976671
 20
423.582489299406
 30
0.0
 10
368.4198906929305
 20
423.6767892970238
 30
0.0
 10
368.6132906880448
 20
423.7489999999998
 30
0.0
 10
368.8104906830631
 20
423.7963892940024
 30
0.0
 10
368.8104906830631
 20
423.7963892940024
 30
0.0
 10
369.4706906663851
 20
424.6820892716278
 30
0.0
 10
369.4706906663851
 20
424.6820892716278
 30
0.0
 10
369.4706906663851
 20
424.6820892716278
 30
0.0
 10
369.7520000000004
 20
424.0683892871311
 30
0.0
 10
369.7520000000004
 20
424.0683892871311
 30
0.0
 10
369.7520000000004
 20
424.0683892871311
 30
0.0
 10
369.5790906636466
 20
423.8607892923756
 30
0.0
 10
369.5790906636466
 20
423.8607892923756
 30
0.0
 10
369.5790906636466
 20
423.8607892923756
 30
0.0
 10
369.625
 20
423.8573892924614
 30
0.0
 10
369.625
 20
423.8573892924614
 30
0.0
 10
369.7567906591576
 20
423.8451892927696
 30
0.0
 10
369.8876906558507
 20
423.8231892933254
 30
0.0
 10
370.0155906526197
 20
423.7885892941995
 30
0.0
 10
370.0155906526197
 20
423.7885892941995
 30
0.0
 10
371.0663906260743
 20
424.2230892832231
 30
0.0
 10
371.0663906260743
 20
424.2230892832231
 30
0.0
 10
371.0663906260743
 20
424.2230892832231
 30
0.0
 10
370.9960906278502
 20
423.5536893001336
 30
0.0
 10
370.9960906278502
 20
423.5536893001336
 30
0.0
 10
370.9960906278502
 20
423.5536893001336
 30
0.0
 10
370.7304906345598
 20
423.46
 30
0.0
 10
370.7304906345598
 20
423.46
 30
0.0
 10
370.8964906303663
 20
423.3451893054007
 30
0.0
 10
371.0507906264684
 20
423.2040893089652
 30
0.0
 10
371.187490623015
 20
423.0395893131208
 30
0.0
 10
371.187490623015
 20
423.0395893131208
 30
0.0
 10
371.187490623015
 20
423.0395893131208
 30
0.0
 10
371.187490623015
 20
423.0395893131208
 30
0.0
 10
371.187490623015
 20
423.0395893131208
 30
0.0
 10
371.2147906223254
 20
423.006289313962
 30
0.0
 10
371.2147906223254
 20
423.006289313962
 30
0.0
 10
371.2147906223254
 20
423.006289313962
 30
0.0
 10
372.2675905957294
 20
422.789089319449
 30
0.0
 10
372.2675905957294
 20
422.789089319449
 30
0.0
 10
372.2675905957294
 20
422.789089319449
 30
0.0
 10
371.8320000000003
 20
422.273889332464
 30
0.0
 10
371.8320000000003
 20
422.273889332464
 30
0.0
 10
371.8320000000003
 20
422.273889332464
 30
0.0
 10
371.5878906129001
 20
422.338889330822
 30
0.0
 10
371.5878906129001
 20
422.338889330822
 30
0.0
 10
371.6483906113717
 20
422.1684893351267
 30
0.0
 10
371.687490610384
 20
421.9931893395551
 30
0.0
 10
371.7050906099394
 20
421.8163893440214
 30
0.0
 10
371.7050906099394
 20
421.8163893440214
 30
0.0
 10
372.496090589957
 20
421.29
 30
0.0
 10
372.496090589957
 20
421.29
 30
0.0
 10
372.496090589957
 20
421.29
 30
0.0
 10
371.9003906050057
 20
420.9760893652492
 30
0.0
 10
371.9003906050057
 20
420.9760893652492
 30
0.0
 10
371.9003906050057
 20
420.9760893652492
 30
0.0
 10
371.6786906106063
 20
421.141089361081
 30
0.0
 10
371.6786906106063
 20
421.141089361081
 30
0.0
 10
371.6386906116168
 20
420.9193893666816
 30
0.0
 10
371.567390613418
 20
420.7016893721811
 30
0.0
 10
371.4667906159593
 20
420.4940893774256
 30
0.0
 10
371.4667906159593
 20
420.4940893774256
 30
0.0
 10
371.8866906053518
 20
419.7401893964707
 30
0.0
 10
371.8866906053518
 20
419.7401893964707
 30
0.0
 10
371.8866906053518
 20
419.7401893964707
 30
0.0
 10
371.2128906223734
 20
419.7333893966425
 30
0.0
 10
371.2128906223734
 20
419.7333893966425
 30
0.0
 10
371.2128906223734
 20
419.7333893966425
 30
0.0
 10
371.109390624988
 20
419.9452893912894
 30
0.0
 10
371.109390624988
 20
419.9452893912894
 30
0.0
 10
371.0438906266427
 20
419.8661893932876
 30
0.0
 10
370.9735906284186
 20
419.7909999999993
 30
0.0
 10
370.8974906303411
 20
419.7196893969885
 30
0.0
 10
370.8974906303411
 20
419.7196893969885
 30
0.0
 10
370.5526906390514
 20
419.3935894052265
 30
0.0
 10
370.5526906390514
 20
419.3935894052265
 30
0.0
 10
370.5526906390514
 20
419.3935894052265
 30
0.0
 10
370.9540906289112
 20
418.6728894234329
 30
0.0
 10
370.9540906289112
 20
418.6728894234329
 30
0.0
 10
370.9540906289112
 20
418.6728894234329
 30
0.0
 10
370.2792906459581
 20
418.6669999999995
 30
0.0
 10
370.2792906459581
 20
418.6669999999995
 30
0.0
 10
370.2792906459581
 20
418.6669999999995
 30
0.0
 10
370.1229999999996
 20
418.9882894154653
 30
0.0
 10
370.1229999999996
 20
418.9882894154653
 30
0.0
 10
370.1229999999996
 20
418.9882894154653
 30
0.0
 10
369.4735906663118
 20
418.375
 30
0.0
 10
369.4735906663118
 20
418.375
 30
0.0
 10
369.4735906663118
 20
418.375
 30
0.0
 10
369.8710906562701
 20
417.6591894490412
 30
0.0
 10
369.8710906562701
 20
417.6591894490412
 30
0.0
 10
369.646490661944
 20
417.6562894491144
 30
0.0
 10
369.4218906676178
 20
417.6542894491649
 30
0.0
 10
369.1972906732917
 20
417.6522894492155
 30
0.0
 10
369.1972906732917
 20
417.6522894492155
 30
0.0
 10
369.0429999999997
 20
417.96878944122
 30
0.0
 10
369.0429999999997
 20
417.96878944122
 30
0.0
 10
369.0429999999997
 20
417.96878944122
 30
0.0
 10
368.3944906935722
 20
417.3544894567385
 30
0.0
 10
368.3944906935722
 20
417.3544894567385
 30
0.0
 10
368.3944906935722
 20
417.3544894567385
 30
0.0
 10
368.7890906836037
 20
416.6444894746746
 30
0.0
 10
368.7890906836037
 20
416.6444894746746
 30
0.0
 10
368.5644906892776
 20
416.6425894747226
 30
0.0
 10
368.339790694954
 20
416.6395894747984
 30
0.0
 10
368.1142907006506
 20
416.6386894748211
 30
0.0
 10
368.1142907006506
 20
416.6386894748211
 30
0.0
 10
367.9647907044273
 20
416.9491894669773
 30
0.0
 10
367.9647907044273
 20
416.9491894669773
 30
0.0
 10
367.9647907044273
 20
416.9491894669773
 30
0.0
 10
367.3144907208552
 20
416.3349999999991
 30
0.0
 10
367.3144907208552
 20
416.3349999999991
 30
0.0
 10
367.3144907208552
 20
416.3349999999991
 30
0.0
 10
367.7050907109879
 20
415.6308895002803
 30
0.0
 10
367.7050907109879
 20
415.6308895002803
 30
0.0
 10
367.481390716639
 20
415.6278895003561
 30
0.0
 10
367.2558907223356
 20
415.6270000000004
 30
0.0
 10
367.0321907279867
 20
415.6229999999996
 30
0.0
 10
367.0321907279867
 20
415.6229999999996
 30
0.0
 10
366.8837907317356
 20
415.9276894927825
 30
0.0
 10
366.8837907317356
 20
415.9276894927825
 30
0.0
 10
366.8837907317356
 20
415.9276894927825
 30
0.0
 10
366.2343907481409
 20
415.3144895082733
 30
0.0
 10
366.2343907481409
 20
415.3144895082733
 30
0.0
 10
366.2343907481409
 20
415.3144895082733
 30
0.0
 10
366.6229999999996
 20
414.6151895259391
 30
0.0
 10
366.6229999999996
 20
414.6151895259391
 30
0.0
 10
366.3983907439979
 20
414.6132895259871
 30
0.0
 10
366.1737907496718
 20
414.6112895260376
 30
0.0
 10
365.9491907553456
 20
414.6093895260856
 30
0.0
 10
365.9491907553456
 20
414.6093895260856
 30
0.0
 10
365.804690758996
 20
414.9081895185373
 30
0.0
 10
365.804690758996
 20
414.9081895185373
 30
0.0
 10
365.804690758996
 20
414.9081895185373
 30
0.0
 10
365.1542907754265
 20
414.2948895340305
 30
0.0
 10
365.1542907754265
 20
414.2948895340305
 30
0.0
 10
365.1542907754265
 20
414.2948895340305
 30
0.0
 10
365.5409999999993
 20
413.6015895515447
 30
0.0
 10
365.5409999999993
 20
413.6015895515447
 30
0.0
 10
365.5409999999993
 20
413.6015895515447
 30
0.0
 10
364.8661907827045
 20
413.5956895516938
 30
0.0
 10
364.8661907827045
 20
413.5956895516938
 30
0.0
 10
364.8661907827045
 20
413.5956895516938
 30
0.0
 10
364.7245907862816
 20
413.888689544292
 30
0.0
 10
364.7245907862816
 20
413.888689544292
 30
0.0
 10
364.7245907862816
 20
413.888689544292
 30
0.0
 10
364.2714907977279
 20
413.4608895550991
 30
0.0
 10
364.2714907977279
 20
413.4608895550991
 30
0.0
 10
364.2440907984201
 20
413.4354895557408
 30
0.0
 10
364.2206907990112
 20
413.4140895562814
 30
0.0
 10
364.2011907995038
 20
413.398389556678
 30
0.0
 10
363.7099999999991
 20
412.988289567038
 30
0.0
 10
363.0136908295026
 20
412.9403895682481
 30
0.0
 10
362.3378908465747
 20
413.1132895638802
 30
0.0
 10
362.1952908501771
 20
413.150389562943
 30
0.0
 10
362.0536908537542
 20
413.1962895617835
 30
0.0
 10
361.9159999999993
 20
413.25
 30
0.0
 10
361.9022908575789
 20
412.9315895684704
 30
0.0
 10
361.8407908591325
 20
412.6464895756726
 30
0.0
 10
361.7284908619695
 20
412.3983895819401
 30
0.0
 10
361.7284908619695
 20
412.3983895819401
 30
0.0
 10
361.6933908628562
 20
412.3886895821852
 30
0.0
 10
361.6933908628562
 20
412.3886895821852
 30
0.0
 10
361.6767908632755
 20
411.9237895939295
 30
0.0
 10
361.5976908652738
 20
411.475589605252
 30
0.0
 10
361.4628908686791
 20
411.0526896159354
 30
0.0
 10
361.4628908686791
 20
411.0526896159354
 30
0.0
 10
361.5429999999997
 20
411.0927896149224
 30
0.0
 10
361.5429999999997
 20
411.0927896149224
 30
0.0
 10
361.6288908644856
 20
411.0595896157611
 30
0.0
 10
361.7128908623636
 20
411.025389616625
 30
0.0
 10
361.7968908602415
 20
410.9921896174637
 30
0.0
 10
361.5741908658674
 20
410.504889629774
 30
0.0
 10
361.2987908728246
 20
410.1317896391993
 30
0.0
 10
360.9647908812622
 20
409.8905896452925
 30
0.0
 10
360.9647908812622
 20
409.8905896452925
 30
0.0
 10
360.9296908821489
 20
409.9013896450197
 30
0.0
 10
360.9296908821489
 20
409.9013896450197
 30
0.0
 10
360.7265908872796
 20
409.5800896531364
 30
0.0
 10
360.4911908932263
 20
409.2831896606367
 30
0.0
 10
360.2245908999612
 20
409.0175896673463
 30
0.0
 10
360.169890901343
 20
408.9628896687282
 30
0.0
 10
360.1151909027249
 20
408.9101896700595
 30
0.0
 10
360.0585909041547
 20
408.8593896713428
 30
0.0
 10
360.0585909041547
 20
408.8593896713428
 30
0.0
 10
360.1503909018356
 20
408.8534896714918
 30
0.0
 10
360.1503909018356
 20
408.8534896714918
 30
0.0
 10
360.2070000000003
 20
408.782189673293
 30
0.0
 10
360.2636908989734
 20
408.7108896750942
 30
0.0
 10
360.3202908975436
 20
408.6386896769181
 30
0.0
 10
359.8827909085958
 20
408.3290896847393
 30
0.0
 10
359.4590000000007
 20
408.1444896894027
 30
0.0
 10
359.0487909296644
 20
408.1034896904384
 30
0.0
 10
359.0487909296644
 20
408.1034896904384
 30
0.0
 10
359.023390930306
 20
408.1288896897968
 30
0.0
 10
359.023390930306
 20
408.1288896897968
 30
0.0
 10
358.6270000000004
 20
407.9188896951018
 30
0.0
 10
358.1991909511271
 20
407.759789699121
 30
0.0
 10
357.75
 20
407.6610897016144
 30
0.0
 10
357.75
 20
407.6610897016144
 30
0.0
 10
357.8251909605751
 20
407.6112897028725
 30
0.0
 10
357.8251909605751
 20
407.6112897028725
 30
0.0
 10
357.8378909602543
 20
407.521489705141
 30
0.0
 10
357.8515909599082
 20
407.4306897074348
 30
0.0
 10
357.8642909595874
 20
407.3407897097059
 30
0.0
 10
357.3300909730824
 20
407.2909999999993
 30
0.0
 10
356.8710909846777
 20
407.3437897096301
 30
0.0
 10
356.4950909941763
 20
407.5116897053886
 30
0.0
 10
356.4950909941763
 20
407.5116897053886
 30
0.0
 10
356.4862909943986
 20
407.5487897044513
 30
0.0
 10
356.4862909943986
 20
407.5487897044513
 30
0.0
 10
356.0214910061404
 20
407.5644897040547
 30
0.0
 10
355.5722910174882
 20
407.6444897020338
 30
0.0
 10
355.1503910281463
 20
407.7792896986284
 30
0.0
 10
355.1503910281463
 20
407.7792896986284
 30
0.0
 10
355.1903910271358
 20
407.6972897006999
 30
0.0
 10
355.1903910271358
 20
407.6972897006999
 30
0.0
 10
355.1562910279972
 20
407.6132897028219
 30
0.0
 10
355.1229999999996
 20
407.5272897049945
 30
0.0
 10
355.0888910296999
 20
407.443389707114
 30
0.0
 10
354.6015910420101
 20
407.6679999999997
 30
0.0
 10
354.2294910514102
 20
407.9433896944829
 30
0.0
 10
353.9882910575034
 20
408.2772896860479
 30
0.0
 10
353.9882910575034
 20
408.2772896860479
 30
0.0
 10
353.9979999999996
 20
408.3124896851587
 30
0.0
 10
353.9979999999996
 20
408.3124896851587
 30
0.0
 10
353.6776910653498
 20
408.5136896800759
 30
0.0
 10
353.3808910728476
 20
408.75
 30
0.0
 10
353.1142910795825
 20
409.0175896673463
 30
0.0
 10
353.0604910809416
 20
409.0712896659898
 30
0.0
 10
353.0077910822729
 20
409.1260000000002
 30
0.0
 10
352.9570000000003
 20
409.1825896631781
 30
0.0
 10
352.9570000000003
 20
409.1825896631781
 30
0.0
 10
352.9511910837027
 20
409.0897896655224
 30
0.0
 10
352.9511910837027
 20
409.0897896655224
 30
0.0
 10
352.8798910855039
 20
409.0331896669522
 30
0.0
 10
352.8085910873051
 20
408.9765896683821
 30
0.0
 10
352.7362910891316
 20
408.9218896697639
 30
0.0
 10
352.4257910969754
 20
409.3573896587623
 30
0.0
 10
352.2411911016388
 20
409.7831896480056
 30
0.0
 10
352.2011911026493
 20
410.1923896376684
 30
0.0
 10
352.2011911026493
 20
410.1923896376684
 30
0.0
 10
352.2265911020077
 20
410.2187896370015
 30
0.0
 10
352.2265911020077
 20
410.2187896370015
 30
0.0
 10
352.015591107338
 20
410.6132896270356
 30
0.0
 10
351.8563911113597
 20
411.0419999999995
 30
0.0
 10
351.7587911138253
 20
411.4921896048327
 30
0.0
 10
351.7587911138253
 20
411.4921896048327
 30
0.0
 10
351.7090000000007
 20
411.4159999999993
 30
0.0
 10
351.7090000000007
 20
411.4159999999993
 30
0.0
 10
351.6171911174024
 20
411.4022896071037
 30
0.0
 10
351.5272911196735
 20
411.3895896074246
 30
0.0
 10
351.437491121942
 20
411.3770000000004
 30
0.0
 10
351.4237911222881
 20
411.5351896037464
 30
0.0
 10
351.4169999999995
 20
411.687489599899
 30
0.0
 10
351.4198911223866
 20
411.8330000000005
 30
0.0
 10
351.4198911223866
 20
411.8330000000005
 30
0.0
 10
350.4394911471536
 20
411.8330000000005
 30
0.0
 10
350.4394911471536
 20
411.8330000000005
 30
0.0
 10
350.4394911471536
 20
411.8330000000005
 30
0.0
 10
347.0487912328099
 20
411.8330000000005
 30
0.0
 10
347.0487912328099
 20
411.8330000000005
 30
0.0
 10
347.0487912328099
 20
411.8330000000005
 30
0.0
 10
347.0487912328099
 20
411.0644896156373
 30
0.0
 10
347.0487912328099
 20
411.0644896156373
 30
0.0
 10
347.0487912328099
 20
411.0644896156373
 30
0.0
 10
346.0136912589587
 20
411.0644896156373
 30
0.0
 10
346.0136912589587
 20
411.0644896156373
 30
0.0
 10
346.04689125812
 20
410.8886896200784
 30
0.0
 10
346.0644912576754
 20
410.7070000000003
 30
0.0
 10
346.0644912576754
 20
410.5204896293799
 30
0.0
 10
346.0644912576754
 20
410.4306896316484
 30
0.0
 10
346.0604912577764
 20
410.342789633869
 30
0.0
 10
346.0526912579735
 20
410.2538896361148
 30
0.0
 10
346.0526912579735
 20
410.2538896361148
 30
0.0
 10
346.1562912553563
 20
410.3397896339447
 30
0.0
 10
346.1562912553563
 20
410.3397896339447
 30
0.0
 10
346.2060912540983
 20
410.3320000000003
 30
0.0
 10
346.2567912528175
 20
410.3241896343388
 30
0.0
 10
346.3065912515594
 20
410.3163896345359
 30
0.0
 10
346.2460912530878
 20
410.0214896419857
 30
0.0
 10
346.1425912557024
 20
409.7831896480056
 30
0.0
 10
345.9892912595751
 20
409.6103896523709
 30
0.0
 10
345.9892912595751
 20
409.6103896523709
 30
0.0
 10
345.9218912612778
 20
409.6142896522724
 30
0.0
 10
345.9218912612778
 20
409.6142896522724
 30
0.0
 10
345.8300912635968
 20
409.3280896595024
 30
0.0
 10
345.6952912670022
 20
409.0604896662626
 30
0.0
 10
345.5253912712942
 20
408.8212896723053
 30
0.0
 10
345.5253912712942
 20
408.8212896723053
 30
0.0
 10
345.6581912679394
 20
408.8437896717369
 30
0.0
 10
345.6581912679394
 20
408.8437896717369
 30
0.0
 10
345.6981912669289
 20
408.8104896725781
 30
0.0
 10
345.7382912659159
 20
408.7792896733663
 30
0.0
 10
345.7772912649307
 20
408.7479999999996
 30
0.0
 10
345.5770912699882
 20
408.5233896798309
 30
0.0
 10
345.3690912752427
 20
408.3690896837288
 30
0.0
 10
345.148391280818
 20
408.2948896856033
 30
0.0
 10
345.148391280818
 20
408.2948896856033
 30
0.0
 10
345.0917912822479
 20
408.3320000000003
 30
0.0
 10
345.0917912822479
 20
408.3320000000003
 30
0.0
 10
344.8729999999996
 20
408.133789689673
 30
0.0
 10
344.625
 20
407.9677896938665
 30
0.0
 10
344.3534913008989
 20
407.843789696999
 30
0.0
 10
344.3534913008989
 20
407.843789696999
 30
0.0
 10
344.4784912977411
 20
407.7948896982343
 30
0.0
 10
344.4784912977411
 20
407.7948896982343
 30
0.0
 10
344.4979999999996
 20
407.7479999999996
 30
0.0
 10
344.5155912968039
 20
407.6991897006519
 30
0.0
 10
344.5331912963593
 20
407.6522897018367
 30
0.0
 10
344.2479999999996
 20
407.5595897041785
 30
0.0
 10
343.9901913100766
 20
407.5302897049187
 30
0.0
 10
343.7636913157985
 20
407.5761897037592
 30
0.0
 10
343.7636913157985
 20
407.5761897037592
 30
0.0
 10
343.7323913165892
 20
407.6347897022788
 30
0.0
 10
343.7323913165892
 20
407.6347897022788
 30
0.0
 10
343.5341913215962
 20
407.5927897033398
 30
0.0
 10
343.3261913268507
 20
407.5702897039082
 30
0.0
 10
343.1142913322037
 20
407.5702897039082
 30
0.0
 10
343.0243913344748
 20
407.5702897039082
 30
0.0
 10
342.9354913367206
 20
407.5741897038097
 30
0.0
 10
342.8485913389159
 20
407.5820000000003
 30
0.0
 10
342.8485913389159
 20
407.5820000000003
 30
0.0
 10
342.9335913367686
 20
407.4784897062273
 30
0.0
 10
342.9335913367686
 20
407.4784897062273
 30
0.0
 10
342.9257913369656
 20
407.4276897075106
 30
0.0
 10
342.9179999999997
 20
407.3770000000004
 30
0.0
 10
342.9101913373597
 20
407.3261897100747
 30
0.0
 10
342.6161913447868
 20
407.3886897084958
 30
0.0
 10
342.3770000000004
 20
407.4921897058812
 30
0.0
 10
342.205091355172
 20
407.6454897020085
 30
0.0
 10
342.205091355172
 20
407.6454897020085
 30
0.0
 10
342.2080000000005
 20
407.7118897003311
 30
0.0
 10
342.2080000000005
 20
407.7118897003311
 30
0.0
 10
341.9218913623263
 20
407.803689698012
 30
0.0
 10
341.6552913690612
 20
407.9394896945814
 30
0.0
 10
341.4150000000009
 20
408.1093896902894
 30
0.0
 10
341.4150000000009
 20
408.1093896902894
 30
0.0
 10
341.4374913745633
 20
407.9765896936442
 30
0.0
 10
341.4374913745633
 20
407.9765896936442
 30
0.0
 10
341.404291375402
 20
407.9364896946572
 30
0.0
 10
341.3729999999996
 20
407.8964896956677
 30
0.0
 10
341.3417913769808
 20
407.8563896966807
 30
0.0
 10
341.1171913826547
 20
408.0565896916232
 30
0.0
 10
340.9628913865527
 20
408.2655896863434
 30
0.0
 10
340.8886913884271
 20
408.4862896807681
 30
0.0
 10
340.8886913884271
 20
408.4862896807681
 30
0.0
 10
340.9257913874899
 20
408.5429999999997
 30
0.0
 10
340.9257913874899
 20
408.5429999999997
 30
0.0
 10
340.7274913924994
 20
408.7606896738362
 30
0.0
 10
340.5624913966676
 20
409.0097896675434
 30
0.0
 10
340.4374913998254
 20
409.2812896606847
 30
0.0
 10
340.4374913998254
 20
409.2812896606847
 30
0.0
 10
340.3895914010354
 20
409.1552896638677
 30
0.0
 10
340.3895914010354
 20
409.1552896638677
 30
0.0
 10
340.341791402243
 20
409.1366896643376
 30
0.0
 10
340.293891403453
 20
409.1190896647822
 30
0.0
 10
340.2460914046605
 20
409.0995896652748
 30
0.0
 10
340.1522914070301
 20
409.3847896580701
 30
0.0
 10
340.125
 20
409.6444896515095
 30
0.0
 10
340.1698914065855
 20
409.8710896457851
 30
0.0
 10
340.1698914065855
 20
409.8710896457851
 30
0.0
 10
340.2294914050799
 20
409.9013896450197
 30
0.0
 10
340.2294914050799
 20
409.9013896450197
 30
0.0
 10
340.1874914061409
 20
410.1015896399622
 30
0.0
 10
340.164091406732
 20
410.3085896347329
 30
0.0
 10
340.164091406732
 20
410.5204896293799
 30
0.0
 10
340.164091406732
 20
410.6103896271088
 30
0.0
 10
340.1679999999997
 20
410.6981896248908
 30
0.0
 10
340.1757914064365
 20
410.7860896226703
 30
0.0
 10
340.1757914064365
 20
410.7860896226703
 30
0.0
 10
340.0722914090511
 20
410.7001896248403
 30
0.0
 10
340.0722914090511
 20
410.7001896248403
 30
0.0
 10
340.0214914103344
 20
410.7090000000007
 30
0.0
 10
339.9716914115925
 20
410.7157896244462
 30
0.0
 10
339.9198914129011
 20
410.7245896242239
 30
0.0
 10
339.9823914113222
 20
411.0194896167741
 30
0.0
 10
340.0858914087075
 20
411.2558896108021
 30
0.0
 10
340.2392914048323
 20
411.4296896064116
 30
0.0
 10
340.2392914048323
 20
411.4296896064116
 30
0.0
 10
340.3056914031549
 20
411.4267896064848
 30
0.0
 10
340.3056914031549
 20
411.4267896064848
 30
0.0
 10
340.3983914008131
 20
411.7128895992573
 30
0.0
 10
340.5331913974078
 20
411.9794895925224
 30
0.0
 10
340.7030913931158
 20
412.2196895864545
 30
0.0
 10
340.7030913931158
 20
412.2196895864545
 30
0.0
 10
340.5702913964706
 20
412.1972895870204
 30
0.0
 10
340.5702913964706
 20
412.1972895870204
 30
0.0
 10
340.5302913974811
 20
412.2284895862322
 30
0.0
 10
340.4901913984941
 20
412.2616895853935
 30
0.0
 10
340.4511913994793
 20
412.29388958458
 30
0.0
 10
340.6503913944471
 20
412.5175895789289
 30
0.0
 10
340.860391389142
 20
412.6718895750309
 30
0.0
 10
341.0800913835919
 20
412.7460895731565
 30
0.0
 10
341.0800913835919
 20
412.7460895731565
 30
0.0
 10
341.1366913821621
 20
412.7090000000007
 30
0.0
 10
341.1366913821621
 20
412.7090000000007
 30
0.0
 10
341.3554913766347
 20
412.9071895690868
 30
0.0
 10
341.6034913703697
 20
413.072289564916
 30
0.0
 10
341.875
 20
413.1972895617582
 30
0.0
 10
341.875
 20
413.1972895617582
 30
0.0
 10
341.75
 20
413.244089560576
 30
0.0
 10
341.75
 20
413.244089560576
 30
0.0
 10
341.7304913671614
 20
413.2929999999997
 30
0.0
 10
341.7128913676061
 20
413.3397895581584
 30
0.0
 10
341.6933913680987
 20
413.3886895569231
 30
0.0
 10
341.9364913619575
 20
413.4677895549248
 30
0.0
 10
342.1601913563063
 20
413.5
 30
0.0
 10
342.3593913512741
 20
413.480489554604
 30
0.0
 10
342.3593913512741
 20
413.480489554604
 30
0.0
 10
341.7675913662242
 20
416.5840000000007
 30
0.0
 10
341.7675913662242
 20
416.5840000000007
 30
0.0
 10
341.7675913662242
 20
416.5840000000007
 30
0.0
 10
341.7597913664213
 20
416.6229999999996
 30
0.0
 10
341.7597913664213
 20
416.6229999999996
 30
0.0
 10
341.7597913664213
 20
416.6229999999996
 30
0.0
 10
341.7597913664213
 20
416.6542894744271
 30
0.0
 10
341.7597913664213
 20
416.6542894744271
 30
0.0
 10
341.7597913664213
 20
416.6542894744271
 30
0.0
 10
341.7597913664213
 20
417.7558894465983
 30
0.0
 10
341.7597913664213
 20
417.7558894465983
 30
0.0
 10
341.7597913664213
 20
417.7558894465983
 30
0.0
 10
341.7597913664213
 20
418.1288894371755
 30
0.0
 10
341.7597913664213
 20
418.1288894371755
 30
0.0
 10
341.7597913664213
 20
418.1288894371755
 30
0.0
 10
342.1337913569732
 20
418.1288894371755
 30
0.0
 10
342.1337913569732
 20
418.1288894371755
 30
0.0
 10
342.1337913569732
 20
418.1288894371755
 30
0.0
 10
342.1337913569732
 20
418.1288894371755
 30
0.0
 10
342.1337913569732
 20
418.1288894371755
 30
0.0
  0
ENDSEC
  0
SECTION
  2
OBJECTS
  0
DICTIONARY
  5
5
330
0
100
AcDbDictionary
281
     1
  3
ACAD_GROUP
350
21
  3
ACAD_LAYOUT
350
18
  3
ACAD_MATERIAL
350
7
  3
ACAD_MLEADERSTYLE
350
72
  3
ACAD_MLINESTYLE
350
12
  3
ACAD_PLOTSETTINGS
350
22
  3
ACAD_PLOTSTYLENAME
350
4
  3
ACAD_SCALELIST
350
29
  3
ACAD_TABLESTYLE
350
71
  3
ACAD_VISUALSTYLE
350
23
  3
AcDbVariableDictionary
350
6F
  0
DICTIONARY
  5
92
330
1F
100
AcDbDictionary
280
     1
281
     1
  3
ACAD_XREC_ROUNDTRIP
360
93
  0
DICTIONARY
  5
21
102
{ACAD_REACTORS
330
5
102
}
330
5
100
AcDbDictionary
281
     1
  0
DICTIONARY
  5
18
102
{ACAD_REACTORS
330
5
102
}
330
5
100
AcDbDictionary
281
     1
  3
Layout1
350
1C
  3
Model
350
17
  0
DICTIONARY
  5
7
102
{ACAD_REACTORS
330
5
102
}
330
5
100
AcDbDictionary
281
     1
  3
ByBlock
350
4C
  3
ByLayer
350
E
  3
Global
350
6
  0
DICTIONARY
  5
72
102
{ACAD_REACTORS
330
5
102
}
330
5
100
AcDbDictionary
281
     1
  3
Standard
350
75
  0
DICTIONARY
  5
12
102
{ACAD_REACTORS
330
5
102
}
330
5
100
AcDbDictionary
281
     1
  3
Standard
350
11
  0
DICTIONARY
  5
22
102
{ACAD_REACTORS
330
5
102
}
330
5
100
AcDbDictionary
281
     1
  0
ACDBDICTIONARYWDFLT
  5
4
102
{ACAD_REACTORS
330
5
102
}
330
5
100
AcDbDictionary
281
     1
  3
Normal
350
3
100
AcDbDictionaryWithDefault
340
3
  0
DICTIONARY
  5
29
102
{ACAD_REACTORS
330
5
102
}
330
5
100
AcDbDictionary
281
     1
  3
*A1
350
4B
  0
DICTIONARY
  5
71
102
{ACAD_REACTORS
330
5
102
}
330
5
100
AcDbDictionary
281
     1
  3
Standard
350
8D
  0
DICTIONARY
  5
23
102
{ACAD_REACTORS
330
5
102
}
330
5
100
AcDbDictionary
281
     1
  3
2dWireframe
350
26
  3
Basic
350
7C
  3
Brighten
350
80
  3
ColorChange
350
84
  3
Conceptual
350
7E
  3
Dim
350
7F
  3
EdgeColorOff
350
87
  3
Facepattern
350
83
  3
Flat
350
76
  3
FlatWithEdges
350
77
  3
Gouraud
350
78
  3
GouraudWithEdges
350
79
  3
Hidden
350
7B
  3
JitterOff
350
85
  3
Linepattern
350
82
  3
OverhangOff
350
86
  3
Realistic
350
7D
  3
Shaded
350
8C
  3
Shaded with edges
350
8B
  3
Shades of Gray
350
88
  3
Sketchy
350
89
  3
Thicken
350
81
  3
Wireframe
350
7A
  3
X-Ray
350
8A
  0
DICTIONARY
  5
6F
102
{ACAD_REACTORS
330
5
102
}
330
5
100
AcDbDictionary
281
     1
  3
CANNOSCALE
350
70
  3
CMLEADERSTYLE
350
8F
  3
CTABLESTYLE
350
8E
  3
DIMASSOC
350
90
  3
HIDETEXT
350
91
  3
MSLTSCALE
350
94
  0
XRECORD
  5
93
102
{ACAD_REACTORS
330
92
102
}
330
92
100
AcDbXrecord
280
     1
102
VTR_0.000_0.000_1.000_1.000_VISUALSTYLE
340
26
102
VTR_0.000_0.000_1.000_1.000_GRIDDISPLAY
 70
     3
102
VTR_0.000_0.000_1.000_1.000_GRIDMAJOR
 70
     5
102
VTR_0.000_0.000_1.000_1.000_DEFAULTLIGHTING
280
     1
102
VTR_0.000_0.000_1.000_1.000_DEFAULTLIGHTINGTYPE
 70
     1
102
VTR_0.000_0.000_1.000_1.000_BRIGHTNESS
141
0.0
102
VTR_0.000_0.000_1.000_1.000_CONTRAST
142
0.0
  0
LAYOUT
  5
1C
102
{ACAD_REACTORS
330
18
102
}
330
18
100
AcDbPlotSettings
  1

  2
none_device
  4
Letter_(8.50_x_11.00_Inches)
  6

 40
6.35
 41
6.35
 42
6.35001
 43
6.35001
 44
215.9
 45
279.4
 46
0.0
 47
0.0
 48
0.0
 49
0.0
140
0.0
141
0.0
142
1.0
143
1.0
 70
   688
 72
     0
 73
     1
 74
     5
  7

 75
    16
147
1.0
148
0.0
149
0.0
100
AcDbLayout
  1
Layout1
 70
     1
 71
     1
 10
0.0
 20
0.0
 11
12.0
 21
9.0
 12
0.0
 22
0.0
 32
0.0
 14
1.000000000000000E+20
 24
1.000000000000000E+20
 34
1.000000000000000E+20
 15
-1.000000000000000E+20
 25
-1.000000000000000E+20
 35
-1.000000000000000E+20
146
0.0
 13
0.0
 23
0.0
 33
0.0
 16
1.0
 26
0.0
 36
0.0
 17
0.0
 27
1.0
 37
0.0
 76
     0
330
19
  0
LAYOUT
  5
17
102
{ACAD_REACTORS
330
18
102
}
330
18
100
AcDbPlotSettings
  1

  2
none_device
  4

  6

 40
0.0
 41
0.0
 42
0.0
 43
0.0
 44
0.0
 45
0.0
 46
0.0
 47
0.0
 48
0.0
 49
0.0
140
0.0
141
0.0
142
1.0
143
1.0
 70
  1712
 72
     0
 73
     0
 74
     0
  7

 75
     0
147
1.0
148
0.0
149
0.0
100
AcDbLayout
  1
Model
 70
     1
 71
     0
 10
0.0
 20
0.0
 11
12.0
 21
9.0
 12
0.0
 22
0.0
 32
0.0
 14
339.9217116874584
 24
407.3228472174027
 34
0.0
 15
372.483094550336
 25
424.8886892664087
 35
0.0
146
0.0
 13
0.0
 23
0.0
 33
0.0
 16
1.0
 26
0.0
 36
0.0
 17
0.0
 27
1.0
 37
0.0
 76
     0
330
14
331
25
  0
MATERIAL
  5
4C
102
{ACAD_REACTORS
330
7
102
}
102
{ACAD_XDICTIONARY
360
99
102
}
330
7
100
AcDbMaterial
  1
ByBlock
  0
MATERIAL
  5
E
102
{ACAD_REACTORS
330
7
102
}
102
{ACAD_XDICTIONARY
360
95
102
}
330
7
100
AcDbMaterial
  1
ByLayer
  0
MATERIAL
  5
6
102
{ACAD_REACTORS
330
7
102
}
102
{ACAD_XDICTIONARY
360
97
102
}
330
7
100
AcDbMaterial
  1
Global
  0
MLEADERSTYLE
  5
75
102
{ACAD_REACTORS
330
72
102
}
102
{ACAD_XDICTIONARY
360
CC
102
}
330
72
100
AcDbMLeaderStyle
170
     2
171
     1
172
     0
 90
        2
 40
0.0
 41
0.0
173
     1
 91
-1056964608
340
A
 92
       -2
290
     1
 42
0.09
291
     1
 43
0.36
  3
Standard
341
0
 44
0.18
300

342
C
174
     1
178
     6
175
     1
176
     0
 93
-1056964608
 45
0.18
292
     0
297
     0
 46
0.18
343
0
 94
-1056964608
 47
1.0
 49
1.0
140
1.0
293
     1
141
0.0
294
     1
177
     0
142
1.0
295
     0
296
     0
143
0.125
1001
ACAD_MLEADERVER
1070
     2
  0
MLINESTYLE
  5
11
102
{ACAD_REACTORS
330
12
102
}
330
12
100
AcDbMlineStyle
  2
Standard
 70
     0
  3

 62
   256
 51
90.0
 52
90.0
 71
     2
 49
0.5
 62
   256
  6
BYLAYER
 49
-0.5
 62
   256
  6
BYLAYER
  0
ACDBPLACEHOLDER
  5
3
102
{ACAD_REACTORS
330
4
102
}
330
4
  0
SCALE
  5
4B
102
{ACAD_REACTORS
330
29
102
}
330
29
100
AcDbScale
 70
     0
300
1:1
140
1.0
141
1.0
290
     1
  0
TABLESTYLE
  5
8D
102
{ACAD_REACTORS
330
71
102
}
330
71
100
AcDbTableStyle
  3
Standard
 70
     0
 71
     0
 40
0.06
 41
0.06
280
     0
281
     0
  7
Standard
140
0.18
170
     2
 62
     0
 63
   257
283
     0
274
    -2
284
     1
 64
     0
275
    -2
285
     1
 65
     0
276
    -2
286
     1
 66
     0
277
    -2
287
     1
 67
     0
278
    -2
288
     1
 68
     0
279
    -2
289
     1
 69
     0
  7
Standard
140
0.25
170
     5
 62
     0
 63
   257
283
     0
274
    -2
284
     1
 64
     0
275
    -2
285
     1
 65
     0
276
    -2
286
     1
 66
     0
277
    -2
287
     1
 67
     0
278
    -2
288
     1
 68
     0
279
    -2
289
     1
 69
     0
  7
Standard
140
0.18
170
     5
 62
     0
 63
   257
283
     0
274
    -2
284
     1
 64
     0
275
    -2
285
     1
 65
     0
276
    -2
286
     1
 66
     0
277
    -2
287
     1
 67
     0
278
    -2
288
     1
 68
     0
279
    -2
289
     1
 69
     0
  0
VISUALSTYLE
  5
26
102
{ACAD_REACTORS
330
23
102
}
102
{ACAD_XDICTIONARY
360
9B
102
}
330
23
100
AcDbVisualStyle
  2
2dWireframe
 70
     4
 71
     0
 72
     2
 73
     0
 90
        0
 40
-0.6
 41
-30.0
 62
     5
 63
     7
 74
     1
 91
        4
 64
     7
 65
   257
 75
     1
175
     1
 42
1.0
 92
        0
 66
   257
 43
1.0
 76
     1
 77
     6
 78
     2
 67
     7
 79
     5
170
     0
171
     0
290
     0
174
     0
 93
        1
 44
0.0
173
     0
291
     0
 45
0.0
1001
ACAD
1000
AcDbSavedByObjectVersion
1070
     0
  0
VISUALSTYLE
  5
7C
102
{ACAD_REACTORS
330
23
102
}
102
{ACAD_XDICTIONARY
360
A9
102
}
330
23
100
AcDbVisualStyle
  2
Basic
 70
     7
 71
     1
 72
     0
 73
     1
 90
        0
 40
0.6
 41
30.0
 62
     5
 63
     7
 74
     0
 91
        4
 64
     7
 65
   257
 75
     1
175
     1
 42
1.0
 92
        8
 66
     7
 43
1.0
 76
     1
 77
     6
 78
     2
 67
     7
 79
     5
170
     0
171
     0
290
     0
174
     0
 93
        1
 44
0.0
173
     0
291
     1
 45
0.0
1001
ACAD
1000
AcDbSavedByObjectVersion
1070
     0
  0
VISUALSTYLE
  5
80
102
{ACAD_REACTORS
330
23
102
}
102
{ACAD_XDICTIONARY
360
B1
102
}
330
23
100
AcDbVisualStyle
  2
Brighten
 70
    12
 71
     2
 72
     2
 73
     0
 90
        0
 40
0.6
 41
30.0
 62
     5
 63
     7
 74
     1
 91
        4
 64
     7
 65
   257
 75
     1
175
     1
 42
1.0
 92
        8
 66
     7
 43
1.0
 76
     1
 77
     6
 78
     2
 67
     7
 79
     5
170
     0
171
     0
290
     0
174
     0
 93
        1
 44
50.0
173
     0
291
     1
 45
0.0
1001
ACAD
1000
AcDbSavedByObjectVersion
1070
     0
  0
VISUALSTYLE
  5
84
102
{ACAD_REACTORS
330
23
102
}
102
{ACAD_XDICTIONARY
360
B9
102
}
330
23
100
AcDbVisualStyle
  2
ColorChange
 70
    16
 71
     2
 72
     2
 73
     3
 90
        0
 40
0.6
 41
30.0
 62
     5
 63
     8
 74
     1
 91
        4
 64
     7
 65
   257
 75
     1
175
     1
 42
1.0
 92
        8
 66
     8
 43
1.0
 76
     1
 77
     6
 78
     2
 67
     7
 79
     5
170
     0
171
     0
290
     0
174
     0
 93
        1
 44
0.0
173
     0
291
     1
 45
0.0
1001
ACAD
1000
AcDbSavedByObjectVersion
1070
     0
  0
VISUALSTYLE
  5
7E
102
{ACAD_REACTORS
330
23
102
}
102
{ACAD_XDICTIONARY
360
AD
102
}
330
23
100
AcDbVisualStyle
  2
Conceptual
 70
     9
 71
     3
 72
     2
 73
     0
 90
        0
 40
0.6
 41
30.0
 62
     5
 63
     7
 74
     2
 91
        2
 64
     7
 65
   257
 75
     1
175
     1
 42
179.0
 92
        8
 66
     7
 43
1.0
 76
     1
 77
     6
 78
     2
 67
     7
 79
     3
170
     0
171
     0
290
     0
174
     0
 93
        1
 44
0.0
173
     0
291
     0
 45
0.0
1001
ACAD
1000
AcDbSavedByObjectVersion
1070
     0
  0
VISUALSTYLE
  5
7F
102
{ACAD_REACTORS
330
23
102
}
102
{ACAD_XDICTIONARY
360
AF
102
}
330
23
100
AcDbVisualStyle
  2
Dim
 70
    11
 71
     2
 72
     2
 73
     0
 90
        0
 40
0.6
 41
30.0
 62
     5
 63
     7
 74
     1
 91
        4
 64
     7
 65
   257
 75
     1
175
     1
 42
1.0
 92
        8
 66
     7
 43
1.0
 76
     1
 77
     6
 78
     2
 67
     7
 79
     5
170
     0
171
     0
290
     0
174
     0
 93
        1
 44
-50.0
173
     0
291
     1
 45
0.0
1001
ACAD
1000
AcDbSavedByObjectVersion
1070
     0
  0
VISUALSTYLE
  5
87
102
{ACAD_REACTORS
330
23
102
}
102
{ACAD_XDICTIONARY
360
BF
102
}
330
23
100
AcDbVisualStyle
  2
EdgeColorOff
 70
    22
 71
     2
 72
     2
 73
     0
 90
        0
 40
0.6
 41
30.0
 62
     5
 63
     7
 74
     1
 91
        4
 64
     7
 65
   257
 75
     1
175
     1
 42
1.0
 92
        8
 66
     7
 43
1.0
 76
     1
 77
     6
 78
     2
 67
     7
 79
     5
170
     0
171
     0
290
     0
174
     0
 93
        1
 44
0.0
173
     0
291
     1
 45
0.0
1001
ACAD
1000
AcDbSavedByObjectVersion
1070
     0
  0
VISUALSTYLE
  5
83
102
{ACAD_REACTORS
330
23
102
}
102
{ACAD_XDICTIONARY
360
B7
102
}
330
23
100
AcDbVisualStyle
  2
Facepattern
 70
    15
 71
     2
 72
     2
 73
     0
 90
        0
 40
0.6
 41
30.0
 62
     5
 63
     7
 74
     1
 91
        4
 64
     7
 65
   257
 75
     1
175
     1
 42
1.0
 92
        8
 66
     7
 43
1.0
 76
     1
 77
     6
 78
     2
 67
     7
 79
     5
170
     0
171
     0
290
     0
174
     0
 93
        1
 44
0.0
173
     0
291
     1
 45
0.0
1001
ACAD
1000
AcDbSavedByObjectVersion
1070
     0
  0
VISUALSTYLE
  5
76
102
{ACAD_REACTORS
330
23
102
}
102
{ACAD_XDICTIONARY
360
9D
102
}
330
23
100
AcDbVisualStyle
  2
Flat
 70
     0
 71
     2
 72
     1
 73
     1
 90
        2
 40
0.6
 41
30.0
 62
     5
 63
     7
 74
     0
 91
        0
 64
     7
 65
   257
 75
     1
175
     1
 42
1.0
 92
        8
 66
     7
 43
1.0
 76
     1
 77
     6
 78
     2
 67
     7
 79
     5
170
     0
171
     0
290
     0
174
     0
 93
       13
 44
0.0
173
     0
291
     1
 45
0.0
1001
ACAD
1000
AcDbSavedByObjectVersion
1070
     0
  0
VISUALSTYLE
  5
77
102
{ACAD_REACTORS
330
23
102
}
102
{ACAD_XDICTIONARY
360
9F
102
}
330
23
100
AcDbVisualStyle
  2
FlatWithEdges
 70
     1
 71
     2
 72
     1
 73
     1
 90
        2
 40
0.6
 41
30.0
 62
     5
 63
     7
 74
     1
 91
        0
 64
     7
 65
   257
 75
     1
175
     1
 42
1.0
 92
        0
 66
   257
 43
1.0
 76
     1
 77
     6
 78
     2
 67
     7
 79
     5
170
     0
171
     0
290
     0
174
     0
 93
       13
 44
0.0
173
     0
291
     1
 45
0.0
1001
ACAD
1000
AcDbSavedByObjectVersion
1070
     0
  0
VISUALSTYLE
  5
78
102
{ACAD_REACTORS
330
23
102
}
102
{ACAD_XDICTIONARY
360
A1
102
}
330
23
100
AcDbVisualStyle
  2
Gouraud
 70
     2
 71
     2
 72
     2
 73
     1
 90
        2
 40
0.6
 41
30.0
 62
     5
 63
     7
 74
     0
 91
        0
 64
     7
 65
   257
 75
     1
175
     1
 42
1.0
 92
        0
 66
     7
 43
1.0
 76
     1
 77
     6
 78
     2
 67
     7
 79
     5
170
     0
171
     0
290
     0
174
     0
 93
       13
 44
0.0
173
     0
291
     1
 45
0.0
1001
ACAD
1000
AcDbSavedByObjectVersion
1070
     0
  0
VISUALSTYLE
  5
79
102
{ACAD_REACTORS
330
23
102
}
102
{ACAD_XDICTIONARY
360
A3
102
}
330
23
100
AcDbVisualStyle
  2
GouraudWithEdges
 70
     3
 71
     2
 72
     2
 73
     1
 90
        2
 40
0.6
 41
30.0
 62
     5
 63
     7
 74
     1
 91
        0
 64
     7
 65
   257
 75
     1
175
     1
 42
1.0
 92
        0
 66
   257
 43
1.0
 76
     1
 77
     6
 78
     2
 67
     7
 79
     5
170
     0
171
     0
290
     0
174
     0
 93
       13
 44
0.0
173
     0
291
     1
 45
0.0
1001
ACAD
1000
AcDbSavedByObjectVersion
1070
     0
  0
VISUALSTYLE
  5
7B
102
{ACAD_REACTORS
330
23
102
}
102
{ACAD_XDICTIONARY
360
A7
102
}
330
23
100
AcDbVisualStyle
  2
Hidden
 70
     6
 71
     1
 72
     2
 73
     2
 90
        0
 40
0.6
 41
30.0
 62
     5
 63
     7
 74
     2
 91
        2
 64
     7
 65
   257
 75
     2
175
     1
 42
40.0
 92
        0
 66
   257
 43
1.0
 76
     1
 77
     6
 78
     2
 67
     7
 79
     3
170
     0
171
     0
290
     0
174
     0
 93
        1
 44
0.0
173
     0
291
     0
 45
0.0
1001
ACAD
1000
AcDbSavedByObjectVersion
1070
     0
  0
VISUALSTYLE
  5
85
102
{ACAD_REACTORS
330
23
102
}
102
{ACAD_XDICTIONARY
360
BB
102
}
330
23
100
AcDbVisualStyle
  2
JitterOff
 70
    20
 71
     2
 72
     2
 73
     0
 90
        0
 40
0.6
 41
30.0
 62
     5
 63
     7
 74
     1
 91
        4
 64
     7
 65
   257
 75
     1
175
     1
 42
1.0
 92
       10
 66
     7
 43
1.0
 76
     1
 77
     6
 78
     2
 67
     7
 79
     5
170
     0
171
     0
290
     0
174
     0
 93
        1
 44
0.0
173
     0
291
     1
 45
0.0
1001
ACAD
1000
AcDbSavedByObjectVersion
1070
     0
  0
VISUALSTYLE
  5
82
102
{ACAD_REACTORS
330
23
102
}
102
{ACAD_XDICTIONARY
360
B5
102
}
330
23
100
AcDbVisualStyle
  2
Linepattern
 70
    14
 71
     2
 72
     2
 73
     0
 90
        0
 40
0.6
 41
30.0
 62
     5
 63
     7
 74
     1
 91
        4
 64
     7
 65
   257
 75
     7
175
     7
 42
1.0
 92
        8
 66
     7
 43
1.0
 76
     1
 77
     6
 78
     2
 67
     7
 79
     5
170
     0
171
     0
290
     0
174
     0
 93
        1
 44
0.0
173
     0
291
     1
 45
0.0
1001
ACAD
1000
AcDbSavedByObjectVersion
1070
     0
  0
VISUALSTYLE
  5
86
102
{ACAD_REACTORS
330
23
102
}
102
{ACAD_XDICTIONARY
360
BD
102
}
330
23
100
AcDbVisualStyle
  2
OverhangOff
 70
    21
 71
     2
 72
     2
 73
     0
 90
        0
 40
0.6
 41
30.0
 62
     5
 63
     7
 74
     1
 91
        4
 64
     7
 65
   257
 75
     1
175
     1
 42
1.0
 92
        9
 66
     7
 43
1.0
 76
     1
 77
     6
 78
     2
 67
     7
 79
     5
170
     0
171
     0
290
     0
174
     0
 93
        1
 44
0.0
173
     0
291
     1
 45
0.0
1001
ACAD
1000
AcDbSavedByObjectVersion
1070
     0
  0
VISUALSTYLE
  5
7D
102
{ACAD_REACTORS
330
23
102
}
102
{ACAD_XDICTIONARY
360
AB
102
}
330
23
100
AcDbVisualStyle
  2
Realistic
 70
     8
 71
     2
 72
     3
 73
     0
 90
        2
 40
0.6
 41
30.0
 62
     5
 63
     7
 74
     0
 91
        0
 64
     7
 65
   257
 75
     1
175
     1
 42
1.0
 92
        8
 66
   257
 43
1.0
 76
     1
 77
     6
 78
     2
 67
     7
 79
     3
170
     0
171
     0
290
     0
174
     0
 93
       13
 44
0.0
173
     0
291
     0
 45
0.0
1001
ACAD
1000
AcDbSavedByObjectVersion
1070
     0
  0
VISUALSTYLE
  5
8C
102
{ACAD_REACTORS
330
23
102
}
102
{ACAD_XDICTIONARY
360
C9
102
}
330
23
100
AcDbVisualStyle
  2
Shaded
 70
    27
 71
     2
 72
     2
 73
     1
 90
        2
 40
0.6
 41
30.0
 62
     5
 63
     7
 74
     0
 91
        4
 64
     7
 65
   257
 75
     1
175
     1
 42
1.0
 92
        8
 66
   257
 43
1.0
 76
     1
 77
     6
 78
     2
 67
     8
 79
     3
170
     0
171
     0
290
     0
174
     0
 93
        5
 44
0.0
173
     0
291
     0
 45
0.0
1001
ACAD
1000
AcDbSavedByObjectVersion
1070
     0
  0
VISUALSTYLE
  5
8B
102
{ACAD_REACTORS
330
23
102
}
102
{ACAD_XDICTIONARY
360
C7
102
}
330
23
100
AcDbVisualStyle
  2
Shaded with edges
 70
    26
 71
     2
 72
     2
 73
     1
 90
        2
 40
0.6
 41
30.0
 62
     5
 63
     7
 74
     1
 91
       10
 64
     7
 65
   257
 75
     2
175
     1
 42
1.0
 92
        8
 66
   257
 43
1.0
 76
     1
 77
     6
 78
     2
 67
     7
 79
     3
170
     0
171
     0
290
     0
174
     0
 93
        5
 44
0.0
173
     0
291
     0
 45
0.0
1001
ACAD
1000
AcDbSavedByObjectVersion
1070
     0
  0
VISUALSTYLE
  5
88
102
{ACAD_REACTORS
330
23
102
}
102
{ACAD_XDICTIONARY
360
C1
102
}
330
23
100
AcDbVisualStyle
  2
Shades of Gray
 70
    23
 71
     2
 72
     2
 73
     3
 90
        0
 40
0.6
 41
30.0
 62
     5
 63
     7
 74
     2
 91
        2
 64
     7
 65
     7
 75
     1
175
     1
 42
40.0
 92
        8
 66
     7
 43
1.0
 76
     1
 77
     6
 78
     2
 67
     7
 79
     3
170
     0
171
     0
290
     0
174
     0
 93
        1
 44
0.0
173
     0
291
     0
 45
0.0
1001
ACAD
1000
AcDbSavedByObjectVersion
1070
     0
  0
VISUALSTYLE
  5
89
102
{ACAD_REACTORS
330
23
102
}
102
{ACAD_XDICTIONARY
360
C3
102
}
330
23
100
AcDbVisualStyle
  2
Sketchy
 70
    24
 71
     1
 72
     2
 73
     2
 90
        0
 40
0.6
 41
30.0
 62
     5
 63
     7
 74
     2
 91
        2
 64
     7
 65
     7
 75
     1
175
     1
 42
40.0
 92
       11
 66
     7
 43
1.0
 76
     1
 77
     6
 78
     2
 67
     7
 79
     6
170
     0
171
     0
290
     0
174
     0
 93
        1
 44
0.0
173
     0
291
     0
 45
0.0
1001
ACAD
1000
AcDbSavedByObjectVersion
1070
     0
  0
VISUALSTYLE
  5
81
102
{ACAD_REACTORS
330
23
102
}
102
{ACAD_XDICTIONARY
360
B3
102
}
330
23
100
AcDbVisualStyle
  2
Thicken
 70
    13
 71
     2
 72
     2
 73
     0
 90
        0
 40
0.6
 41
30.0
 62
     5
 63
     7
 74
     1
 91
        4
 64
     7
 65
   257
 75
     1
175
     1
 42
1.0
 92
       12
 66
     7
 43
1.0
 76
     1
 77
     6
 78
     2
 67
     7
 79
     5
170
     0
171
     0
290
     0
174
     0
 93
        1
 44
0.0
173
     0
291
     1
 45
0.0
1001
ACAD
1000
AcDbSavedByObjectVersion
1070
     0
  0
VISUALSTYLE
  5
7A
102
{ACAD_REACTORS
330
23
102
}
102
{ACAD_XDICTIONARY
360
A5
102
}
330
23
100
AcDbVisualStyle
  2
Wireframe
 70
     5
 71
     0
 72
     2
 73
     0
 90
        0
 40
0.6
 41
30.0
 62
     5
 63
     7
 74
     1
 91
        4
 64
     7
 65
   257
 75
     1
175
     1
 42
1.0
 92
        0
 66
   257
 43
1.0
 76
     1
 77
     6
 78
     2
 67
     7
 79
     3
170
     0
171
     0
290
     0
174
     0
 93
        1
 44
0.0
173
     0
291
     0
 45
0.0
1001
ACAD
1000
AcDbSavedByObjectVersion
1070
     0
  0
VISUALSTYLE
  5
8A
102
{ACAD_REACTORS
330
23
102
}
102
{ACAD_XDICTIONARY
360
C5
102
}
330
23
100
AcDbVisualStyle
  2
X-Ray
 70
    25
 71
     2
 72
     2
 73
     1
 90
        1
 40
0.5
 41
30.0
 62
     5
 63
     7
 74
     1
 91
        0
 64
     7
 65
   257
 75
     1
175
     1
 42
1.0
 92
        8
 66
     7
 43
1.0
 76
     1
 77
     6
 78
     2
 67
     7
 79
     3
170
     0
171
     0
290
     0
174
     0
 93
       13
 44
0.0
173
     0
291
     0
 45
0.0
1001
ACAD
1000
AcDbSavedByObjectVersion
1070
     0
  0
DICTIONARYVAR
  5
70
102
{ACAD_REACTORS
330
6F
102
}
330
6F
100
DictionaryVariables
280
     0
  1
1:1
  0
DICTIONARYVAR
  5
8F
102
{ACAD_REACTORS
330
6F
102
}
330
6F
100
DictionaryVariables
280
     0
  1
Standard
  0
DICTIONARYVAR
  5
8E
102
{ACAD_REACTORS
330
6F
102
}
330
6F
100
DictionaryVariables
280
     0
  1
Standard
  0
DICTIONARYVAR
  5
90
102
{ACAD_REACTORS
330
6F
102
}
330
6F
100
DictionaryVariables
280
     0
  1
2
  0
DICTIONARYVAR
  5
91
102
{ACAD_REACTORS
330
6F
102
}
330
6F
100
DictionaryVariables
280
     0
  1
1
  0
DICTIONARYVAR
  5
94
102
{ACAD_REACTORS
330
6F
102
}
330
6F
100
DictionaryVariables
280
     0
  1
1
  0
DICTIONARY
  5
99
330
4C
100
AcDbDictionary
280
     1
281
     1
  3
ACAD_XREC_ROUNDTRIP
360
9A
  0
DICTIONARY
  5
95
330
E
100
AcDbDictionary
280
     1
281
     1
  3
ACAD_XREC_ROUNDTRIP
360
96
  0
DICTIONARY
  5
97
330
6
100
AcDbDictionary
280
     1
281
     1
  3
ACAD_XREC_ROUNDTRIP
360
98
  0
DICTIONARY
  5
CC
330
75
100
AcDbDictionary
280
     1
281
     1
  3
ACAD_XREC_ROUNDTRIP
360
CD
  0
DICTIONARY
  5
9B
330
26
100
AcDbDictionary
280
     1
281
     1
  3
ACAD_XREC_ROUNDTRIP
360
9C
  0
DICTIONARY
  5
A9
330
7C
100
AcDbDictionary
280
     1
281
     1
  3
ACAD_XREC_ROUNDTRIP
360
AA
  0
DICTIONARY
  5
B1
330
80
100
AcDbDictionary
280
     1
281
     1
  3
ACAD_XREC_ROUNDTRIP
360
B2
  0
DICTIONARY
  5
B9
330
84
100
AcDbDictionary
280
     1
281
     1
  3
ACAD_XREC_ROUNDTRIP
360
BA
  0
DICTIONARY
  5
AD
330
7E
100
AcDbDictionary
280
     1
281
     1
  3
ACAD_XREC_ROUNDTRIP
360
AE
  0
DICTIONARY
  5
AF
330
7F
100
AcDbDictionary
280
     1
281
     1
  3
ACAD_XREC_ROUNDTRIP
360
B0
  0
DICTIONARY
  5
BF
330
87
100
AcDbDictionary
280
     1
281
     1
  3
ACAD_XREC_ROUNDTRIP
360
C0
  0
DICTIONARY
  5
B7
330
83
100
AcDbDictionary
280
     1
281
     1
  3
ACAD_XREC_ROUNDTRIP
360
B8
  0
DICTIONARY
  5
9D
330
76
100
AcDbDictionary
280
     1
281
     1
  3
ACAD_XREC_ROUNDTRIP
360
9E
  0
DICTIONARY
  5
9F
330
77
100
AcDbDictionary
280
     1
281
     1
  3
ACAD_XREC_ROUNDTRIP
360
A0
  0
DICTIONARY
  5
A1
330
78
100
AcDbDictionary
280
     1
281
     1
  3
ACAD_XREC_ROUNDTRIP
360
A2
  0
DICTIONARY
  5
A3
330
79
100
AcDbDictionary
280
     1
281
     1
  3
ACAD_XREC_ROUNDTRIP
360
A4
  0
DICTIONARY
  5
A7
330
7B
100
AcDbDictionary
280
     1
281
     1
  3
ACAD_XREC_ROUNDTRIP
360
A8
  0
DICTIONARY
  5
BB
330
85
100
AcDbDictionary
280
     1
281
     1
  3
ACAD_XREC_ROUNDTRIP
360
BC
  0
DICTIONARY
  5
B5
330
82
100
AcDbDictionary
280
     1
281
     1
  3
ACAD_XREC_ROUNDTRIP
360
B6
  0
DICTIONARY
  5
BD
330
86
100
AcDbDictionary
280
     1
281
     1
  3
ACAD_XREC_ROUNDTRIP
360
BE
  0
DICTIONARY
  5
AB
330
7D
100
AcDbDictionary
280
     1
281
     1
  3
ACAD_XREC_ROUNDTRIP
360
AC
  0
DICTIONARY
  5
C9
330
8C
100
AcDbDictionary
280
     1
281
     1
  3
ACAD_XREC_ROUNDTRIP
360
CA
  0
DICTIONARY
  5
C7
330
8B
100
AcDbDictionary
280
     1
281
     1
  3
ACAD_XREC_ROUNDTRIP
360
C8
  0
DICTIONARY
  5
C1
330
88
100
AcDbDictionary
280
     1
281
     1
  3
ACAD_XREC_ROUNDTRIP
360
C2
  0
DICTIONARY
  5
C3
330
89
100
AcDbDictionary
280
     1
281
     1
  3
ACAD_XREC_ROUNDTRIP
360
C4
  0
DICTIONARY
  5
B3
330
81
100
AcDbDictionary
280
     1
281
     1
  3
ACAD_XREC_ROUNDTRIP
360
B4
  0
DICTIONARY
  5
A5
330
7A
100
AcDbDictionary
280
     1
281
     1
  3
ACAD_XREC_ROUNDTRIP
360
A6
  0
DICTIONARY
  5
C5
330
8A
100
AcDbDictionary
280
     1
281
     1
  3
ACAD_XREC_ROUNDTRIP
360
C6
  0
XRECORD
  5
9A
102
{ACAD_REACTORS
330
99
102
}
330
99
100
AcDbXrecord
280
     1
102
MATERIAL
148
0.0
149
0.0
149
0.0
 93
        0
 94
      127
282
     0
 72
     1
 77
     1
171
     1
175
     1
179
     1
273
     0
  0
XRECORD
  5
96
102
{ACAD_REACTORS
330
95
102
}
330
95
100
AcDbXrecord
280
     1
102
MATERIAL
148
0.0
149
0.0
149
0.0
 93
        0
 94
      127
282
     0
 72
     1
 77
     1
171
     1
175
     1
179
     1
273
     0
  0
XRECORD
  5
98
102
{ACAD_REACTORS
330
97
102
}
330
97
100
AcDbXrecord
280
     1
102
MATERIAL
148
0.0
149
0.0
149
0.0
 93
        0
 94
      127
282
     0
 72
     1
 77
     1
171
     1
175
     1
179
     1
273
     0
  0
XRECORD
  5
CD
102
{ACAD_REACTORS
330
CC
102
}
330
CC
100
AcDbXrecord
280
     1
102
ACAD_ROUNDTRIP_2010_MLEADER_STYLE
  0
XRECORD
  5
9C
102
{ACAD_REACTORS
330
9B
102
}
330
9B
100
AcDbXrecord
280
     1
102
RTVSPropertyOp0
 70
     1
102
RTVSPropertyOp1
 70
     1
102
RTVSPropertyOp2
 70
     1
102
RTVSPropertyOp3
 70
     1
102
RTVSPropertyOp4
 70
     1
102
RTVSPropertyOp5
 70
     1
102
RTVSPropertyOp6
 70
     1
102
RTVSPropertyOp7
 70
     1
102
RTVSPropertyOp8
 70
     1
102
RTVSPropertyOp9
 70
     1
102
RTVSPropertyOp10
 70
     1
102
RTVSPropertyOp11
 70
     1
102
RTVSPropertyOp12
 70
     1
102
RTVSPropertyOp13
 70
     1
102
RTVSPropertyOp14
 70
     1
102
RTVSPropertyOp15
 70
     1
102
RTVSPropertyOp16
 70
     1
102
RTVSPropertyOp17
 70
     1
102
RTVSPropertyOp18
 70
     1
102
RTVSPropertyOp19
 70
     1
102
RTVSPropertyOp20
 70
     1
102
RTVSPropertyOp21
 70
     1
102
RTVSPropertyOp22
 70
     1
102
RTVSPropertyOp23
 70
     1
102
RTVSPropertyOp24
 70
     1
102
RTVSPropertyOp25
 70
     1
102
RTVSPropertyOp26
 70
     1
102
RTVSPropertyOp27
 70
     1
102
RTVSPropertyOp28
 70
     1
102
RTVSPropertyOp29
 70
     1
102
RTVSPropertyOp30
 70
     1
102
RTVSPropertyOp31
 70
     1
102
RTVSPropertyOp32
 70
     1
102
RTVSPropertyOp33
 70
     1
102
RTVSPropertyOp34
 70
     1
102
RTVSPropertyOp35
 70
     1
102
RTVSPropertyOp36
 70
     1
102
RTVSPropertyOp37
 70
     1
102
RTVSPropertyOp38
 70
     1
102
RTVSPropertyOp39
 70
     1
102
RTVSPropertyOp40
 70
     1
102
RTVSPropertyOp41
 70
     1
102
RTVSPropertyOp42
 70
     1
102
RTVSPropertyOp43
 70
     1
102
RTVSPropertyOp44
 70
     1
102
RTVSPropertyOp45
 70
     1
102
RTVSPropertyOp46
 70
     1
102
RTVSPropertyOp47
 70
     1
102
RTVSPropertyOp48
 70
     1
102
RTVSPropertyOp49
 70
     1
102
RTVSPropertyOp50
 70
     1
102
RTVSPropertyOp51
 70
     0
102
RTVSPropertyOp52
 70
     0
102
RTVSPropertyOp53
 70
     1
102
RTVSPropertyOp54
 70
     1
102
RTVSPropertyOp55
 70
     1
102
RTVSPropertyOp56
 70
     1
102
RTVSPropertyOp57
 70
     1
102
RTVSPost2010Prop28
280
     1
102
RTVSPost2010PropOp28
 70
     1
102
RTVSPost2010Prop29
280
     1
102
RTVSPost2010PropOp29
 70
     1
102
RTVSPost2010Prop30
280
     0
102
RTVSPost2010PropOp30
 70
     1
102
RTVSPost2010Prop31
280
     0
102
RTVSPost2010PropOp31
 70
     1
102
RTVSPost2010Prop32
280
     0
102
RTVSPost2010PropOp32
 70
     1
102
RTVSPost2010Prop33
280
     0
102
RTVSPost2010PropOp33
 70
     1
102
RTVSPost2010Prop34
280
     0
102
RTVSPost2010PropOp34
 70
     1
102
RTVSPost2010Prop35
280
     0
102
RTVSPost2010PropOp35
 70
     1
102
RTVSPost2010Prop36
280
     0
102
RTVSPost2010PropOp36
 70
     1
102
RTVSPost2010Prop37
 90
       50
102
RTVSPost2010PropOp37
 70
     1
102
RTVSPost2010Prop38
140
0.0
102
RTVSPost2010PropOp38
 70
     1
102
RTVSPost2010Prop39
140
1.0
102
RTVSPost2010PropOp39
 70
     1
102
RTVSPost2010Prop40
 90
        0
102
RTVSPost2010PropOp40
 70
     1
102
RTVSPost2010Prop41ColorIndex
 90
       18
102
RTVSPost2010Prop41ColorRGB
 90
        0
102
RTVSPost2010PropOp41
 70
     1
102
RTVSPost2010Prop42
 90
       50
102
RTVSPost2010PropOp42
 70
     1
102
RTVSPost2010Prop43
 90
        3
102
RTVSPost2010PropOp43
 70
     1
102
RTVSPost2010Prop44ColorIndex
 90
        5
102
RTVSPost2010Prop44ColorRGB
 90
      255
102
RTVSPost2010PropOp44
 70
     1
102
RTVSPost2010Prop45
280
     0
102
RTVSPost2010PropOp45
 70
     1
102
RTVSPost2010Prop46
 90
       50
102
RTVSPost2010PropOp46
 70
     1
102
RTVSPost2010Prop47
 90
       50
102
RTVSPost2010PropOp47
 70
     1
102
RTVSPost2010Prop48
 90
       50
102
RTVSPost2010PropOp48
 70
     1
102
RTVSPost2010Prop49
280
     0
102
RTVSPost2010PropOp49
 70
     1
102
RTVSPost2010Prop50
 90
       50
102
RTVSPost2010PropOp50
 70
     1
102
RTVSPost2010Prop51ColorIndex
 90
      256
102
RTVSPost2010Prop51ColorRGB
 90
-16777216
102
RTVSPost2010PropOp51
 70
     0
102
RTVSPost2010Prop52
140
1.0
102
RTVSPost2010PropOp52
 70
     0
102
RTVSPost2010Prop53
 90
        2
102
RTVSPost2010PropOp53
 70
     1
102
RTVSPost2010Prop54
  1
strokes_ogs.tif
102
RTVSPost2010PropOp54
 70
     1
102
RTVSPost2010Prop55
280
     0
102
RTVSPost2010PropOp55
 70
     1
102
RTVSPost2010Prop56
140
1.0
102
RTVSPost2010PropOp56
 70
     1
102
RTVSPost2010Prop57
140
1.0
102
RTVSPost2010PropOp57
 70
     1
  0
XRECORD
  5
AA
102
{ACAD_REACTORS
330
A9
102
}
330
A9
100
AcDbXrecord
280
     1
102
RTVSPropertyOp0
 70
     1
102
RTVSPropertyOp1
 70
     1
102
RTVSPropertyOp2
 70
     1
102
RTVSPropertyOp3
 70
     1
102
RTVSPropertyOp4
 70
     1
102
RTVSPropertyOp5
 70
     1
102
RTVSPropertyOp6
 70
     1
102
RTVSPropertyOp7
 70
     1
102
RTVSPropertyOp8
 70
     1
102
RTVSPropertyOp9
 70
     1
102
RTVSPropertyOp10
 70
     1
102
RTVSPropertyOp11
 70
     1
102
RTVSPropertyOp12
 70
     1
102
RTVSPropertyOp13
 70
     1
102
RTVSPropertyOp14
 70
     1
102
RTVSPropertyOp15
 70
     1
102
RTVSPropertyOp16
 70
     1
102
RTVSPropertyOp17
 70
     1
102
RTVSPropertyOp18
 70
     1
102
RTVSPropertyOp19
 70
     1
102
RTVSPropertyOp20
 70
     1
102
RTVSPropertyOp21
 70
     1
102
RTVSPropertyOp22
 70
     1
102
RTVSPropertyOp23
 70
     1
102
RTVSPropertyOp24
 70
     1
102
RTVSPropertyOp25
 70
     1
102
RTVSPropertyOp26
 70
     1
102
RTVSPropertyOp27
 70
     1
102
RTVSPropertyOp28
 70
     1
102
RTVSPropertyOp29
 70
     1
102
RTVSPropertyOp30
 70
     1
102
RTVSPropertyOp31
 70
     1
102
RTVSPropertyOp32
 70
     1
102
RTVSPropertyOp33
 70
     1
102
RTVSPropertyOp34
 70
     1
102
RTVSPropertyOp35
 70
     1
102
RTVSPropertyOp36
 70
     1
102
RTVSPropertyOp37
 70
     1
102
RTVSPropertyOp38
 70
     1
102
RTVSPropertyOp39
 70
     1
102
RTVSPropertyOp40
 70
     1
102
RTVSPropertyOp41
 70
     1
102
RTVSPropertyOp42
 70
     1
102
RTVSPropertyOp43
 70
     1
102
RTVSPropertyOp44
 70
     1
102
RTVSPropertyOp45
 70
     1
102
RTVSPropertyOp46
 70
     1
102
RTVSPropertyOp47
 70
     1
102
RTVSPropertyOp48
 70
     1
102
RTVSPropertyOp49
 70
     1
102
RTVSPropertyOp50
 70
     1
102
RTVSPropertyOp51
 70
     0
102
RTVSPropertyOp52
 70
     0
102
RTVSPropertyOp53
 70
     1
102
RTVSPropertyOp54
 70
     1
102
RTVSPropertyOp55
 70
     1
102
RTVSPropertyOp56
 70
     1
102
RTVSPropertyOp57
 70
     1
102
RTVSPost2010Prop28
280
     0
102
RTVSPost2010PropOp28
 70
     1
102
RTVSPost2010Prop29
280
     1
102
RTVSPost2010PropOp29
 70
     1
102
RTVSPost2010Prop30
280
     1
102
RTVSPost2010PropOp30
 70
     1
102
RTVSPost2010Prop31
280
     0
102
RTVSPost2010PropOp31
 70
     1
102
RTVSPost2010Prop32
280
     0
102
RTVSPost2010PropOp32
 70
     1
102
RTVSPost2010Prop33
280
     0
102
RTVSPost2010PropOp33
 70
     1
102
RTVSPost2010Prop34
280
     0
102
RTVSPost2010PropOp34
 70
     1
102
RTVSPost2010Prop35
280
     0
102
RTVSPost2010PropOp35
 70
     1
102
RTVSPost2010Prop36
280
     0
102
RTVSPost2010PropOp36
 70
     1
102
RTVSPost2010Prop37
 90
       50
102
RTVSPost2010PropOp37
 70
     1
102
RTVSPost2010Prop38
140
0.0
102
RTVSPost2010PropOp38
 70
     1
102
RTVSPost2010Prop39
140
1.0
102
RTVSPost2010PropOp39
 70
     1
102
RTVSPost2010Prop40
 90
        0
102
RTVSPost2010PropOp40
 70
     1
102
RTVSPost2010Prop41ColorIndex
 90
       18
102
RTVSPost2010Prop41ColorRGB
 90
        0
102
RTVSPost2010PropOp41
 70
     1
102
RTVSPost2010Prop42
 90
       50
102
RTVSPost2010PropOp42
 70
     1
102
RTVSPost2010Prop43
 90
        3
102
RTVSPost2010PropOp43
 70
     1
102
RTVSPost2010Prop44ColorIndex
 90
        5
102
RTVSPost2010Prop44ColorRGB
 90
      255
102
RTVSPost2010PropOp44
 70
     1
102
RTVSPost2010Prop45
280
     0
102
RTVSPost2010PropOp45
 70
     1
102
RTVSPost2010Prop46
 90
       50
102
RTVSPost2010PropOp46
 70
     1
102
RTVSPost2010Prop47
 90
       50
102
RTVSPost2010PropOp47
 70
     1
102
RTVSPost2010Prop48
 90
       50
102
RTVSPost2010PropOp48
 70
     1
102
RTVSPost2010Prop49
280
     0
102
RTVSPost2010PropOp49
 70
     1
102
RTVSPost2010Prop50
 90
       50
102
RTVSPost2010PropOp50
 70
     1
102
RTVSPost2010Prop51ColorIndex
 90
      256
102
RTVSPost2010Prop51ColorRGB
 90
-16777216
102
RTVSPost2010PropOp51
 70
     0
102
RTVSPost2010Prop52
140
1.0
102
RTVSPost2010PropOp52
 70
     0
102
RTVSPost2010Prop53
 90
        2
102
RTVSPost2010PropOp53
 70
     1
102
RTVSPost2010Prop54
  1
strokes_ogs.tif
102
RTVSPost2010PropOp54
 70
     1
102
RTVSPost2010Prop55
280
     0
102
RTVSPost2010PropOp55
 70
     1
102
RTVSPost2010Prop56
140
1.0
102
RTVSPost2010PropOp56
 70
     1
102
RTVSPost2010Prop57
140
1.0
102
RTVSPost2010PropOp57
 70
     1
  0
XRECORD
  5
B2
102
{ACAD_REACTORS
330
B1
102
}
330
B1
100
AcDbXrecord
280
     1
102
RTVSPropertyOp0
 70
     1
102
RTVSPropertyOp1
 70
     1
102
RTVSPropertyOp2
 70
     1
102
RTVSPropertyOp3
 70
     1
102
RTVSPropertyOp4
 70
     1
102
RTVSPropertyOp5
 70
     1
102
RTVSPropertyOp6
 70
     1
102
RTVSPropertyOp7
 70
     1
102
RTVSPropertyOp8
 70
     1
102
RTVSPropertyOp9
 70
     1
102
RTVSPropertyOp10
 70
     1
102
RTVSPropertyOp11
 70
     1
102
RTVSPropertyOp12
 70
     1
102
RTVSPropertyOp13
 70
     1
102
RTVSPropertyOp14
 70
     1
102
RTVSPropertyOp15
 70
     1
102
RTVSPropertyOp16
 70
     1
102
RTVSPropertyOp17
 70
     1
102
RTVSPropertyOp18
 70
     1
102
RTVSPropertyOp19
 70
     1
102
RTVSPropertyOp20
 70
     1
102
RTVSPropertyOp21
 70
     1
102
RTVSPropertyOp22
 70
     1
102
RTVSPropertyOp23
 70
     1
102
RTVSPropertyOp24
 70
     1
102
RTVSPropertyOp25
 70
     1
102
RTVSPropertyOp26
 70
     1
102
RTVSPropertyOp27
 70
     1
102
RTVSPropertyOp28
 70
     1
102
RTVSPropertyOp29
 70
     1
102
RTVSPropertyOp30
 70
     1
102
RTVSPropertyOp31
 70
     1
102
RTVSPropertyOp32
 70
     1
102
RTVSPropertyOp33
 70
     1
102
RTVSPropertyOp34
 70
     1
102
RTVSPropertyOp35
 70
     1
102
RTVSPropertyOp36
 70
     1
102
RTVSPropertyOp37
 70
     1
102
RTVSPropertyOp38
 70
     1
102
RTVSPropertyOp39
 70
     1
102
RTVSPropertyOp40
 70
     1
102
RTVSPropertyOp41
 70
     1
102
RTVSPropertyOp42
 70
     1
102
RTVSPropertyOp43
 70
     1
102
RTVSPropertyOp44
 70
     1
102
RTVSPropertyOp45
 70
     1
102
RTVSPropertyOp46
 70
     1
102
RTVSPropertyOp47
 70
     1
102
RTVSPropertyOp48
 70
     1
102
RTVSPropertyOp49
 70
     1
102
RTVSPropertyOp50
 70
     1
102
RTVSPropertyOp51
 70
     0
102
RTVSPropertyOp52
 70
     0
102
RTVSPropertyOp53
 70
     1
102
RTVSPropertyOp54
 70
     1
102
RTVSPropertyOp55
 70
     1
102
RTVSPropertyOp56
 70
     1
102
RTVSPropertyOp57
 70
     1
102
RTVSPost2010Prop28
280
     0
102
RTVSPost2010PropOp28
 70
     1
102
RTVSPost2010Prop29
280
     1
102
RTVSPost2010PropOp29
 70
     1
102
RTVSPost2010Prop30
280
     1
102
RTVSPost2010PropOp30
 70
     1
102
RTVSPost2010Prop31
280
     0
102
RTVSPost2010PropOp31
 70
     1
102
RTVSPost2010Prop32
280
     0
102
RTVSPost2010PropOp32
 70
     1
102
RTVSPost2010Prop33
280
     0
102
RTVSPost2010PropOp33
 70
     1
102
RTVSPost2010Prop34
280
     0
102
RTVSPost2010PropOp34
 70
     1
102
RTVSPost2010Prop35
280
     0
102
RTVSPost2010PropOp35
 70
     1
102
RTVSPost2010Prop36
280
     0
102
RTVSPost2010PropOp36
 70
     1
102
RTVSPost2010Prop37
 90
       50
102
RTVSPost2010PropOp37
 70
     1
102
RTVSPost2010Prop38
140
0.0
102
RTVSPost2010PropOp38
 70
     1
102
RTVSPost2010Prop39
140
1.0
102
RTVSPost2010PropOp39
 70
     1
102
RTVSPost2010Prop40
 90
        0
102
RTVSPost2010PropOp40
 70
     1
102
RTVSPost2010Prop41ColorIndex
 90
       18
102
RTVSPost2010Prop41ColorRGB
 90
        0
102
RTVSPost2010PropOp41
 70
     1
102
RTVSPost2010Prop42
 90
       50
102
RTVSPost2010PropOp42
 70
     1
102
RTVSPost2010Prop43
 90
        3
102
RTVSPost2010PropOp43
 70
     1
102
RTVSPost2010Prop44ColorIndex
 90
        5
102
RTVSPost2010Prop44ColorRGB
 90
      255
102
RTVSPost2010PropOp44
 70
     1
102
RTVSPost2010Prop45
280
     0
102
RTVSPost2010PropOp45
 70
     1
102
RTVSPost2010Prop46
 90
       50
102
RTVSPost2010PropOp46
 70
     1
102
RTVSPost2010Prop47
 90
       50
102
RTVSPost2010PropOp47
 70
     1
102
RTVSPost2010Prop48
 90
       50
102
RTVSPost2010PropOp48
 70
     1
102
RTVSPost2010Prop49
280
     0
102
RTVSPost2010PropOp49
 70
     1
102
RTVSPost2010Prop50
 90
       50
102
RTVSPost2010PropOp50
 70
     1
102
RTVSPost2010Prop51ColorIndex
 90
      256
102
RTVSPost2010Prop51ColorRGB
 90
-16777216
102
RTVSPost2010PropOp51
 70
     0
102
RTVSPost2010Prop52
140
1.0
102
RTVSPost2010PropOp52
 70
     0
102
RTVSPost2010Prop53
 90
        2
102
RTVSPost2010PropOp53
 70
     1
102
RTVSPost2010Prop54
  1
strokes_ogs.tif
102
RTVSPost2010PropOp54
 70
     1
102
RTVSPost2010Prop55
280
     0
102
RTVSPost2010PropOp55
 70
     1
102
RTVSPost2010Prop56
140
1.0
102
RTVSPost2010PropOp56
 70
     1
102
RTVSPost2010Prop57
140
1.0
102
RTVSPost2010PropOp57
 70
     1
  0
XRECORD
  5
BA
102
{ACAD_REACTORS
330
B9
102
}
330
B9
100
AcDbXrecord
280
     1
102
RTVSPropertyOp0
 70
     1
102
RTVSPropertyOp1
 70
     1
102
RTVSPropertyOp2
 70
     1
102
RTVSPropertyOp3
 70
     1
102
RTVSPropertyOp4
 70
     1
102
RTVSPropertyOp5
 70
     1
102
RTVSPropertyOp6
 70
     1
102
RTVSPropertyOp7
 70
     1
102
RTVSPropertyOp8
 70
     1
102
RTVSPropertyOp9
 70
     1
102
RTVSPropertyOp10
 70
     1
102
RTVSPropertyOp11
 70
     1
102
RTVSPropertyOp12
 70
     1
102
RTVSPropertyOp13
 70
     1
102
RTVSPropertyOp14
 70
     1
102
RTVSPropertyOp15
 70
     1
102
RTVSPropertyOp16
 70
     1
102
RTVSPropertyOp17
 70
     1
102
RTVSPropertyOp18
 70
     1
102
RTVSPropertyOp19
 70
     1
102
RTVSPropertyOp20
 70
     1
102
RTVSPropertyOp21
 70
     1
102
RTVSPropertyOp22
 70
     1
102
RTVSPropertyOp23
 70
     1
102
RTVSPropertyOp24
 70
     1
102
RTVSPropertyOp25
 70
     1
102
RTVSPropertyOp26
 70
     1
102
RTVSPropertyOp27
 70
     1
102
RTVSPropertyOp28
 70
     1
102
RTVSPropertyOp29
 70
     1
102
RTVSPropertyOp30
 70
     1
102
RTVSPropertyOp31
 70
     1
102
RTVSPropertyOp32
 70
     1
102
RTVSPropertyOp33
 70
     1
102
RTVSPropertyOp34
 70
     1
102
RTVSPropertyOp35
 70
     1
102
RTVSPropertyOp36
 70
     1
102
RTVSPropertyOp37
 70
     1
102
RTVSPropertyOp38
 70
     1
102
RTVSPropertyOp39
 70
     1
102
RTVSPropertyOp40
 70
     1
102
RTVSPropertyOp41
 70
     1
102
RTVSPropertyOp42
 70
     1
102
RTVSPropertyOp43
 70
     1
102
RTVSPropertyOp44
 70
     1
102
RTVSPropertyOp45
 70
     1
102
RTVSPropertyOp46
 70
     1
102
RTVSPropertyOp47
 70
     1
102
RTVSPropertyOp48
 70
     1
102
RTVSPropertyOp49
 70
     1
102
RTVSPropertyOp50
 70
     1
102
RTVSPropertyOp51
 70
     0
102
RTVSPropertyOp52
 70
     0
102
RTVSPropertyOp53
 70
     1
102
RTVSPropertyOp54
 70
     1
102
RTVSPropertyOp55
 70
     1
102
RTVSPropertyOp56
 70
     1
102
RTVSPropertyOp57
 70
     1
102
RTVSPost2010Prop28
280
     0
102
RTVSPost2010PropOp28
 70
     1
102
RTVSPost2010Prop29
280
     1
102
RTVSPost2010PropOp29
 70
     1
102
RTVSPost2010Prop30
280
     1
102
RTVSPost2010PropOp30
 70
     1
102
RTVSPost2010Prop31
280
     0
102
RTVSPost2010PropOp31
 70
     1
102
RTVSPost2010Prop32
280
     0
102
RTVSPost2010PropOp32
 70
     1
102
RTVSPost2010Prop33
280
     0
102
RTVSPost2010PropOp33
 70
     1
102
RTVSPost2010Prop34
280
     0
102
RTVSPost2010PropOp34
 70
     1
102
RTVSPost2010Prop35
280
     0
102
RTVSPost2010PropOp35
 70
     1
102
RTVSPost2010Prop36
280
     0
102
RTVSPost2010PropOp36
 70
     1
102
RTVSPost2010Prop37
 90
       50
102
RTVSPost2010PropOp37
 70
     1
102
RTVSPost2010Prop38
140
0.0
102
RTVSPost2010PropOp38
 70
     1
102
RTVSPost2010Prop39
140
1.0
102
RTVSPost2010PropOp39
 70
     1
102
RTVSPost2010Prop40
 90
        0
102
RTVSPost2010PropOp40
 70
     1
102
RTVSPost2010Prop41ColorIndex
 90
       18
102
RTVSPost2010Prop41ColorRGB
 90
        0
102
RTVSPost2010PropOp41
 70
     1
102
RTVSPost2010Prop42
 90
       50
102
RTVSPost2010PropOp42
 70
     1
102
RTVSPost2010Prop43
 90
        3
102
RTVSPost2010PropOp43
 70
     1
102
RTVSPost2010Prop44ColorIndex
 90
        5
102
RTVSPost2010Prop44ColorRGB
 90
      255
102
RTVSPost2010PropOp44
 70
     1
102
RTVSPost2010Prop45
280
     0
102
RTVSPost2010PropOp45
 70
     1
102
RTVSPost2010Prop46
 90
       50
102
RTVSPost2010PropOp46
 70
     1
102
RTVSPost2010Prop47
 90
       50
102
RTVSPost2010PropOp47
 70
     1
102
RTVSPost2010Prop48
 90
       50
102
RTVSPost2010PropOp48
 70
     1
102
RTVSPost2010Prop49
280
     0
102
RTVSPost2010PropOp49
 70
     1
102
RTVSPost2010Prop50
 90
       50
102
RTVSPost2010PropOp50
 70
     1
102
RTVSPost2010Prop51ColorIndex
 90
      256
102
RTVSPost2010Prop51ColorRGB
 90
-16777216
102
RTVSPost2010PropOp51
 70
     0
102
RTVSPost2010Prop52
140
1.0
102
RTVSPost2010PropOp52
 70
     0
102
RTVSPost2010Prop53
 90
        2
102
RTVSPost2010PropOp53
 70
     1
102
RTVSPost2010Prop54
  1
strokes_ogs.tif
102
RTVSPost2010PropOp54
 70
     1
102
RTVSPost2010Prop55
280
     0
102
RTVSPost2010PropOp55
 70
     1
102
RTVSPost2010Prop56
140
1.0
102
RTVSPost2010PropOp56
 70
     1
102
RTVSPost2010Prop57
140
1.0
102
RTVSPost2010PropOp57
 70
     1
  0
XRECORD
  5
AE
102
{ACAD_REACTORS
330
AD
102
}
330
AD
100
AcDbXrecord
280
     1
102
RTVSPropertyOp0
 70
     1
102
RTVSPropertyOp1
 70
     1
102
RTVSPropertyOp2
 70
     1
102
RTVSPropertyOp3
 70
     1
102
RTVSPropertyOp4
 70
     1
102
RTVSPropertyOp5
 70
     1
102
RTVSPropertyOp6
 70
     1
102
RTVSPropertyOp7
 70
     1
102
RTVSPropertyOp8
 70
     1
102
RTVSPropertyOp9
 70
     1
102
RTVSPropertyOp10
 70
     1
102
RTVSPropertyOp11
 70
     1
102
RTVSPropertyOp12
 70
     1
102
RTVSPropertyOp13
 70
     1
102
RTVSPropertyOp14
 70
     1
102
RTVSPropertyOp15
 70
     1
102
RTVSPropertyOp16
 70
     1
102
RTVSPropertyOp17
 70
     1
102
RTVSPropertyOp18
 70
     1
102
RTVSPropertyOp19
 70
     1
102
RTVSPropertyOp20
 70
     1
102
RTVSPropertyOp21
 70
     1
102
RTVSPropertyOp22
 70
     1
102
RTVSPropertyOp23
 70
     1
102
RTVSPropertyOp24
 70
     1
102
RTVSPropertyOp25
 70
     1
102
RTVSPropertyOp26
 70
     1
102
RTVSPropertyOp27
 70
     1
102
RTVSPropertyOp28
 70
     1
102
RTVSPropertyOp29
 70
     1
102
RTVSPropertyOp30
 70
     1
102
RTVSPropertyOp31
 70
     1
102
RTVSPropertyOp32
 70
     1
102
RTVSPropertyOp33
 70
     1
102
RTVSPropertyOp34
 70
     1
102
RTVSPropertyOp35
 70
     1
102
RTVSPropertyOp36
 70
     1
102
RTVSPropertyOp37
 70
     1
102
RTVSPropertyOp38
 70
     1
102
RTVSPropertyOp39
 70
     1
102
RTVSPropertyOp40
 70
     1
102
RTVSPropertyOp41
 70
     1
102
RTVSPropertyOp42
 70
     1
102
RTVSPropertyOp43
 70
     1
102
RTVSPropertyOp44
 70
     1
102
RTVSPropertyOp45
 70
     1
102
RTVSPropertyOp46
 70
     1
102
RTVSPropertyOp47
 70
     1
102
RTVSPropertyOp48
 70
     1
102
RTVSPropertyOp49
 70
     1
102
RTVSPropertyOp50
 70
     1
102
RTVSPropertyOp51
 70
     0
102
RTVSPropertyOp52
 70
     0
102
RTVSPropertyOp53
 70
     1
102
RTVSPropertyOp54
 70
     1
102
RTVSPropertyOp55
 70
     1
102
RTVSPropertyOp56
 70
     1
102
RTVSPropertyOp57
 70
     1
102
RTVSPost2010Prop28
280
     0
102
RTVSPost2010PropOp28
 70
     1
102
RTVSPost2010Prop29
280
     1
102
RTVSPost2010PropOp29
 70
     1
102
RTVSPost2010Prop30
280
     1
102
RTVSPost2010PropOp30
 70
     1
102
RTVSPost2010Prop31
280
     0
102
RTVSPost2010PropOp31
 70
     1
102
RTVSPost2010Prop32
280
     0
102
RTVSPost2010PropOp32
 70
     1
102
RTVSPost2010Prop33
280
     0
102
RTVSPost2010PropOp33
 70
     1
102
RTVSPost2010Prop34
280
     0
102
RTVSPost2010PropOp34
 70
     1
102
RTVSPost2010Prop35
280
     0
102
RTVSPost2010PropOp35
 70
     1
102
RTVSPost2010Prop36
280
     0
102
RTVSPost2010PropOp36
 70
     1
102
RTVSPost2010Prop37
 90
       50
102
RTVSPost2010PropOp37
 70
     1
102
RTVSPost2010Prop38
140
0.0
102
RTVSPost2010PropOp38
 70
     1
102
RTVSPost2010Prop39
140
1.0
102
RTVSPost2010PropOp39
 70
     1
102
RTVSPost2010Prop40
 90
        0
102
RTVSPost2010PropOp40
 70
     1
102
RTVSPost2010Prop41ColorIndex
 90
       18
102
RTVSPost2010Prop41ColorRGB
 90
        0
102
RTVSPost2010PropOp41
 70
     1
102
RTVSPost2010Prop42
 90
       50
102
RTVSPost2010PropOp42
 70
     1
102
RTVSPost2010Prop43
 90
        3
102
RTVSPost2010PropOp43
 70
     1
102
RTVSPost2010Prop44ColorIndex
 90
        5
102
RTVSPost2010Prop44ColorRGB
 90
      255
102
RTVSPost2010PropOp44
 70
     1
102
RTVSPost2010Prop45
280
     0
102
RTVSPost2010PropOp45
 70
     1
102
RTVSPost2010Prop46
 90
       50
102
RTVSPost2010PropOp46
 70
     1
102
RTVSPost2010Prop47
 90
       50
102
RTVSPost2010PropOp47
 70
     1
102
RTVSPost2010Prop48
 90
       50
102
RTVSPost2010PropOp48
 70
     1
102
RTVSPost2010Prop49
280
     0
102
RTVSPost2010PropOp49
 70
     1
102
RTVSPost2010Prop50
 90
       50
102
RTVSPost2010PropOp50
 70
     1
102
RTVSPost2010Prop51ColorIndex
 90
      256
102
RTVSPost2010Prop51ColorRGB
 90
-16777216
102
RTVSPost2010PropOp51
 70
     0
102
RTVSPost2010Prop52
140
1.0
102
RTVSPost2010PropOp52
 70
     0
102
RTVSPost2010Prop53
 90
        2
102
RTVSPost2010PropOp53
 70
     1
102
RTVSPost2010Prop54
  1
strokes_ogs.tif
102
RTVSPost2010PropOp54
 70
     1
102
RTVSPost2010Prop55
280
     0
102
RTVSPost2010PropOp55
 70
     1
102
RTVSPost2010Prop56
140
1.0
102
RTVSPost2010PropOp56
 70
     1
102
RTVSPost2010Prop57
140
1.0
102
RTVSPost2010PropOp57
 70
     1
  0
XRECORD
  5
B0
102
{ACAD_REACTORS
330
AF
102
}
330
AF
100
AcDbXrecord
280
     1
102
RTVSPropertyOp0
 70
     1
102
RTVSPropertyOp1
 70
     1
102
RTVSPropertyOp2
 70
     1
102
RTVSPropertyOp3
 70
     1
102
RTVSPropertyOp4
 70
     1
102
RTVSPropertyOp5
 70
     1
102
RTVSPropertyOp6
 70
     1
102
RTVSPropertyOp7
 70
     1
102
RTVSPropertyOp8
 70
     1
102
RTVSPropertyOp9
 70
     1
102
RTVSPropertyOp10
 70
     1
102
RTVSPropertyOp11
 70
     1
102
RTVSPropertyOp12
 70
     1
102
RTVSPropertyOp13
 70
     1
102
RTVSPropertyOp14
 70
     1
102
RTVSPropertyOp15
 70
     1
102
RTVSPropertyOp16
 70
     1
102
RTVSPropertyOp17
 70
     1
102
RTVSPropertyOp18
 70
     1
102
RTVSPropertyOp19
 70
     1
102
RTVSPropertyOp20
 70
     1
102
RTVSPropertyOp21
 70
     1
102
RTVSPropertyOp22
 70
     1
102
RTVSPropertyOp23
 70
     1
102
RTVSPropertyOp24
 70
     1
102
RTVSPropertyOp25
 70
     1
102
RTVSPropertyOp26
 70
     1
102
RTVSPropertyOp27
 70
     1
102
RTVSPropertyOp28
 70
     1
102
RTVSPropertyOp29
 70
     1
102
RTVSPropertyOp30
 70
     1
102
RTVSPropertyOp31
 70
     1
102
RTVSPropertyOp32
 70
     1
102
RTVSPropertyOp33
 70
     1
102
RTVSPropertyOp34
 70
     1
102
RTVSPropertyOp35
 70
     1
102
RTVSPropertyOp36
 70
     1
102
RTVSPropertyOp37
 70
     1
102
RTVSPropertyOp38
 70
     1
102
RTVSPropertyOp39
 70
     1
102
RTVSPropertyOp40
 70
     1
102
RTVSPropertyOp41
 70
     1
102
RTVSPropertyOp42
 70
     1
102
RTVSPropertyOp43
 70
     1
102
RTVSPropertyOp44
 70
     1
102
RTVSPropertyOp45
 70
     1
102
RTVSPropertyOp46
 70
     1
102
RTVSPropertyOp47
 70
     1
102
RTVSPropertyOp48
 70
     1
102
RTVSPropertyOp49
 70
     1
102
RTVSPropertyOp50
 70
     1
102
RTVSPropertyOp51
 70
     0
102
RTVSPropertyOp52
 70
     0
102
RTVSPropertyOp53
 70
     1
102
RTVSPropertyOp54
 70
     1
102
RTVSPropertyOp55
 70
     1
102
RTVSPropertyOp56
 70
     1
102
RTVSPropertyOp57
 70
     1
102
RTVSPost2010Prop28
280
     0
102
RTVSPost2010PropOp28
 70
     1
102
RTVSPost2010Prop29
280
     1
102
RTVSPost2010PropOp29
 70
     1
102
RTVSPost2010Prop30
280
     1
102
RTVSPost2010PropOp30
 70
     1
102
RTVSPost2010Prop31
280
     0
102
RTVSPost2010PropOp31
 70
     1
102
RTVSPost2010Prop32
280
     0
102
RTVSPost2010PropOp32
 70
     1
102
RTVSPost2010Prop33
280
     0
102
RTVSPost2010PropOp33
 70
     1
102
RTVSPost2010Prop34
280
     0
102
RTVSPost2010PropOp34
 70
     1
102
RTVSPost2010Prop35
280
     0
102
RTVSPost2010PropOp35
 70
     1
102
RTVSPost2010Prop36
280
     0
102
RTVSPost2010PropOp36
 70
     1
102
RTVSPost2010Prop37
 90
       50
102
RTVSPost2010PropOp37
 70
     1
102
RTVSPost2010Prop38
140
0.0
102
RTVSPost2010PropOp38
 70
     1
102
RTVSPost2010Prop39
140
1.0
102
RTVSPost2010PropOp39
 70
     1
102
RTVSPost2010Prop40
 90
        0
102
RTVSPost2010PropOp40
 70
     1
102
RTVSPost2010Prop41ColorIndex
 90
       18
102
RTVSPost2010Prop41ColorRGB
 90
        0
102
RTVSPost2010PropOp41
 70
     1
102
RTVSPost2010Prop42
 90
       50
102
RTVSPost2010PropOp42
 70
     1
102
RTVSPost2010Prop43
 90
        3
102
RTVSPost2010PropOp43
 70
     1
102
RTVSPost2010Prop44ColorIndex
 90
        5
102
RTVSPost2010Prop44ColorRGB
 90
      255
102
RTVSPost2010PropOp44
 70
     1
102
RTVSPost2010Prop45
280
     0
102
RTVSPost2010PropOp45
 70
     1
102
RTVSPost2010Prop46
 90
       50
102
RTVSPost2010PropOp46
 70
     1
102
RTVSPost2010Prop47
 90
       50
102
RTVSPost2010PropOp47
 70
     1
102
RTVSPost2010Prop48
 90
       50
102
RTVSPost2010PropOp48
 70
     1
102
RTVSPost2010Prop49
280
     0
102
RTVSPost2010PropOp49
 70
     1
102
RTVSPost2010Prop50
 90
       50
102
RTVSPost2010PropOp50
 70
     1
102
RTVSPost2010Prop51ColorIndex
 90
      256
102
RTVSPost2010Prop51ColorRGB
 90
-16777216
102
RTVSPost2010PropOp51
 70
     0
102
RTVSPost2010Prop52
140
1.0
102
RTVSPost2010PropOp52
 70
     0
102
RTVSPost2010Prop53
 90
        2
102
RTVSPost2010PropOp53
 70
     1
102
RTVSPost2010Prop54
  1
strokes_ogs.tif
102
RTVSPost2010PropOp54
 70
     1
102
RTVSPost2010Prop55
280
     0
102
RTVSPost2010PropOp55
 70
     1
102
RTVSPost2010Prop56
140
1.0
102
RTVSPost2010PropOp56
 70
     1
102
RTVSPost2010Prop57
140
1.0
102
RTVSPost2010PropOp57
 70
     1
  0
XRECORD
  5
C0
102
{ACAD_REACTORS
330
BF
102
}
330
BF
100
AcDbXrecord
280
     1
102
RTVSPropertyOp0
 70
     0
102
RTVSPropertyOp1
 70
     0
102
RTVSPropertyOp2
 70
     0
102
RTVSPropertyOp3
 70
     0
102
RTVSPropertyOp4
 70
     0
102
RTVSPropertyOp5
 70
     0
102
RTVSPropertyOp6
 70
     0
102
RTVSPropertyOp7
 70
     0
102
RTVSPropertyOp8
 70
     0
102
RTVSPropertyOp9
 70
     0
102
RTVSPropertyOp10
 70
     0
102
RTVSPropertyOp11
 70
     0
102
RTVSPropertyOp12
 70
     0
102
RTVSPropertyOp13
 70
     0
102
RTVSPropertyOp14
 70
     2
102
RTVSPropertyOp15
 70
     0
102
RTVSPropertyOp16
 70
     0
102
RTVSPropertyOp17
 70
     0
102
RTVSPropertyOp18
 70
     0
102
RTVSPropertyOp19
 70
     0
102
RTVSPropertyOp20
 70
     0
102
RTVSPropertyOp21
 70
     0
102
RTVSPropertyOp22
 70
     0
102
RTVSPropertyOp23
 70
     0
102
RTVSPropertyOp24
 70
     0
102
RTVSPropertyOp25
 70
     0
102
RTVSPropertyOp26
 70
     0
102
RTVSPropertyOp27
 70
     0
102
RTVSPropertyOp28
 70
     0
102
RTVSPropertyOp29
 70
     0
102
RTVSPropertyOp30
 70
     0
102
RTVSPropertyOp31
 70
     0
102
RTVSPropertyOp32
 70
     0
102
RTVSPropertyOp33
 70
     0
102
RTVSPropertyOp34
 70
     0
102
RTVSPropertyOp35
 70
     0
102
RTVSPropertyOp36
 70
     0
102
RTVSPropertyOp37
 70
     0
102
RTVSPropertyOp38
 70
     0
102
RTVSPropertyOp39
 70
     0
102
RTVSPropertyOp40
 70
     0
102
RTVSPropertyOp41
 70
     0
102
RTVSPropertyOp42
 70
     0
102
RTVSPropertyOp43
 70
     0
102
RTVSPropertyOp44
 70
     0
102
RTVSPropertyOp45
 70
     0
102
RTVSPropertyOp46
 70
     0
102
RTVSPropertyOp47
 70
     0
102
RTVSPropertyOp48
 70
     0
102
RTVSPropertyOp49
 70
     0
102
RTVSPropertyOp50
 70
     0
102
RTVSPropertyOp51
 70
     0
102
RTVSPropertyOp52
 70
     0
102
RTVSPropertyOp53
 70
     0
102
RTVSPropertyOp54
 70
     0
102
RTVSPropertyOp55
 70
     0
102
RTVSPropertyOp56
 70
     0
102
RTVSPropertyOp57
 70
     0
102
RTVSPost2010Prop28
280
     0
102
RTVSPost2010PropOp28
 70
     0
102
RTVSPost2010Prop29
280
     1
102
RTVSPost2010PropOp29
 70
     0
102
RTVSPost2010Prop30
280
     1
102
RTVSPost2010PropOp30
 70
     0
102
RTVSPost2010Prop31
280
     0
102
RTVSPost2010PropOp31
 70
     0
102
RTVSPost2010Prop32
280
     0
102
RTVSPost2010PropOp32
 70
     0
102
RTVSPost2010Prop33
280
     0
102
RTVSPost2010PropOp33
 70
     0
102
RTVSPost2010Prop34
280
     0
102
RTVSPost2010PropOp34
 70
     0
102
RTVSPost2010Prop35
280
     0
102
RTVSPost2010PropOp35
 70
     0
102
RTVSPost2010Prop36
280
     0
102
RTVSPost2010PropOp36
 70
     0
102
RTVSPost2010Prop37
 90
       50
102
RTVSPost2010PropOp37
 70
     0
102
RTVSPost2010Prop38
140
0.0
102
RTVSPost2010PropOp38
 70
     0
102
RTVSPost2010Prop39
140
1.0
102
RTVSPost2010PropOp39
 70
     0
102
RTVSPost2010Prop40
 90
        0
102
RTVSPost2010PropOp40
 70
     0
102
RTVSPost2010Prop41ColorIndex
 90
       18
102
RTVSPost2010Prop41ColorRGB
 90
        0
102
RTVSPost2010PropOp41
 70
     0
102
RTVSPost2010Prop42
 90
       50
102
RTVSPost2010PropOp42
 70
     0
102
RTVSPost2010Prop43
 90
        3
102
RTVSPost2010PropOp43
 70
     0
102
RTVSPost2010Prop44ColorIndex
 90
        5
102
RTVSPost2010Prop44ColorRGB
 90
      255
102
RTVSPost2010PropOp44
 70
     0
102
RTVSPost2010Prop45
280
     0
102
RTVSPost2010PropOp45
 70
     0
102
RTVSPost2010Prop46
 90
       50
102
RTVSPost2010PropOp46
 70
     0
102
RTVSPost2010Prop47
 90
       50
102
RTVSPost2010PropOp47
 70
     0
102
RTVSPost2010Prop48
 90
       50
102
RTVSPost2010PropOp48
 70
     0
102
RTVSPost2010Prop49
280
     0
102
RTVSPost2010PropOp49
 70
     0
102
RTVSPost2010Prop50
 90
       50
102
RTVSPost2010PropOp50
 70
     0
102
RTVSPost2010Prop51ColorIndex
 90
      256
102
RTVSPost2010Prop51ColorRGB
 90
-16777216
102
RTVSPost2010PropOp51
 70
     0
102
RTVSPost2010Prop52
140
1.0
102
RTVSPost2010PropOp52
 70
     0
102
RTVSPost2010Prop53
 90
        2
102
RTVSPost2010PropOp53
 70
     0
102
RTVSPost2010Prop54
  1
strokes_ogs.tif
102
RTVSPost2010PropOp54
 70
     0
102
RTVSPost2010Prop55
280
     0
102
RTVSPost2010PropOp55
 70
     0
102
RTVSPost2010Prop56
140
1.0
102
RTVSPost2010PropOp56
 70
     0
102
RTVSPost2010Prop57
140
1.0
102
RTVSPost2010PropOp57
 70
     0
  0
XRECORD
  5
B8
102
{ACAD_REACTORS
330
B7
102
}
330
B7
100
AcDbXrecord
280
     1
102
RTVSPropertyOp0
 70
     1
102
RTVSPropertyOp1
 70
     1
102
RTVSPropertyOp2
 70
     1
102
RTVSPropertyOp3
 70
     1
102
RTVSPropertyOp4
 70
     1
102
RTVSPropertyOp5
 70
     1
102
RTVSPropertyOp6
 70
     1
102
RTVSPropertyOp7
 70
     1
102
RTVSPropertyOp8
 70
     1
102
RTVSPropertyOp9
 70
     1
102
RTVSPropertyOp10
 70
     1
102
RTVSPropertyOp11
 70
     1
102
RTVSPropertyOp12
 70
     1
102
RTVSPropertyOp13
 70
     1
102
RTVSPropertyOp14
 70
     1
102
RTVSPropertyOp15
 70
     1
102
RTVSPropertyOp16
 70
     1
102
RTVSPropertyOp17
 70
     1
102
RTVSPropertyOp18
 70
     1
102
RTVSPropertyOp19
 70
     1
102
RTVSPropertyOp20
 70
     1
102
RTVSPropertyOp21
 70
     1
102
RTVSPropertyOp22
 70
     1
102
RTVSPropertyOp23
 70
     1
102
RTVSPropertyOp24
 70
     1
102
RTVSPropertyOp25
 70
     1
102
RTVSPropertyOp26
 70
     1
102
RTVSPropertyOp27
 70
     1
102
RTVSPropertyOp28
 70
     1
102
RTVSPropertyOp29
 70
     1
102
RTVSPropertyOp30
 70
     1
102
RTVSPropertyOp31
 70
     1
102
RTVSPropertyOp32
 70
     1
102
RTVSPropertyOp33
 70
     1
102
RTVSPropertyOp34
 70
     1
102
RTVSPropertyOp35
 70
     1
102
RTVSPropertyOp36
 70
     1
102
RTVSPropertyOp37
 70
     1
102
RTVSPropertyOp38
 70
     1
102
RTVSPropertyOp39
 70
     1
102
RTVSPropertyOp40
 70
     1
102
RTVSPropertyOp41
 70
     1
102
RTVSPropertyOp42
 70
     1
102
RTVSPropertyOp43
 70
     1
102
RTVSPropertyOp44
 70
     1
102
RTVSPropertyOp45
 70
     1
102
RTVSPropertyOp46
 70
     1
102
RTVSPropertyOp47
 70
     1
102
RTVSPropertyOp48
 70
     1
102
RTVSPropertyOp49
 70
     1
102
RTVSPropertyOp50
 70
     1
102
RTVSPropertyOp51
 70
     0
102
RTVSPropertyOp52
 70
     0
102
RTVSPropertyOp53
 70
     1
102
RTVSPropertyOp54
 70
     1
102
RTVSPropertyOp55
 70
     1
102
RTVSPropertyOp56
 70
     1
102
RTVSPropertyOp57
 70
     1
102
RTVSPost2010Prop28
280
     0
102
RTVSPost2010PropOp28
 70
     1
102
RTVSPost2010Prop29
280
     1
102
RTVSPost2010PropOp29
 70
     1
102
RTVSPost2010Prop30
280
     1
102
RTVSPost2010PropOp30
 70
     1
102
RTVSPost2010Prop31
280
     0
102
RTVSPost2010PropOp31
 70
     1
102
RTVSPost2010Prop32
280
     0
102
RTVSPost2010PropOp32
 70
     1
102
RTVSPost2010Prop33
280
     0
102
RTVSPost2010PropOp33
 70
     1
102
RTVSPost2010Prop34
280
     0
102
RTVSPost2010PropOp34
 70
     1
102
RTVSPost2010Prop35
280
     0
102
RTVSPost2010PropOp35
 70
     1
102
RTVSPost2010Prop36
280
     0
102
RTVSPost2010PropOp36
 70
     1
102
RTVSPost2010Prop37
 90
       50
102
RTVSPost2010PropOp37
 70
     1
102
RTVSPost2010Prop38
140
0.0
102
RTVSPost2010PropOp38
 70
     1
102
RTVSPost2010Prop39
140
1.0
102
RTVSPost2010PropOp39
 70
     1
102
RTVSPost2010Prop40
 90
        0
102
RTVSPost2010PropOp40
 70
     1
102
RTVSPost2010Prop41ColorIndex
 90
       18
102
RTVSPost2010Prop41ColorRGB
 90
        0
102
RTVSPost2010PropOp41
 70
     1
102
RTVSPost2010Prop42
 90
       50
102
RTVSPost2010PropOp42
 70
     1
102
RTVSPost2010Prop43
 90
        3
102
RTVSPost2010PropOp43
 70
     1
102
RTVSPost2010Prop44ColorIndex
 90
        5
102
RTVSPost2010Prop44ColorRGB
 90
      255
102
RTVSPost2010PropOp44
 70
     1
102
RTVSPost2010Prop45
280
     0
102
RTVSPost2010PropOp45
 70
     1
102
RTVSPost2010Prop46
 90
       50
102
RTVSPost2010PropOp46
 70
     1
102
RTVSPost2010Prop47
 90
       50
102
RTVSPost2010PropOp47
 70
     1
102
RTVSPost2010Prop48
 90
       50
102
RTVSPost2010PropOp48
 70
     1
102
RTVSPost2010Prop49
280
     0
102
RTVSPost2010PropOp49
 70
     1
102
RTVSPost2010Prop50
 90
       50
102
RTVSPost2010PropOp50
 70
     1
102
RTVSPost2010Prop51ColorIndex
 90
      256
102
RTVSPost2010Prop51ColorRGB
 90
-16777216
102
RTVSPost2010PropOp51
 70
     0
102
RTVSPost2010Prop52
140
1.0
102
RTVSPost2010PropOp52
 70
     0
102
RTVSPost2010Prop53
 90
        2
102
RTVSPost2010PropOp53
 70
     1
102
RTVSPost2010Prop54
  1
strokes_ogs.tif
102
RTVSPost2010PropOp54
 70
     1
102
RTVSPost2010Prop55
280
     0
102
RTVSPost2010PropOp55
 70
     1
102
RTVSPost2010Prop56
140
1.0
102
RTVSPost2010PropOp56
 70
     1
102
RTVSPost2010Prop57
140
1.0
102
RTVSPost2010PropOp57
 70
     1
  0
XRECORD
  5
9E
102
{ACAD_REACTORS
330
9D
102
}
330
9D
100
AcDbXrecord
280
     1
102
RTVSPropertyOp0
 70
     1
102
RTVSPropertyOp1
 70
     1
102
RTVSPropertyOp2
 70
     1
102
RTVSPropertyOp3
 70
     1
102
RTVSPropertyOp4
 70
     1
102
RTVSPropertyOp5
 70
     1
102
RTVSPropertyOp6
 70
     1
102
RTVSPropertyOp7
 70
     1
102
RTVSPropertyOp8
 70
     1
102
RTVSPropertyOp9
 70
     1
102
RTVSPropertyOp10
 70
     1
102
RTVSPropertyOp11
 70
     1
102
RTVSPropertyOp12
 70
     1
102
RTVSPropertyOp13
 70
     1
102
RTVSPropertyOp14
 70
     1
102
RTVSPropertyOp15
 70
     1
102
RTVSPropertyOp16
 70
     1
102
RTVSPropertyOp17
 70
     1
102
RTVSPropertyOp18
 70
     1
102
RTVSPropertyOp19
 70
     1
102
RTVSPropertyOp20
 70
     1
102
RTVSPropertyOp21
 70
     1
102
RTVSPropertyOp22
 70
     1
102
RTVSPropertyOp23
 70
     1
102
RTVSPropertyOp24
 70
     1
102
RTVSPropertyOp25
 70
     1
102
RTVSPropertyOp26
 70
     1
102
RTVSPropertyOp27
 70
     1
102
RTVSPropertyOp28
 70
     1
102
RTVSPropertyOp29
 70
     1
102
RTVSPropertyOp30
 70
     1
102
RTVSPropertyOp31
 70
     1
102
RTVSPropertyOp32
 70
     1
102
RTVSPropertyOp33
 70
     1
102
RTVSPropertyOp34
 70
     1
102
RTVSPropertyOp35
 70
     1
102
RTVSPropertyOp36
 70
     1
102
RTVSPropertyOp37
 70
     1
102
RTVSPropertyOp38
 70
     1
102
RTVSPropertyOp39
 70
     1
102
RTVSPropertyOp40
 70
     1
102
RTVSPropertyOp41
 70
     1
102
RTVSPropertyOp42
 70
     1
102
RTVSPropertyOp43
 70
     1
102
RTVSPropertyOp44
 70
     1
102
RTVSPropertyOp45
 70
     1
102
RTVSPropertyOp46
 70
     1
102
RTVSPropertyOp47
 70
     1
102
RTVSPropertyOp48
 70
     1
102
RTVSPropertyOp49
 70
     1
102
RTVSPropertyOp50
 70
     1
102
RTVSPropertyOp51
 70
     0
102
RTVSPropertyOp52
 70
     0
102
RTVSPropertyOp53
 70
     1
102
RTVSPropertyOp54
 70
     1
102
RTVSPropertyOp55
 70
     1
102
RTVSPropertyOp56
 70
     1
102
RTVSPropertyOp57
 70
     1
102
RTVSPost2010Prop28
280
     0
102
RTVSPost2010PropOp28
 70
     1
102
RTVSPost2010Prop29
280
     1
102
RTVSPost2010PropOp29
 70
     1
102
RTVSPost2010Prop30
280
     1
102
RTVSPost2010PropOp30
 70
     1
102
RTVSPost2010Prop31
280
     0
102
RTVSPost2010PropOp31
 70
     1
102
RTVSPost2010Prop32
280
     0
102
RTVSPost2010PropOp32
 70
     1
102
RTVSPost2010Prop33
280
     0
102
RTVSPost2010PropOp33
 70
     1
102
RTVSPost2010Prop34
280
     0
102
RTVSPost2010PropOp34
 70
     1
102
RTVSPost2010Prop35
280
     0
102
RTVSPost2010PropOp35
 70
     1
102
RTVSPost2010Prop36
280
     0
102
RTVSPost2010PropOp36
 70
     1
102
RTVSPost2010Prop37
 90
       50
102
RTVSPost2010PropOp37
 70
     1
102
RTVSPost2010Prop38
140
0.0
102
RTVSPost2010PropOp38
 70
     1
102
RTVSPost2010Prop39
140
1.0
102
RTVSPost2010PropOp39
 70
     1
102
RTVSPost2010Prop40
 90
        0
102
RTVSPost2010PropOp40
 70
     1
102
RTVSPost2010Prop41ColorIndex
 90
       18
102
RTVSPost2010Prop41ColorRGB
 90
        0
102
RTVSPost2010PropOp41
 70
     1
102
RTVSPost2010Prop42
 90
       50
102
RTVSPost2010PropOp42
 70
     1
102
RTVSPost2010Prop43
 90
        3
102
RTVSPost2010PropOp43
 70
     1
102
RTVSPost2010Prop44ColorIndex
 90
        5
102
RTVSPost2010Prop44ColorRGB
 90
      255
102
RTVSPost2010PropOp44
 70
     1
102
RTVSPost2010Prop45
280
     0
102
RTVSPost2010PropOp45
 70
     1
102
RTVSPost2010Prop46
 90
       50
102
RTVSPost2010PropOp46
 70
     1
102
RTVSPost2010Prop47
 90
       50
102
RTVSPost2010PropOp47
 70
     1
102
RTVSPost2010Prop48
 90
       50
102
RTVSPost2010PropOp48
 70
     1
102
RTVSPost2010Prop49
280
     0
102
RTVSPost2010PropOp49
 70
     1
102
RTVSPost2010Prop50
 90
       50
102
RTVSPost2010PropOp50
 70
     1
102
RTVSPost2010Prop51ColorIndex
 90
      256
102
RTVSPost2010Prop51ColorRGB
 90
-16777216
102
RTVSPost2010PropOp51
 70
     0
102
RTVSPost2010Prop52
140
1.0
102
RTVSPost2010PropOp52
 70
     0
102
RTVSPost2010Prop53
 90
        2
102
RTVSPost2010PropOp53
 70
     1
102
RTVSPost2010Prop54
  1
strokes_ogs.tif
102
RTVSPost2010PropOp54
 70
     1
102
RTVSPost2010Prop55
280
     0
102
RTVSPost2010PropOp55
 70
     1
102
RTVSPost2010Prop56
140
1.0
102
RTVSPost2010PropOp56
 70
     1
102
RTVSPost2010Prop57
140
1.0
102
RTVSPost2010PropOp57
 70
     1
  0
XRECORD
  5
A0
102
{ACAD_REACTORS
330
9F
102
}
330
9F
100
AcDbXrecord
280
     1
102
RTVSPropertyOp0
 70
     1
102
RTVSPropertyOp1
 70
     1
102
RTVSPropertyOp2
 70
     1
102
RTVSPropertyOp3
 70
     1
102
RTVSPropertyOp4
 70
     1
102
RTVSPropertyOp5
 70
     1
102
RTVSPropertyOp6
 70
     1
102
RTVSPropertyOp7
 70
     1
102
RTVSPropertyOp8
 70
     1
102
RTVSPropertyOp9
 70
     1
102
RTVSPropertyOp10
 70
     1
102
RTVSPropertyOp11
 70
     1
102
RTVSPropertyOp12
 70
     1
102
RTVSPropertyOp13
 70
     1
102
RTVSPropertyOp14
 70
     1
102
RTVSPropertyOp15
 70
     1
102
RTVSPropertyOp16
 70
     1
102
RTVSPropertyOp17
 70
     1
102
RTVSPropertyOp18
 70
     1
102
RTVSPropertyOp19
 70
     1
102
RTVSPropertyOp20
 70
     1
102
RTVSPropertyOp21
 70
     1
102
RTVSPropertyOp22
 70
     1
102
RTVSPropertyOp23
 70
     1
102
RTVSPropertyOp24
 70
     1
102
RTVSPropertyOp25
 70
     1
102
RTVSPropertyOp26
 70
     1
102
RTVSPropertyOp27
 70
     1
102
RTVSPropertyOp28
 70
     1
102
RTVSPropertyOp29
 70
     1
102
RTVSPropertyOp30
 70
     1
102
RTVSPropertyOp31
 70
     1
102
RTVSPropertyOp32
 70
     1
102
RTVSPropertyOp33
 70
     1
102
RTVSPropertyOp34
 70
     1
102
RTVSPropertyOp35
 70
     1
102
RTVSPropertyOp36
 70
     1
102
RTVSPropertyOp37
 70
     1
102
RTVSPropertyOp38
 70
     1
102
RTVSPropertyOp39
 70
     1
102
RTVSPropertyOp40
 70
     1
102
RTVSPropertyOp41
 70
     1
102
RTVSPropertyOp42
 70
     1
102
RTVSPropertyOp43
 70
     1
102
RTVSPropertyOp44
 70
     1
102
RTVSPropertyOp45
 70
     1
102
RTVSPropertyOp46
 70
     1
102
RTVSPropertyOp47
 70
     1
102
RTVSPropertyOp48
 70
     1
102
RTVSPropertyOp49
 70
     1
102
RTVSPropertyOp50
 70
     1
102
RTVSPropertyOp51
 70
     0
102
RTVSPropertyOp52
 70
     0
102
RTVSPropertyOp53
 70
     1
102
RTVSPropertyOp54
 70
     1
102
RTVSPropertyOp55
 70
     1
102
RTVSPropertyOp56
 70
     1
102
RTVSPropertyOp57
 70
     1
102
RTVSPost2010Prop28
280
     0
102
RTVSPost2010PropOp28
 70
     1
102
RTVSPost2010Prop29
280
     1
102
RTVSPost2010PropOp29
 70
     1
102
RTVSPost2010Prop30
280
     1
102
RTVSPost2010PropOp30
 70
     1
102
RTVSPost2010Prop31
280
     0
102
RTVSPost2010PropOp31
 70
     1
102
RTVSPost2010Prop32
280
     0
102
RTVSPost2010PropOp32
 70
     1
102
RTVSPost2010Prop33
280
     0
102
RTVSPost2010PropOp33
 70
     1
102
RTVSPost2010Prop34
280
     0
102
RTVSPost2010PropOp34
 70
     1
102
RTVSPost2010Prop35
280
     0
102
RTVSPost2010PropOp35
 70
     1
102
RTVSPost2010Prop36
280
     0
102
RTVSPost2010PropOp36
 70
     1
102
RTVSPost2010Prop37
 90
       50
102
RTVSPost2010PropOp37
 70
     1
102
RTVSPost2010Prop38
140
0.0
102
RTVSPost2010PropOp38
 70
     1
102
RTVSPost2010Prop39
140
1.0
102
RTVSPost2010PropOp39
 70
     1
102
RTVSPost2010Prop40
 90
        0
102
RTVSPost2010PropOp40
 70
     1
102
RTVSPost2010Prop41ColorIndex
 90
       18
102
RTVSPost2010Prop41ColorRGB
 90
        0
102
RTVSPost2010PropOp41
 70
     1
102
RTVSPost2010Prop42
 90
       50
102
RTVSPost2010PropOp42
 70
     1
102
RTVSPost2010Prop43
 90
        3
102
RTVSPost2010PropOp43
 70
     1
102
RTVSPost2010Prop44ColorIndex
 90
        5
102
RTVSPost2010Prop44ColorRGB
 90
      255
102
RTVSPost2010PropOp44
 70
     1
102
RTVSPost2010Prop45
280
     0
102
RTVSPost2010PropOp45
 70
     1
102
RTVSPost2010Prop46
 90
       50
102
RTVSPost2010PropOp46
 70
     1
102
RTVSPost2010Prop47
 90
       50
102
RTVSPost2010PropOp47
 70
     1
102
RTVSPost2010Prop48
 90
       50
102
RTVSPost2010PropOp48
 70
     1
102
RTVSPost2010Prop49
280
     0
102
RTVSPost2010PropOp49
 70
     1
102
RTVSPost2010Prop50
 90
       50
102
RTVSPost2010PropOp50
 70
     1
102
RTVSPost2010Prop51ColorIndex
 90
      256
102
RTVSPost2010Prop51ColorRGB
 90
-16777216
102
RTVSPost2010PropOp51
 70
     0
102
RTVSPost2010Prop52
140
1.0
102
RTVSPost2010PropOp52
 70
     0
102
RTVSPost2010Prop53
 90
        2
102
RTVSPost2010PropOp53
 70
     1
102
RTVSPost2010Prop54
  1
strokes_ogs.tif
102
RTVSPost2010PropOp54
 70
     1
102
RTVSPost2010Prop55
280
     0
102
RTVSPost2010PropOp55
 70
     1
102
RTVSPost2010Prop56
140
1.0
102
RTVSPost2010PropOp56
 70
     1
102
RTVSPost2010Prop57
140
1.0
102
RTVSPost2010PropOp57
 70
     1
  0
XRECORD
  5
A2
102
{ACAD_REACTORS
330
A1
102
}
330
A1
100
AcDbXrecord
280
     1
102
RTVSPropertyOp0
 70
     1
102
RTVSPropertyOp1
 70
     1
102
RTVSPropertyOp2
 70
     1
102
RTVSPropertyOp3
 70
     1
102
RTVSPropertyOp4
 70
     1
102
RTVSPropertyOp5
 70
     1
102
RTVSPropertyOp6
 70
     1
102
RTVSPropertyOp7
 70
     1
102
RTVSPropertyOp8
 70
     1
102
RTVSPropertyOp9
 70
     1
102
RTVSPropertyOp10
 70
     1
102
RTVSPropertyOp11
 70
     1
102
RTVSPropertyOp12
 70
     1
102
RTVSPropertyOp13
 70
     1
102
RTVSPropertyOp14
 70
     1
102
RTVSPropertyOp15
 70
     1
102
RTVSPropertyOp16
 70
     1
102
RTVSPropertyOp17
 70
     1
102
RTVSPropertyOp18
 70
     1
102
RTVSPropertyOp19
 70
     1
102
RTVSPropertyOp20
 70
     1
102
RTVSPropertyOp21
 70
     1
102
RTVSPropertyOp22
 70
     1
102
RTVSPropertyOp23
 70
     1
102
RTVSPropertyOp24
 70
     1
102
RTVSPropertyOp25
 70
     1
102
RTVSPropertyOp26
 70
     1
102
RTVSPropertyOp27
 70
     1
102
RTVSPropertyOp28
 70
     1
102
RTVSPropertyOp29
 70
     1
102
RTVSPropertyOp30
 70
     1
102
RTVSPropertyOp31
 70
     1
102
RTVSPropertyOp32
 70
     1
102
RTVSPropertyOp33
 70
     1
102
RTVSPropertyOp34
 70
     1
102
RTVSPropertyOp35
 70
     1
102
RTVSPropertyOp36
 70
     1
102
RTVSPropertyOp37
 70
     1
102
RTVSPropertyOp38
 70
     1
102
RTVSPropertyOp39
 70
     1
102
RTVSPropertyOp40
 70
     1
102
RTVSPropertyOp41
 70
     1
102
RTVSPropertyOp42
 70
     1
102
RTVSPropertyOp43
 70
     1
102
RTVSPropertyOp44
 70
     1
102
RTVSPropertyOp45
 70
     1
102
RTVSPropertyOp46
 70
     1
102
RTVSPropertyOp47
 70
     1
102
RTVSPropertyOp48
 70
     1
102
RTVSPropertyOp49
 70
     1
102
RTVSPropertyOp50
 70
     1
102
RTVSPropertyOp51
 70
     0
102
RTVSPropertyOp52
 70
     0
102
RTVSPropertyOp53
 70
     1
102
RTVSPropertyOp54
 70
     1
102
RTVSPropertyOp55
 70
     1
102
RTVSPropertyOp56
 70
     1
102
RTVSPropertyOp57
 70
     1
102
RTVSPost2010Prop28
280
     0
102
RTVSPost2010PropOp28
 70
     1
102
RTVSPost2010Prop29
280
     1
102
RTVSPost2010PropOp29
 70
     1
102
RTVSPost2010Prop30
280
     1
102
RTVSPost2010PropOp30
 70
     1
102
RTVSPost2010Prop31
280
     0
102
RTVSPost2010PropOp31
 70
     1
102
RTVSPost2010Prop32
280
     0
102
RTVSPost2010PropOp32
 70
     1
102
RTVSPost2010Prop33
280
     0
102
RTVSPost2010PropOp33
 70
     1
102
RTVSPost2010Prop34
280
     0
102
RTVSPost2010PropOp34
 70
     1
102
RTVSPost2010Prop35
280
     0
102
RTVSPost2010PropOp35
 70
     1
102
RTVSPost2010Prop36
280
     0
102
RTVSPost2010PropOp36
 70
     1
102
RTVSPost2010Prop37
 90
       50
102
RTVSPost2010PropOp37
 70
     1
102
RTVSPost2010Prop38
140
0.0
102
RTVSPost2010PropOp38
 70
     1
102
RTVSPost2010Prop39
140
1.0
102
RTVSPost2010PropOp39
 70
     1
102
RTVSPost2010Prop40
 90
        0
102
RTVSPost2010PropOp40
 70
     1
102
RTVSPost2010Prop41ColorIndex
 90
       18
102
RTVSPost2010Prop41ColorRGB
 90
        0
102
RTVSPost2010PropOp41
 70
     1
102
RTVSPost2010Prop42
 90
       50
102
RTVSPost2010PropOp42
 70
     1
102
RTVSPost2010Prop43
 90
        3
102
RTVSPost2010PropOp43
 70
     1
102
RTVSPost2010Prop44ColorIndex
 90
        5
102
RTVSPost2010Prop44ColorRGB
 90
      255
102
RTVSPost2010PropOp44
 70
     1
102
RTVSPost2010Prop45
280
     0
102
RTVSPost2010PropOp45
 70
     1
102
RTVSPost2010Prop46
 90
       50
102
RTVSPost2010PropOp46
 70
     1
102
RTVSPost2010Prop47
 90
       50
102
RTVSPost2010PropOp47
 70
     1
102
RTVSPost2010Prop48
 90
       50
102
RTVSPost2010PropOp48
 70
     1
102
RTVSPost2010Prop49
280
     0
102
RTVSPost2010PropOp49
 70
     1
102
RTVSPost2010Prop50
 90
       50
102
RTVSPost2010PropOp50
 70
     1
102
RTVSPost2010Prop51ColorIndex
 90
      256
102
RTVSPost2010Prop51ColorRGB
 90
-16777216
102
RTVSPost2010PropOp51
 70
     0
102
RTVSPost2010Prop52
140
1.0
102
RTVSPost2010PropOp52
 70
     0
102
RTVSPost2010Prop53
 90
        2
102
RTVSPost2010PropOp53
 70
     1
102
RTVSPost2010Prop54
  1
strokes_ogs.tif
102
RTVSPost2010PropOp54
 70
     1
102
RTVSPost2010Prop55
280
     0
102
RTVSPost2010PropOp55
 70
     1
102
RTVSPost2010Prop56
140
1.0
102
RTVSPost2010PropOp56
 70
     1
102
RTVSPost2010Prop57
140
1.0
102
RTVSPost2010PropOp57
 70
     1
  0
XRECORD
  5
A4
102
{ACAD_REACTORS
330
A3
102
}
330
A3
100
AcDbXrecord
280
     1
102
RTVSPropertyOp0
 70
     1
102
RTVSPropertyOp1
 70
     1
102
RTVSPropertyOp2
 70
     1
102
RTVSPropertyOp3
 70
     1
102
RTVSPropertyOp4
 70
     1
102
RTVSPropertyOp5
 70
     1
102
RTVSPropertyOp6
 70
     1
102
RTVSPropertyOp7
 70
     1
102
RTVSPropertyOp8
 70
     1
102
RTVSPropertyOp9
 70
     1
102
RTVSPropertyOp10
 70
     1
102
RTVSPropertyOp11
 70
     1
102
RTVSPropertyOp12
 70
     1
102
RTVSPropertyOp13
 70
     1
102
RTVSPropertyOp14
 70
     1
102
RTVSPropertyOp15
 70
     1
102
RTVSPropertyOp16
 70
     1
102
RTVSPropertyOp17
 70
     1
102
RTVSPropertyOp18
 70
     1
102
RTVSPropertyOp19
 70
     1
102
RTVSPropertyOp20
 70
     1
102
RTVSPropertyOp21
 70
     1
102
RTVSPropertyOp22
 70
     1
102
RTVSPropertyOp23
 70
     1
102
RTVSPropertyOp24
 70
     1
102
RTVSPropertyOp25
 70
     1
102
RTVSPropertyOp26
 70
     1
102
RTVSPropertyOp27
 70
     1
102
RTVSPropertyOp28
 70
     1
102
RTVSPropertyOp29
 70
     1
102
RTVSPropertyOp30
 70
     1
102
RTVSPropertyOp31
 70
     1
102
RTVSPropertyOp32
 70
     1
102
RTVSPropertyOp33
 70
     1
102
RTVSPropertyOp34
 70
     1
102
RTVSPropertyOp35
 70
     1
102
RTVSPropertyOp36
 70
     1
102
RTVSPropertyOp37
 70
     1
102
RTVSPropertyOp38
 70
     1
102
RTVSPropertyOp39
 70
     1
102
RTVSPropertyOp40
 70
     1
102
RTVSPropertyOp41
 70
     1
102
RTVSPropertyOp42
 70
     1
102
RTVSPropertyOp43
 70
     1
102
RTVSPropertyOp44
 70
     1
102
RTVSPropertyOp45
 70
     1
102
RTVSPropertyOp46
 70
     1
102
RTVSPropertyOp47
 70
     1
102
RTVSPropertyOp48
 70
     1
102
RTVSPropertyOp49
 70
     1
102
RTVSPropertyOp50
 70
     1
102
RTVSPropertyOp51
 70
     0
102
RTVSPropertyOp52
 70
     0
102
RTVSPropertyOp53
 70
     1
102
RTVSPropertyOp54
 70
     1
102
RTVSPropertyOp55
 70
     1
102
RTVSPropertyOp56
 70
     1
102
RTVSPropertyOp57
 70
     1
102
RTVSPost2010Prop28
280
     0
102
RTVSPost2010PropOp28
 70
     1
102
RTVSPost2010Prop29
280
     1
102
RTVSPost2010PropOp29
 70
     1
102
RTVSPost2010Prop30
280
     1
102
RTVSPost2010PropOp30
 70
     1
102
RTVSPost2010Prop31
280
     0
102
RTVSPost2010PropOp31
 70
     1
102
RTVSPost2010Prop32
280
     0
102
RTVSPost2010PropOp32
 70
     1
102
RTVSPost2010Prop33
280
     0
102
RTVSPost2010PropOp33
 70
     1
102
RTVSPost2010Prop34
280
     0
102
RTVSPost2010PropOp34
 70
     1
102
RTVSPost2010Prop35
280
     0
102
RTVSPost2010PropOp35
 70
     1
102
RTVSPost2010Prop36
280
     0
102
RTVSPost2010PropOp36
 70
     1
102
RTVSPost2010Prop37
 90
       50
102
RTVSPost2010PropOp37
 70
     1
102
RTVSPost2010Prop38
140
0.0
102
RTVSPost2010PropOp38
 70
     1
102
RTVSPost2010Prop39
140
1.0
102
RTVSPost2010PropOp39
 70
     1
102
RTVSPost2010Prop40
 90
        0
102
RTVSPost2010PropOp40
 70
     1
102
RTVSPost2010Prop41ColorIndex
 90
       18
102
RTVSPost2010Prop41ColorRGB
 90
        0
102
RTVSPost2010PropOp41
 70
     1
102
RTVSPost2010Prop42
 90
       50
102
RTVSPost2010PropOp42
 70
     1
102
RTVSPost2010Prop43
 90
        3
102
RTVSPost2010PropOp43
 70
     1
102
RTVSPost2010Prop44ColorIndex
 90
        5
102
RTVSPost2010Prop44ColorRGB
 90
      255
102
RTVSPost2010PropOp44
 70
     1
102
RTVSPost2010Prop45
280
     0
102
RTVSPost2010PropOp45
 70
     1
102
RTVSPost2010Prop46
 90
       50
102
RTVSPost2010PropOp46
 70
     1
102
RTVSPost2010Prop47
 90
       50
102
RTVSPost2010PropOp47
 70
     1
102
RTVSPost2010Prop48
 90
       50
102
RTVSPost2010PropOp48
 70
     1
102
RTVSPost2010Prop49
280
     0
102
RTVSPost2010PropOp49
 70
     1
102
RTVSPost2010Prop50
 90
       50
102
RTVSPost2010PropOp50
 70
     1
102
RTVSPost2010Prop51ColorIndex
 90
      256
102
RTVSPost2010Prop51ColorRGB
 90
-16777216
102
RTVSPost2010PropOp51
 70
     0
102
RTVSPost2010Prop52
140
1.0
102
RTVSPost2010PropOp52
 70
     0
102
RTVSPost2010Prop53
 90
        2
102
RTVSPost2010PropOp53
 70
     1
102
RTVSPost2010Prop54
  1
strokes_ogs.tif
102
RTVSPost2010PropOp54
 70
     1
102
RTVSPost2010Prop55
280
     0
102
RTVSPost2010PropOp55
 70
     1
102
RTVSPost2010Prop56
140
1.0
102
RTVSPost2010PropOp56
 70
     1
102
RTVSPost2010Prop57
140
1.0
102
RTVSPost2010PropOp57
 70
     1
  0
XRECORD
  5
A8
102
{ACAD_REACTORS
330
A7
102
}
330
A7
100
AcDbXrecord
280
     1
102
RTVSPropertyOp0
 70
     1
102
RTVSPropertyOp1
 70
     1
102
RTVSPropertyOp2
 70
     1
102
RTVSPropertyOp3
 70
     1
102
RTVSPropertyOp4
 70
     1
102
RTVSPropertyOp5
 70
     1
102
RTVSPropertyOp6
 70
     1
102
RTVSPropertyOp7
 70
     1
102
RTVSPropertyOp8
 70
     1
102
RTVSPropertyOp9
 70
     1
102
RTVSPropertyOp10
 70
     1
102
RTVSPropertyOp11
 70
     1
102
RTVSPropertyOp12
 70
     1
102
RTVSPropertyOp13
 70
     1
102
RTVSPropertyOp14
 70
     1
102
RTVSPropertyOp15
 70
     1
102
RTVSPropertyOp16
 70
     1
102
RTVSPropertyOp17
 70
     1
102
RTVSPropertyOp18
 70
     1
102
RTVSPropertyOp19
 70
     1
102
RTVSPropertyOp20
 70
     1
102
RTVSPropertyOp21
 70
     1
102
RTVSPropertyOp22
 70
     1
102
RTVSPropertyOp23
 70
     1
102
RTVSPropertyOp24
 70
     1
102
RTVSPropertyOp25
 70
     1
102
RTVSPropertyOp26
 70
     1
102
RTVSPropertyOp27
 70
     1
102
RTVSPropertyOp28
 70
     1
102
RTVSPropertyOp29
 70
     1
102
RTVSPropertyOp30
 70
     1
102
RTVSPropertyOp31
 70
     1
102
RTVSPropertyOp32
 70
     1
102
RTVSPropertyOp33
 70
     1
102
RTVSPropertyOp34
 70
     1
102
RTVSPropertyOp35
 70
     1
102
RTVSPropertyOp36
 70
     1
102
RTVSPropertyOp37
 70
     1
102
RTVSPropertyOp38
 70
     1
102
RTVSPropertyOp39
 70
     1
102
RTVSPropertyOp40
 70
     1
102
RTVSPropertyOp41
 70
     1
102
RTVSPropertyOp42
 70
     1
102
RTVSPropertyOp43
 70
     1
102
RTVSPropertyOp44
 70
     1
102
RTVSPropertyOp45
 70
     1
102
RTVSPropertyOp46
 70
     1
102
RTVSPropertyOp47
 70
     1
102
RTVSPropertyOp48
 70
     1
102
RTVSPropertyOp49
 70
     1
102
RTVSPropertyOp50
 70
     1
102
RTVSPropertyOp51
 70
     0
102
RTVSPropertyOp52
 70
     0
102
RTVSPropertyOp53
 70
     1
102
RTVSPropertyOp54
 70
     1
102
RTVSPropertyOp55
 70
     1
102
RTVSPropertyOp56
 70
     1
102
RTVSPropertyOp57
 70
     1
102
RTVSPost2010Prop28
280
     0
102
RTVSPost2010PropOp28
 70
     1
102
RTVSPost2010Prop29
280
     1
102
RTVSPost2010PropOp29
 70
     1
102
RTVSPost2010Prop30
280
     1
102
RTVSPost2010PropOp30
 70
     1
102
RTVSPost2010Prop31
280
     0
102
RTVSPost2010PropOp31
 70
     1
102
RTVSPost2010Prop32
280
     0
102
RTVSPost2010PropOp32
 70
     1
102
RTVSPost2010Prop33
280
     0
102
RTVSPost2010PropOp33
 70
     1
102
RTVSPost2010Prop34
280
     0
102
RTVSPost2010PropOp34
 70
     1
102
RTVSPost2010Prop35
280
     0
102
RTVSPost2010PropOp35
 70
     1
102
RTVSPost2010Prop36
280
     0
102
RTVSPost2010PropOp36
 70
     1
102
RTVSPost2010Prop37
 90
       50
102
RTVSPost2010PropOp37
 70
     1
102
RTVSPost2010Prop38
140
0.0
102
RTVSPost2010PropOp38
 70
     1
102
RTVSPost2010Prop39
140
1.0
102
RTVSPost2010PropOp39
 70
     1
102
RTVSPost2010Prop40
 90
        0
102
RTVSPost2010PropOp40
 70
     1
102
RTVSPost2010Prop41ColorIndex
 90
       18
102
RTVSPost2010Prop41ColorRGB
 90
        0
102
RTVSPost2010PropOp41
 70
     1
102
RTVSPost2010Prop42
 90
       50
102
RTVSPost2010PropOp42
 70
     1
102
RTVSPost2010Prop43
 90
        3
102
RTVSPost2010PropOp43
 70
     1
102
RTVSPost2010Prop44ColorIndex
 90
        5
102
RTVSPost2010Prop44ColorRGB
 90
      255
102
RTVSPost2010PropOp44
 70
     1
102
RTVSPost2010Prop45
280
     0
102
RTVSPost2010PropOp45
 70
     1
102
RTVSPost2010Prop46
 90
       50
102
RTVSPost2010PropOp46
 70
     1
102
RTVSPost2010Prop47
 90
       50
102
RTVSPost2010PropOp47
 70
     1
102
RTVSPost2010Prop48
 90
       50
102
RTVSPost2010PropOp48
 70
     1
102
RTVSPost2010Prop49
280
     0
102
RTVSPost2010PropOp49
 70
     1
102
RTVSPost2010Prop50
 90
       50
102
RTVSPost2010PropOp50
 70
     1
102
RTVSPost2010Prop51ColorIndex
 90
      256
102
RTVSPost2010Prop51ColorRGB
 90
-16777216
102
RTVSPost2010PropOp51
 70
     0
102
RTVSPost2010Prop52
140
1.0
102
RTVSPost2010PropOp52
 70
     0
102
RTVSPost2010Prop53
 90
        2
102
RTVSPost2010PropOp53
 70
     1
102
RTVSPost2010Prop54
  1
strokes_ogs.tif
102
RTVSPost2010PropOp54
 70
     1
102
RTVSPost2010Prop55
280
     0
102
RTVSPost2010PropOp55
 70
     1
102
RTVSPost2010Prop56
140
1.0
102
RTVSPost2010PropOp56
 70
     1
102
RTVSPost2010Prop57
140
1.0
102
RTVSPost2010PropOp57
 70
     1
  0
XRECORD
  5
BC
102
{ACAD_REACTORS
330
BB
102
}
330
BB
100
AcDbXrecord
280
     1
102
RTVSPropertyOp0
 70
     0
102
RTVSPropertyOp1
 70
     0
102
RTVSPropertyOp2
 70
     0
102
RTVSPropertyOp3
 70
     0
102
RTVSPropertyOp4
 70
     0
102
RTVSPropertyOp5
 70
     0
102
RTVSPropertyOp6
 70
     0
102
RTVSPropertyOp7
 70
     0
102
RTVSPropertyOp8
 70
     0
102
RTVSPropertyOp9
 70
     0
102
RTVSPropertyOp10
 70
     0
102
RTVSPropertyOp11
 70
     0
102
RTVSPropertyOp12
 70
     0
102
RTVSPropertyOp13
 70
     0
102
RTVSPropertyOp14
 70
     2
102
RTVSPropertyOp15
 70
     0
102
RTVSPropertyOp16
 70
     0
102
RTVSPropertyOp17
 70
     0
102
RTVSPropertyOp18
 70
     0
102
RTVSPropertyOp19
 70
     0
102
RTVSPropertyOp20
 70
     0
102
RTVSPropertyOp21
 70
     0
102
RTVSPropertyOp22
 70
     0
102
RTVSPropertyOp23
 70
     0
102
RTVSPropertyOp24
 70
     0
102
RTVSPropertyOp25
 70
     0
102
RTVSPropertyOp26
 70
     0
102
RTVSPropertyOp27
 70
     0
102
RTVSPropertyOp28
 70
     0
102
RTVSPropertyOp29
 70
     0
102
RTVSPropertyOp30
 70
     0
102
RTVSPropertyOp31
 70
     0
102
RTVSPropertyOp32
 70
     0
102
RTVSPropertyOp33
 70
     0
102
RTVSPropertyOp34
 70
     0
102
RTVSPropertyOp35
 70
     0
102
RTVSPropertyOp36
 70
     0
102
RTVSPropertyOp37
 70
     0
102
RTVSPropertyOp38
 70
     0
102
RTVSPropertyOp39
 70
     0
102
RTVSPropertyOp40
 70
     0
102
RTVSPropertyOp41
 70
     0
102
RTVSPropertyOp42
 70
     0
102
RTVSPropertyOp43
 70
     0
102
RTVSPropertyOp44
 70
     0
102
RTVSPropertyOp45
 70
     0
102
RTVSPropertyOp46
 70
     0
102
RTVSPropertyOp47
 70
     0
102
RTVSPropertyOp48
 70
     0
102
RTVSPropertyOp49
 70
     0
102
RTVSPropertyOp50
 70
     0
102
RTVSPropertyOp51
 70
     0
102
RTVSPropertyOp52
 70
     0
102
RTVSPropertyOp53
 70
     0
102
RTVSPropertyOp54
 70
     0
102
RTVSPropertyOp55
 70
     0
102
RTVSPropertyOp56
 70
     0
102
RTVSPropertyOp57
 70
     0
102
RTVSPost2010Prop28
280
     0
102
RTVSPost2010PropOp28
 70
     0
102
RTVSPost2010Prop29
280
     1
102
RTVSPost2010PropOp29
 70
     0
102
RTVSPost2010Prop30
280
     1
102
RTVSPost2010PropOp30
 70
     0
102
RTVSPost2010Prop31
280
     0
102
RTVSPost2010PropOp31
 70
     0
102
RTVSPost2010Prop32
280
     0
102
RTVSPost2010PropOp32
 70
     0
102
RTVSPost2010Prop33
280
     0
102
RTVSPost2010PropOp33
 70
     0
102
RTVSPost2010Prop34
280
     0
102
RTVSPost2010PropOp34
 70
     0
102
RTVSPost2010Prop35
280
     0
102
RTVSPost2010PropOp35
 70
     0
102
RTVSPost2010Prop36
280
     0
102
RTVSPost2010PropOp36
 70
     0
102
RTVSPost2010Prop37
 90
       50
102
RTVSPost2010PropOp37
 70
     0
102
RTVSPost2010Prop38
140
0.0
102
RTVSPost2010PropOp38
 70
     0
102
RTVSPost2010Prop39
140
1.0
102
RTVSPost2010PropOp39
 70
     0
102
RTVSPost2010Prop40
 90
        0
102
RTVSPost2010PropOp40
 70
     0
102
RTVSPost2010Prop41ColorIndex
 90
       18
102
RTVSPost2010Prop41ColorRGB
 90
        0
102
RTVSPost2010PropOp41
 70
     0
102
RTVSPost2010Prop42
 90
       50
102
RTVSPost2010PropOp42
 70
     0
102
RTVSPost2010Prop43
 90
        3
102
RTVSPost2010PropOp43
 70
     0
102
RTVSPost2010Prop44ColorIndex
 90
        5
102
RTVSPost2010Prop44ColorRGB
 90
      255
102
RTVSPost2010PropOp44
 70
     0
102
RTVSPost2010Prop45
280
     0
102
RTVSPost2010PropOp45
 70
     0
102
RTVSPost2010Prop46
 90
       50
102
RTVSPost2010PropOp46
 70
     0
102
RTVSPost2010Prop47
 90
       50
102
RTVSPost2010PropOp47
 70
     0
102
RTVSPost2010Prop48
 90
       50
102
RTVSPost2010PropOp48
 70
     0
102
RTVSPost2010Prop49
280
     0
102
RTVSPost2010PropOp49
 70
     0
102
RTVSPost2010Prop50
 90
       50
102
RTVSPost2010PropOp50
 70
     0
102
RTVSPost2010Prop51ColorIndex
 90
      256
102
RTVSPost2010Prop51ColorRGB
 90
-16777216
102
RTVSPost2010PropOp51
 70
     0
102
RTVSPost2010Prop52
140
1.0
102
RTVSPost2010PropOp52
 70
     0
102
RTVSPost2010Prop53
 90
        2
102
RTVSPost2010PropOp53
 70
     0
102
RTVSPost2010Prop54
  1
strokes_ogs.tif
102
RTVSPost2010PropOp54
 70
     0
102
RTVSPost2010Prop55
280
     0
102
RTVSPost2010PropOp55
 70
     0
102
RTVSPost2010Prop56
140
1.0
102
RTVSPost2010PropOp56
 70
     0
102
RTVSPost2010Prop57
140
1.0
102
RTVSPost2010PropOp57
 70
     0
  0
XRECORD
  5
B6
102
{ACAD_REACTORS
330
B5
102
}
330
B5
100
AcDbXrecord
280
     1
102
RTVSPropertyOp0
 70
     1
102
RTVSPropertyOp1
 70
     1
102
RTVSPropertyOp2
 70
     1
102
RTVSPropertyOp3
 70
     1
102
RTVSPropertyOp4
 70
     1
102
RTVSPropertyOp5
 70
     1
102
RTVSPropertyOp6
 70
     1
102
RTVSPropertyOp7
 70
     1
102
RTVSPropertyOp8
 70
     1
102
RTVSPropertyOp9
 70
     1
102
RTVSPropertyOp10
 70
     1
102
RTVSPropertyOp11
 70
     1
102
RTVSPropertyOp12
 70
     1
102
RTVSPropertyOp13
 70
     1
102
RTVSPropertyOp14
 70
     1
102
RTVSPropertyOp15
 70
     1
102
RTVSPropertyOp16
 70
     1
102
RTVSPropertyOp17
 70
     1
102
RTVSPropertyOp18
 70
     1
102
RTVSPropertyOp19
 70
     1
102
RTVSPropertyOp20
 70
     1
102
RTVSPropertyOp21
 70
     1
102
RTVSPropertyOp22
 70
     1
102
RTVSPropertyOp23
 70
     1
102
RTVSPropertyOp24
 70
     1
102
RTVSPropertyOp25
 70
     1
102
RTVSPropertyOp26
 70
     1
102
RTVSPropertyOp27
 70
     1
102
RTVSPropertyOp28
 70
     1
102
RTVSPropertyOp29
 70
     1
102
RTVSPropertyOp30
 70
     1
102
RTVSPropertyOp31
 70
     1
102
RTVSPropertyOp32
 70
     1
102
RTVSPropertyOp33
 70
     1
102
RTVSPropertyOp34
 70
     1
102
RTVSPropertyOp35
 70
     1
102
RTVSPropertyOp36
 70
     1
102
RTVSPropertyOp37
 70
     1
102
RTVSPropertyOp38
 70
     1
102
RTVSPropertyOp39
 70
     1
102
RTVSPropertyOp40
 70
     1
102
RTVSPropertyOp41
 70
     1
102
RTVSPropertyOp42
 70
     1
102
RTVSPropertyOp43
 70
     1
102
RTVSPropertyOp44
 70
     1
102
RTVSPropertyOp45
 70
     1
102
RTVSPropertyOp46
 70
     1
102
RTVSPropertyOp47
 70
     1
102
RTVSPropertyOp48
 70
     1
102
RTVSPropertyOp49
 70
     1
102
RTVSPropertyOp50
 70
     1
102
RTVSPropertyOp51
 70
     0
102
RTVSPropertyOp52
 70
     0
102
RTVSPropertyOp53
 70
     1
102
RTVSPropertyOp54
 70
     1
102
RTVSPropertyOp55
 70
     1
102
RTVSPropertyOp56
 70
     1
102
RTVSPropertyOp57
 70
     1
102
RTVSPost2010Prop28
280
     0
102
RTVSPost2010PropOp28
 70
     1
102
RTVSPost2010Prop29
280
     1
102
RTVSPost2010PropOp29
 70
     1
102
RTVSPost2010Prop30
280
     1
102
RTVSPost2010PropOp30
 70
     1
102
RTVSPost2010Prop31
280
     0
102
RTVSPost2010PropOp31
 70
     1
102
RTVSPost2010Prop32
280
     0
102
RTVSPost2010PropOp32
 70
     1
102
RTVSPost2010Prop33
280
     0
102
RTVSPost2010PropOp33
 70
     1
102
RTVSPost2010Prop34
280
     0
102
RTVSPost2010PropOp34
 70
     1
102
RTVSPost2010Prop35
280
     0
102
RTVSPost2010PropOp35
 70
     1
102
RTVSPost2010Prop36
280
     0
102
RTVSPost2010PropOp36
 70
     1
102
RTVSPost2010Prop37
 90
       50
102
RTVSPost2010PropOp37
 70
     1
102
RTVSPost2010Prop38
140
0.0
102
RTVSPost2010PropOp38
 70
     1
102
RTVSPost2010Prop39
140
1.0
102
RTVSPost2010PropOp39
 70
     1
102
RTVSPost2010Prop40
 90
        0
102
RTVSPost2010PropOp40
 70
     1
102
RTVSPost2010Prop41ColorIndex
 90
       18
102
RTVSPost2010Prop41ColorRGB
 90
        0
102
RTVSPost2010PropOp41
 70
     1
102
RTVSPost2010Prop42
 90
       50
102
RTVSPost2010PropOp42
 70
     1
102
RTVSPost2010Prop43
 90
        3
102
RTVSPost2010PropOp43
 70
     1
102
RTVSPost2010Prop44ColorIndex
 90
        5
102
RTVSPost2010Prop44ColorRGB
 90
      255
102
RTVSPost2010PropOp44
 70
     1
102
RTVSPost2010Prop45
280
     0
102
RTVSPost2010PropOp45
 70
     1
102
RTVSPost2010Prop46
 90
       50
102
RTVSPost2010PropOp46
 70
     1
102
RTVSPost2010Prop47
 90
       50
102
RTVSPost2010PropOp47
 70
     1
102
RTVSPost2010Prop48
 90
       50
102
RTVSPost2010PropOp48
 70
     1
102
RTVSPost2010Prop49
280
     0
102
RTVSPost2010PropOp49
 70
     1
102
RTVSPost2010Prop50
 90
       50
102
RTVSPost2010PropOp50
 70
     1
102
RTVSPost2010Prop51ColorIndex
 90
      256
102
RTVSPost2010Prop51ColorRGB
 90
-16777216
102
RTVSPost2010PropOp51
 70
     0
102
RTVSPost2010Prop52
140
1.0
102
RTVSPost2010PropOp52
 70
     0
102
RTVSPost2010Prop53
 90
        2
102
RTVSPost2010PropOp53
 70
     1
102
RTVSPost2010Prop54
  1
strokes_ogs.tif
102
RTVSPost2010PropOp54
 70
     1
102
RTVSPost2010Prop55
280
     0
102
RTVSPost2010PropOp55
 70
     1
102
RTVSPost2010Prop56
140
1.0
102
RTVSPost2010PropOp56
 70
     1
102
RTVSPost2010Prop57
140
1.0
102
RTVSPost2010PropOp57
 70
     1
  0
XRECORD
  5
BE
102
{ACAD_REACTORS
330
BD
102
}
330
BD
100
AcDbXrecord
280
     1
102
RTVSPropertyOp0
 70
     0
102
RTVSPropertyOp1
 70
     0
102
RTVSPropertyOp2
 70
     0
102
RTVSPropertyOp3
 70
     0
102
RTVSPropertyOp4
 70
     0
102
RTVSPropertyOp5
 70
     0
102
RTVSPropertyOp6
 70
     0
102
RTVSPropertyOp7
 70
     0
102
RTVSPropertyOp8
 70
     0
102
RTVSPropertyOp9
 70
     0
102
RTVSPropertyOp10
 70
     0
102
RTVSPropertyOp11
 70
     0
102
RTVSPropertyOp12
 70
     0
102
RTVSPropertyOp13
 70
     0
102
RTVSPropertyOp14
 70
     2
102
RTVSPropertyOp15
 70
     0
102
RTVSPropertyOp16
 70
     0
102
RTVSPropertyOp17
 70
     0
102
RTVSPropertyOp18
 70
     0
102
RTVSPropertyOp19
 70
     0
102
RTVSPropertyOp20
 70
     0
102
RTVSPropertyOp21
 70
     0
102
RTVSPropertyOp22
 70
     0
102
RTVSPropertyOp23
 70
     0
102
RTVSPropertyOp24
 70
     0
102
RTVSPropertyOp25
 70
     0
102
RTVSPropertyOp26
 70
     0
102
RTVSPropertyOp27
 70
     0
102
RTVSPropertyOp28
 70
     0
102
RTVSPropertyOp29
 70
     0
102
RTVSPropertyOp30
 70
     0
102
RTVSPropertyOp31
 70
     0
102
RTVSPropertyOp32
 70
     0
102
RTVSPropertyOp33
 70
     0
102
RTVSPropertyOp34
 70
     0
102
RTVSPropertyOp35
 70
     0
102
RTVSPropertyOp36
 70
     0
102
RTVSPropertyOp37
 70
     0
102
RTVSPropertyOp38
 70
     0
102
RTVSPropertyOp39
 70
     0
102
RTVSPropertyOp40
 70
     0
102
RTVSPropertyOp41
 70
     0
102
RTVSPropertyOp42
 70
     0
102
RTVSPropertyOp43
 70
     0
102
RTVSPropertyOp44
 70
     0
102
RTVSPropertyOp45
 70
     0
102
RTVSPropertyOp46
 70
     0
102
RTVSPropertyOp47
 70
     0
102
RTVSPropertyOp48
 70
     0
102
RTVSPropertyOp49
 70
     0
102
RTVSPropertyOp50
 70
     0
102
RTVSPropertyOp51
 70
     0
102
RTVSPropertyOp52
 70
     0
102
RTVSPropertyOp53
 70
     0
102
RTVSPropertyOp54
 70
     0
102
RTVSPropertyOp55
 70
     0
102
RTVSPropertyOp56
 70
     0
102
RTVSPropertyOp57
 70
     0
102
RTVSPost2010Prop28
280
     0
102
RTVSPost2010PropOp28
 70
     0
102
RTVSPost2010Prop29
280
     1
102
RTVSPost2010PropOp29
 70
     0
102
RTVSPost2010Prop30
280
     1
102
RTVSPost2010PropOp30
 70
     0
102
RTVSPost2010Prop31
280
     0
102
RTVSPost2010PropOp31
 70
     0
102
RTVSPost2010Prop32
280
     0
102
RTVSPost2010PropOp32
 70
     0
102
RTVSPost2010Prop33
280
     0
102
RTVSPost2010PropOp33
 70
     0
102
RTVSPost2010Prop34
280
     0
102
RTVSPost2010PropOp34
 70
     0
102
RTVSPost2010Prop35
280
     0
102
RTVSPost2010PropOp35
 70
     0
102
RTVSPost2010Prop36
280
     0
102
RTVSPost2010PropOp36
 70
     0
102
RTVSPost2010Prop37
 90
       50
102
RTVSPost2010PropOp37
 70
     0
102
RTVSPost2010Prop38
140
0.0
102
RTVSPost2010PropOp38
 70
     0
102
RTVSPost2010Prop39
140
1.0
102
RTVSPost2010PropOp39
 70
     0
102
RTVSPost2010Prop40
 90
        0
102
RTVSPost2010PropOp40
 70
     0
102
RTVSPost2010Prop41ColorIndex
 90
       18
102
RTVSPost2010Prop41ColorRGB
 90
        0
102
RTVSPost2010PropOp41
 70
     0
102
RTVSPost2010Prop42
 90
       50
102
RTVSPost2010PropOp42
 70
     0
102
RTVSPost2010Prop43
 90
        3
102
RTVSPost2010PropOp43
 70
     0
102
RTVSPost2010Prop44ColorIndex
 90
        5
102
RTVSPost2010Prop44ColorRGB
 90
      255
102
RTVSPost2010PropOp44
 70
     0
102
RTVSPost2010Prop45
280
     0
102
RTVSPost2010PropOp45
 70
     0
102
RTVSPost2010Prop46
 90
       50
102
RTVSPost2010PropOp46
 70
     0
102
RTVSPost2010Prop47
 90
       50
102
RTVSPost2010PropOp47
 70
     0
102
RTVSPost2010Prop48
 90
       50
102
RTVSPost2010PropOp48
 70
     0
102
RTVSPost2010Prop49
280
     0
102
RTVSPost2010PropOp49
 70
     0
102
RTVSPost2010Prop50
 90
       50
102
RTVSPost2010PropOp50
 70
     0
102
RTVSPost2010Prop51ColorIndex
 90
      256
102
RTVSPost2010Prop51ColorRGB
 90
-16777216
102
RTVSPost2010PropOp51
 70
     0
102
RTVSPost2010Prop52
140
1.0
102
RTVSPost2010PropOp52
 70
     0
102
RTVSPost2010Prop53
 90
        2
102
RTVSPost2010PropOp53
 70
     0
102
RTVSPost2010Prop54
  1
strokes_ogs.tif
102
RTVSPost2010PropOp54
 70
     0
102
RTVSPost2010Prop55
280
     0
102
RTVSPost2010PropOp55
 70
     0
102
RTVSPost2010Prop56
140
1.0
102
RTVSPost2010PropOp56
 70
     0
102
RTVSPost2010Prop57
140
1.0
102
RTVSPost2010PropOp57
 70
     0
  0
XRECORD
  5
AC
102
{ACAD_REACTORS
330
AB
102
}
330
AB
100
AcDbXrecord
280
     1
102
RTVSPropertyOp0
 70
     1
102
RTVSPropertyOp1
 70
     1
102
RTVSPropertyOp2
 70
     1
102
RTVSPropertyOp3
 70
     1
102
RTVSPropertyOp4
 70
     1
102
RTVSPropertyOp5
 70
     1
102
RTVSPropertyOp6
 70
     1
102
RTVSPropertyOp7
 70
     1
102
RTVSPropertyOp8
 70
     1
102
RTVSPropertyOp9
 70
     1
102
RTVSPropertyOp10
 70
     1
102
RTVSPropertyOp11
 70
     1
102
RTVSPropertyOp12
 70
     1
102
RTVSPropertyOp13
 70
     1
102
RTVSPropertyOp14
 70
     1
102
RTVSPropertyOp15
 70
     1
102
RTVSPropertyOp16
 70
     1
102
RTVSPropertyOp17
 70
     1
102
RTVSPropertyOp18
 70
     1
102
RTVSPropertyOp19
 70
     1
102
RTVSPropertyOp20
 70
     1
102
RTVSPropertyOp21
 70
     1
102
RTVSPropertyOp22
 70
     1
102
RTVSPropertyOp23
 70
     1
102
RTVSPropertyOp24
 70
     1
102
RTVSPropertyOp25
 70
     1
102
RTVSPropertyOp26
 70
     1
102
RTVSPropertyOp27
 70
     1
102
RTVSPropertyOp28
 70
     1
102
RTVSPropertyOp29
 70
     1
102
RTVSPropertyOp30
 70
     1
102
RTVSPropertyOp31
 70
     1
102
RTVSPropertyOp32
 70
     1
102
RTVSPropertyOp33
 70
     1
102
RTVSPropertyOp34
 70
     1
102
RTVSPropertyOp35
 70
     1
102
RTVSPropertyOp36
 70
     1
102
RTVSPropertyOp37
 70
     1
102
RTVSPropertyOp38
 70
     1
102
RTVSPropertyOp39
 70
     1
102
RTVSPropertyOp40
 70
     1
102
RTVSPropertyOp41
 70
     1
102
RTVSPropertyOp42
 70
     1
102
RTVSPropertyOp43
 70
     1
102
RTVSPropertyOp44
 70
     1
102
RTVSPropertyOp45
 70
     1
102
RTVSPropertyOp46
 70
     1
102
RTVSPropertyOp47
 70
     1
102
RTVSPropertyOp48
 70
     1
102
RTVSPropertyOp49
 70
     1
102
RTVSPropertyOp50
 70
     1
102
RTVSPropertyOp51
 70
     0
102
RTVSPropertyOp52
 70
     0
102
RTVSPropertyOp53
 70
     1
102
RTVSPropertyOp54
 70
     1
102
RTVSPropertyOp55
 70
     1
102
RTVSPropertyOp56
 70
     1
102
RTVSPropertyOp57
 70
     1
102
RTVSPost2010Prop28
280
     0
102
RTVSPost2010PropOp28
 70
     1
102
RTVSPost2010Prop29
280
     1
102
RTVSPost2010PropOp29
 70
     1
102
RTVSPost2010Prop30
280
     1
102
RTVSPost2010PropOp30
 70
     1
102
RTVSPost2010Prop31
280
     0
102
RTVSPost2010PropOp31
 70
     1
102
RTVSPost2010Prop32
280
     0
102
RTVSPost2010PropOp32
 70
     1
102
RTVSPost2010Prop33
280
     0
102
RTVSPost2010PropOp33
 70
     1
102
RTVSPost2010Prop34
280
     0
102
RTVSPost2010PropOp34
 70
     1
102
RTVSPost2010Prop35
280
     0
102
RTVSPost2010PropOp35
 70
     1
102
RTVSPost2010Prop36
280
     0
102
RTVSPost2010PropOp36
 70
     1
102
RTVSPost2010Prop37
 90
       50
102
RTVSPost2010PropOp37
 70
     1
102
RTVSPost2010Prop38
140
0.0
102
RTVSPost2010PropOp38
 70
     1
102
RTVSPost2010Prop39
140
1.0
102
RTVSPost2010PropOp39
 70
     1
102
RTVSPost2010Prop40
 90
        0
102
RTVSPost2010PropOp40
 70
     1
102
RTVSPost2010Prop41ColorIndex
 90
       18
102
RTVSPost2010Prop41ColorRGB
 90
        0
102
RTVSPost2010PropOp41
 70
     1
102
RTVSPost2010Prop42
 90
       50
102
RTVSPost2010PropOp42
 70
     1
102
RTVSPost2010Prop43
 90
        3
102
RTVSPost2010PropOp43
 70
     1
102
RTVSPost2010Prop44ColorIndex
 90
        5
102
RTVSPost2010Prop44ColorRGB
 90
      255
102
RTVSPost2010PropOp44
 70
     1
102
RTVSPost2010Prop45
280
     0
102
RTVSPost2010PropOp45
 70
     1
102
RTVSPost2010Prop46
 90
       50
102
RTVSPost2010PropOp46
 70
     1
102
RTVSPost2010Prop47
 90
       50
102
RTVSPost2010PropOp47
 70
     1
102
RTVSPost2010Prop48
 90
       50
102
RTVSPost2010PropOp48
 70
     1
102
RTVSPost2010Prop49
280
     0
102
RTVSPost2010PropOp49
 70
     1
102
RTVSPost2010Prop50
 90
       50
102
RTVSPost2010PropOp50
 70
     1
102
RTVSPost2010Prop51ColorIndex
 90
      256
102
RTVSPost2010Prop51ColorRGB
 90
-16777216
102
RTVSPost2010PropOp51
 70
     0
102
RTVSPost2010Prop52
140
1.0
102
RTVSPost2010PropOp52
 70
     0
102
RTVSPost2010Prop53
 90
        2
102
RTVSPost2010PropOp53
 70
     1
102
RTVSPost2010Prop54
  1
strokes_ogs.tif
102
RTVSPost2010PropOp54
 70
     1
102
RTVSPost2010Prop55
280
     0
102
RTVSPost2010PropOp55
 70
     1
102
RTVSPost2010Prop56
140
1.0
102
RTVSPost2010PropOp56
 70
     1
102
RTVSPost2010Prop57
140
1.0
102
RTVSPost2010PropOp57
 70
     1
  0
XRECORD
  5
CA
102
{ACAD_REACTORS
330
C9
102
}
330
C9
100
AcDbXrecord
280
     1
102
RTVSPropertyOp0
 70
     1
102
RTVSPropertyOp1
 70
     1
102
RTVSPropertyOp2
 70
     1
102
RTVSPropertyOp3
 70
     1
102
RTVSPropertyOp4
 70
     1
102
RTVSPropertyOp5
 70
     1
102
RTVSPropertyOp6
 70
     1
102
RTVSPropertyOp7
 70
     1
102
RTVSPropertyOp8
 70
     1
102
RTVSPropertyOp9
 70
     1
102
RTVSPropertyOp10
 70
     1
102
RTVSPropertyOp11
 70
     1
102
RTVSPropertyOp12
 70
     1
102
RTVSPropertyOp13
 70
     1
102
RTVSPropertyOp14
 70
     1
102
RTVSPropertyOp15
 70
     1
102
RTVSPropertyOp16
 70
     1
102
RTVSPropertyOp17
 70
     1
102
RTVSPropertyOp18
 70
     1
102
RTVSPropertyOp19
 70
     1
102
RTVSPropertyOp20
 70
     1
102
RTVSPropertyOp21
 70
     1
102
RTVSPropertyOp22
 70
     1
102
RTVSPropertyOp23
 70
     1
102
RTVSPropertyOp24
 70
     1
102
RTVSPropertyOp25
 70
     1
102
RTVSPropertyOp26
 70
     1
102
RTVSPropertyOp27
 70
     1
102
RTVSPropertyOp28
 70
     1
102
RTVSPropertyOp29
 70
     1
102
RTVSPropertyOp30
 70
     1
102
RTVSPropertyOp31
 70
     1
102
RTVSPropertyOp32
 70
     1
102
RTVSPropertyOp33
 70
     1
102
RTVSPropertyOp34
 70
     1
102
RTVSPropertyOp35
 70
     1
102
RTVSPropertyOp36
 70
     1
102
RTVSPropertyOp37
 70
     1
102
RTVSPropertyOp38
 70
     1
102
RTVSPropertyOp39
 70
     1
102
RTVSPropertyOp40
 70
     1
102
RTVSPropertyOp41
 70
     1
102
RTVSPropertyOp42
 70
     1
102
RTVSPropertyOp43
 70
     1
102
RTVSPropertyOp44
 70
     1
102
RTVSPropertyOp45
 70
     1
102
RTVSPropertyOp46
 70
     1
102
RTVSPropertyOp47
 70
     1
102
RTVSPropertyOp48
 70
     1
102
RTVSPropertyOp49
 70
     1
102
RTVSPropertyOp50
 70
     1
102
RTVSPropertyOp51
 70
     0
102
RTVSPropertyOp52
 70
     0
102
RTVSPropertyOp53
 70
     1
102
RTVSPropertyOp54
 70
     1
102
RTVSPropertyOp55
 70
     1
102
RTVSPropertyOp56
 70
     1
102
RTVSPropertyOp57
 70
     1
102
RTVSPost2010Prop28
280
     0
102
RTVSPost2010PropOp28
 70
     1
102
RTVSPost2010Prop29
280
     1
102
RTVSPost2010PropOp29
 70
     1
102
RTVSPost2010Prop30
280
     1
102
RTVSPost2010PropOp30
 70
     1
102
RTVSPost2010Prop31
280
     0
102
RTVSPost2010PropOp31
 70
     1
102
RTVSPost2010Prop32
280
     0
102
RTVSPost2010PropOp32
 70
     1
102
RTVSPost2010Prop33
280
     0
102
RTVSPost2010PropOp33
 70
     1
102
RTVSPost2010Prop34
280
     0
102
RTVSPost2010PropOp34
 70
     1
102
RTVSPost2010Prop35
280
     0
102
RTVSPost2010PropOp35
 70
     1
102
RTVSPost2010Prop36
280
     0
102
RTVSPost2010PropOp36
 70
     1
102
RTVSPost2010Prop37
 90
       50
102
RTVSPost2010PropOp37
 70
     1
102
RTVSPost2010Prop38
140
0.0
102
RTVSPost2010PropOp38
 70
     1
102
RTVSPost2010Prop39
140
1.0
102
RTVSPost2010PropOp39
 70
     1
102
RTVSPost2010Prop40
 90
        0
102
RTVSPost2010PropOp40
 70
     1
102
RTVSPost2010Prop41ColorIndex
 90
       18
102
RTVSPost2010Prop41ColorRGB
 90
        0
102
RTVSPost2010PropOp41
 70
     1
102
RTVSPost2010Prop42
 90
       50
102
RTVSPost2010PropOp42
 70
     1
102
RTVSPost2010Prop43
 90
        3
102
RTVSPost2010PropOp43
 70
     1
102
RTVSPost2010Prop44ColorIndex
 90
        5
102
RTVSPost2010Prop44ColorRGB
 90
      255
102
RTVSPost2010PropOp44
 70
     1
102
RTVSPost2010Prop45
280
     0
102
RTVSPost2010PropOp45
 70
     1
102
RTVSPost2010Prop46
 90
       50
102
RTVSPost2010PropOp46
 70
     1
102
RTVSPost2010Prop47
 90
       50
102
RTVSPost2010PropOp47
 70
     1
102
RTVSPost2010Prop48
 90
       50
102
RTVSPost2010PropOp48
 70
     1
102
RTVSPost2010Prop49
280
     0
102
RTVSPost2010PropOp49
 70
     1
102
RTVSPost2010Prop50
 90
       50
102
RTVSPost2010PropOp50
 70
     1
102
RTVSPost2010Prop51ColorIndex
 90
      256
102
RTVSPost2010Prop51ColorRGB
 90
-16777216
102
RTVSPost2010PropOp51
 70
     0
102
RTVSPost2010Prop52
140
1.0
102
RTVSPost2010PropOp52
 70
     0
102
RTVSPost2010Prop53
 90
        2
102
RTVSPost2010PropOp53
 70
     1
102
RTVSPost2010Prop54
  1
strokes_ogs.tif
102
RTVSPost2010PropOp54
 70
     1
102
RTVSPost2010Prop55
280
     0
102
RTVSPost2010PropOp55
 70
     1
102
RTVSPost2010Prop56
140
1.0
102
RTVSPost2010PropOp56
 70
     1
102
RTVSPost2010Prop57
140
1.0
102
RTVSPost2010PropOp57
 70
     1
  0
XRECORD
  5
C8
102
{ACAD_REACTORS
330
C7
102
}
330
C7
100
AcDbXrecord
280
     1
102
RTVSPropertyOp0
 70
     1
102
RTVSPropertyOp1
 70
     1
102
RTVSPropertyOp2
 70
     1
102
RTVSPropertyOp3
 70
     1
102
RTVSPropertyOp4
 70
     1
102
RTVSPropertyOp5
 70
     1
102
RTVSPropertyOp6
 70
     1
102
RTVSPropertyOp7
 70
     1
102
RTVSPropertyOp8
 70
     1
102
RTVSPropertyOp9
 70
     1
102
RTVSPropertyOp10
 70
     1
102
RTVSPropertyOp11
 70
     1
102
RTVSPropertyOp12
 70
     1
102
RTVSPropertyOp13
 70
     1
102
RTVSPropertyOp14
 70
     1
102
RTVSPropertyOp15
 70
     1
102
RTVSPropertyOp16
 70
     1
102
RTVSPropertyOp17
 70
     1
102
RTVSPropertyOp18
 70
     1
102
RTVSPropertyOp19
 70
     1
102
RTVSPropertyOp20
 70
     1
102
RTVSPropertyOp21
 70
     1
102
RTVSPropertyOp22
 70
     1
102
RTVSPropertyOp23
 70
     1
102
RTVSPropertyOp24
 70
     1
102
RTVSPropertyOp25
 70
     1
102
RTVSPropertyOp26
 70
     1
102
RTVSPropertyOp27
 70
     1
102
RTVSPropertyOp28
 70
     1
102
RTVSPropertyOp29
 70
     1
102
RTVSPropertyOp30
 70
     1
102
RTVSPropertyOp31
 70
     1
102
RTVSPropertyOp32
 70
     1
102
RTVSPropertyOp33
 70
     1
102
RTVSPropertyOp34
 70
     1
102
RTVSPropertyOp35
 70
     1
102
RTVSPropertyOp36
 70
     1
102
RTVSPropertyOp37
 70
     1
102
RTVSPropertyOp38
 70
     1
102
RTVSPropertyOp39
 70
     1
102
RTVSPropertyOp40
 70
     1
102
RTVSPropertyOp41
 70
     1
102
RTVSPropertyOp42
 70
     1
102
RTVSPropertyOp43
 70
     1
102
RTVSPropertyOp44
 70
     1
102
RTVSPropertyOp45
 70
     1
102
RTVSPropertyOp46
 70
     1
102
RTVSPropertyOp47
 70
     1
102
RTVSPropertyOp48
 70
     1
102
RTVSPropertyOp49
 70
     1
102
RTVSPropertyOp50
 70
     1
102
RTVSPropertyOp51
 70
     0
102
RTVSPropertyOp52
 70
     0
102
RTVSPropertyOp53
 70
     1
102
RTVSPropertyOp54
 70
     1
102
RTVSPropertyOp55
 70
     1
102
RTVSPropertyOp56
 70
     1
102
RTVSPropertyOp57
 70
     1
102
RTVSPost2010Prop28
280
     0
102
RTVSPost2010PropOp28
 70
     1
102
RTVSPost2010Prop29
280
     1
102
RTVSPost2010PropOp29
 70
     1
102
RTVSPost2010Prop30
280
     1
102
RTVSPost2010PropOp30
 70
     1
102
RTVSPost2010Prop31
280
     0
102
RTVSPost2010PropOp31
 70
     1
102
RTVSPost2010Prop32
280
     0
102
RTVSPost2010PropOp32
 70
     1
102
RTVSPost2010Prop33
280
     0
102
RTVSPost2010PropOp33
 70
     1
102
RTVSPost2010Prop34
280
     0
102
RTVSPost2010PropOp34
 70
     1
102
RTVSPost2010Prop35
280
     0
102
RTVSPost2010PropOp35
 70
     1
102
RTVSPost2010Prop36
280
     0
102
RTVSPost2010PropOp36
 70
     1
102
RTVSPost2010Prop37
 90
       50
102
RTVSPost2010PropOp37
 70
     1
102
RTVSPost2010Prop38
140
0.0
102
RTVSPost2010PropOp38
 70
     1
102
RTVSPost2010Prop39
140
1.0
102
RTVSPost2010PropOp39
 70
     1
102
RTVSPost2010Prop40
 90
        0
102
RTVSPost2010PropOp40
 70
     1
102
RTVSPost2010Prop41ColorIndex
 90
       18
102
RTVSPost2010Prop41ColorRGB
 90
        0
102
RTVSPost2010PropOp41
 70
     1
102
RTVSPost2010Prop42
 90
       50
102
RTVSPost2010PropOp42
 70
     1
102
RTVSPost2010Prop43
 90
        3
102
RTVSPost2010PropOp43
 70
     1
102
RTVSPost2010Prop44ColorIndex
 90
        5
102
RTVSPost2010Prop44ColorRGB
 90
      255
102
RTVSPost2010PropOp44
 70
     1
102
RTVSPost2010Prop45
280
     0
102
RTVSPost2010PropOp45
 70
     1
102
RTVSPost2010Prop46
 90
       50
102
RTVSPost2010PropOp46
 70
     1
102
RTVSPost2010Prop47
 90
       50
102
RTVSPost2010PropOp47
 70
     1
102
RTVSPost2010Prop48
 90
       50
102
RTVSPost2010PropOp48
 70
     1
102
RTVSPost2010Prop49
280
     0
102
RTVSPost2010PropOp49
 70
     1
102
RTVSPost2010Prop50
 90
       50
102
RTVSPost2010PropOp50
 70
     1
102
RTVSPost2010Prop51ColorIndex
 90
      256
102
RTVSPost2010Prop51ColorRGB
 90
-16777216
102
RTVSPost2010PropOp51
 70
     0
102
RTVSPost2010Prop52
140
1.0
102
RTVSPost2010PropOp52
 70
     0
102
RTVSPost2010Prop53
 90
        2
102
RTVSPost2010PropOp53
 70
     1
102
RTVSPost2010Prop54
  1
strokes_ogs.tif
102
RTVSPost2010PropOp54
 70
     1
102
RTVSPost2010Prop55
280
     0
102
RTVSPost2010PropOp55
 70
     1
102
RTVSPost2010Prop56
140
1.0
102
RTVSPost2010PropOp56
 70
     1
102
RTVSPost2010Prop57
140
1.0
102
RTVSPost2010PropOp57
 70
     1
  0
XRECORD
  5
C2
102
{ACAD_REACTORS
330
C1
102
}
330
C1
100
AcDbXrecord
280
     1
102
RTVSPropertyOp0
 70
     1
102
RTVSPropertyOp1
 70
     1
102
RTVSPropertyOp2
 70
     1
102
RTVSPropertyOp3
 70
     1
102
RTVSPropertyOp4
 70
     1
102
RTVSPropertyOp5
 70
     1
102
RTVSPropertyOp6
 70
     1
102
RTVSPropertyOp7
 70
     1
102
RTVSPropertyOp8
 70
     1
102
RTVSPropertyOp9
 70
     1
102
RTVSPropertyOp10
 70
     1
102
RTVSPropertyOp11
 70
     1
102
RTVSPropertyOp12
 70
     1
102
RTVSPropertyOp13
 70
     1
102
RTVSPropertyOp14
 70
     1
102
RTVSPropertyOp15
 70
     1
102
RTVSPropertyOp16
 70
     1
102
RTVSPropertyOp17
 70
     1
102
RTVSPropertyOp18
 70
     1
102
RTVSPropertyOp19
 70
     1
102
RTVSPropertyOp20
 70
     1
102
RTVSPropertyOp21
 70
     1
102
RTVSPropertyOp22
 70
     1
102
RTVSPropertyOp23
 70
     1
102
RTVSPropertyOp24
 70
     1
102
RTVSPropertyOp25
 70
     1
102
RTVSPropertyOp26
 70
     1
102
RTVSPropertyOp27
 70
     1
102
RTVSPropertyOp28
 70
     1
102
RTVSPropertyOp29
 70
     1
102
RTVSPropertyOp30
 70
     1
102
RTVSPropertyOp31
 70
     1
102
RTVSPropertyOp32
 70
     1
102
RTVSPropertyOp33
 70
     1
102
RTVSPropertyOp34
 70
     1
102
RTVSPropertyOp35
 70
     1
102
RTVSPropertyOp36
 70
     1
102
RTVSPropertyOp37
 70
     1
102
RTVSPropertyOp38
 70
     1
102
RTVSPropertyOp39
 70
     1
102
RTVSPropertyOp40
 70
     1
102
RTVSPropertyOp41
 70
     1
102
RTVSPropertyOp42
 70
     1
102
RTVSPropertyOp43
 70
     1
102
RTVSPropertyOp44
 70
     1
102
RTVSPropertyOp45
 70
     1
102
RTVSPropertyOp46
 70
     1
102
RTVSPropertyOp47
 70
     1
102
RTVSPropertyOp48
 70
     1
102
RTVSPropertyOp49
 70
     1
102
RTVSPropertyOp50
 70
     1
102
RTVSPropertyOp51
 70
     0
102
RTVSPropertyOp52
 70
     0
102
RTVSPropertyOp53
 70
     1
102
RTVSPropertyOp54
 70
     1
102
RTVSPropertyOp55
 70
     1
102
RTVSPropertyOp56
 70
     1
102
RTVSPropertyOp57
 70
     1
102
RTVSPost2010Prop28
280
     0
102
RTVSPost2010PropOp28
 70
     1
102
RTVSPost2010Prop29
280
     1
102
RTVSPost2010PropOp29
 70
     1
102
RTVSPost2010Prop30
280
     1
102
RTVSPost2010PropOp30
 70
     1
102
RTVSPost2010Prop31
280
     0
102
RTVSPost2010PropOp31
 70
     1
102
RTVSPost2010Prop32
280
     0
102
RTVSPost2010PropOp32
 70
     1
102
RTVSPost2010Prop33
280
     0
102
RTVSPost2010PropOp33
 70
     1
102
RTVSPost2010Prop34
280
     0
102
RTVSPost2010PropOp34
 70
     1
102
RTVSPost2010Prop35
280
     0
102
RTVSPost2010PropOp35
 70
     1
102
RTVSPost2010Prop36
280
     0
102
RTVSPost2010PropOp36
 70
     1
102
RTVSPost2010Prop37
 90
       50
102
RTVSPost2010PropOp37
 70
     1
102
RTVSPost2010Prop38
140
0.0
102
RTVSPost2010PropOp38
 70
     1
102
RTVSPost2010Prop39
140
1.0
102
RTVSPost2010PropOp39
 70
     1
102
RTVSPost2010Prop40
 90
        0
102
RTVSPost2010PropOp40
 70
     1
102
RTVSPost2010Prop41ColorIndex
 90
       18
102
RTVSPost2010Prop41ColorRGB
 90
        0
102
RTVSPost2010PropOp41
 70
     1
102
RTVSPost2010Prop42
 90
       50
102
RTVSPost2010PropOp42
 70
     1
102
RTVSPost2010Prop43
 90
        3
102
RTVSPost2010PropOp43
 70
     1
102
RTVSPost2010Prop44ColorIndex
 90
        5
102
RTVSPost2010Prop44ColorRGB
 90
      255
102
RTVSPost2010PropOp44
 70
     1
102
RTVSPost2010Prop45
280
     0
102
RTVSPost2010PropOp45
 70
     1
102
RTVSPost2010Prop46
 90
       50
102
RTVSPost2010PropOp46
 70
     1
102
RTVSPost2010Prop47
 90
       50
102
RTVSPost2010PropOp47
 70
     1
102
RTVSPost2010Prop48
 90
       50
102
RTVSPost2010PropOp48
 70
     1
102
RTVSPost2010Prop49
280
     0
102
RTVSPost2010PropOp49
 70
     1
102
RTVSPost2010Prop50
 90
       50
102
RTVSPost2010PropOp50
 70
     1
102
RTVSPost2010Prop51ColorIndex
 90
      256
102
RTVSPost2010Prop51ColorRGB
 90
-16777216
102
RTVSPost2010PropOp51
 70
     0
102
RTVSPost2010Prop52
140
1.0
102
RTVSPost2010PropOp52
 70
     0
102
RTVSPost2010Prop53
 90
        2
102
RTVSPost2010PropOp53
 70
     1
102
RTVSPost2010Prop54
  1
strokes_ogs.tif
102
RTVSPost2010PropOp54
 70
     1
102
RTVSPost2010Prop55
280
     0
102
RTVSPost2010PropOp55
 70
     1
102
RTVSPost2010Prop56
140
1.0
102
RTVSPost2010PropOp56
 70
     1
102
RTVSPost2010Prop57
140
1.0
102
RTVSPost2010PropOp57
 70
     1
  0
XRECORD
  5
C4
102
{ACAD_REACTORS
330
C3
102
}
330
C3
100
AcDbXrecord
280
     1
102
RTVSPropertyOp0
 70
     1
102
RTVSPropertyOp1
 70
     1
102
RTVSPropertyOp2
 70
     1
102
RTVSPropertyOp3
 70
     1
102
RTVSPropertyOp4
 70
     1
102
RTVSPropertyOp5
 70
     1
102
RTVSPropertyOp6
 70
     1
102
RTVSPropertyOp7
 70
     1
102
RTVSPropertyOp8
 70
     1
102
RTVSPropertyOp9
 70
     1
102
RTVSPropertyOp10
 70
     1
102
RTVSPropertyOp11
 70
     1
102
RTVSPropertyOp12
 70
     1
102
RTVSPropertyOp13
 70
     1
102
RTVSPropertyOp14
 70
     1
102
RTVSPropertyOp15
 70
     1
102
RTVSPropertyOp16
 70
     1
102
RTVSPropertyOp17
 70
     1
102
RTVSPropertyOp18
 70
     1
102
RTVSPropertyOp19
 70
     1
102
RTVSPropertyOp20
 70
     1
102
RTVSPropertyOp21
 70
     1
102
RTVSPropertyOp22
 70
     1
102
RTVSPropertyOp23
 70
     1
102
RTVSPropertyOp24
 70
     1
102
RTVSPropertyOp25
 70
     1
102
RTVSPropertyOp26
 70
     1
102
RTVSPropertyOp27
 70
     1
102
RTVSPropertyOp28
 70
     1
102
RTVSPropertyOp29
 70
     1
102
RTVSPropertyOp30
 70
     1
102
RTVSPropertyOp31
 70
     1
102
RTVSPropertyOp32
 70
     1
102
RTVSPropertyOp33
 70
     1
102
RTVSPropertyOp34
 70
     1
102
RTVSPropertyOp35
 70
     1
102
RTVSPropertyOp36
 70
     1
102
RTVSPropertyOp37
 70
     1
102
RTVSPropertyOp38
 70
     1
102
RTVSPropertyOp39
 70
     1
102
RTVSPropertyOp40
 70
     1
102
RTVSPropertyOp41
 70
     1
102
RTVSPropertyOp42
 70
     1
102
RTVSPropertyOp43
 70
     1
102
RTVSPropertyOp44
 70
     1
102
RTVSPropertyOp45
 70
     1
102
RTVSPropertyOp46
 70
     1
102
RTVSPropertyOp47
 70
     1
102
RTVSPropertyOp48
 70
     1
102
RTVSPropertyOp49
 70
     1
102
RTVSPropertyOp50
 70
     1
102
RTVSPropertyOp51
 70
     0
102
RTVSPropertyOp52
 70
     0
102
RTVSPropertyOp53
 70
     1
102
RTVSPropertyOp54
 70
     1
102
RTVSPropertyOp55
 70
     1
102
RTVSPropertyOp56
 70
     1
102
RTVSPropertyOp57
 70
     1
102
RTVSPost2010Prop28
280
     0
102
RTVSPost2010PropOp28
 70
     1
102
RTVSPost2010Prop29
280
     1
102
RTVSPost2010PropOp29
 70
     1
102
RTVSPost2010Prop30
280
     1
102
RTVSPost2010PropOp30
 70
     1
102
RTVSPost2010Prop31
280
     0
102
RTVSPost2010PropOp31
 70
     1
102
RTVSPost2010Prop32
280
     0
102
RTVSPost2010PropOp32
 70
     1
102
RTVSPost2010Prop33
280
     0
102
RTVSPost2010PropOp33
 70
     1
102
RTVSPost2010Prop34
280
     0
102
RTVSPost2010PropOp34
 70
     1
102
RTVSPost2010Prop35
280
     0
102
RTVSPost2010PropOp35
 70
     1
102
RTVSPost2010Prop36
280
     0
102
RTVSPost2010PropOp36
 70
     1
102
RTVSPost2010Prop37
 90
       50
102
RTVSPost2010PropOp37
 70
     1
102
RTVSPost2010Prop38
140
0.0
102
RTVSPost2010PropOp38
 70
     1
102
RTVSPost2010Prop39
140
1.0
102
RTVSPost2010PropOp39
 70
     1
102
RTVSPost2010Prop40
 90
        0
102
RTVSPost2010PropOp40
 70
     1
102
RTVSPost2010Prop41ColorIndex
 90
       18
102
RTVSPost2010Prop41ColorRGB
 90
        0
102
RTVSPost2010PropOp41
 70
     1
102
RTVSPost2010Prop42
 90
       50
102
RTVSPost2010PropOp42
 70
     1
102
RTVSPost2010Prop43
 90
        3
102
RTVSPost2010PropOp43
 70
     1
102
RTVSPost2010Prop44ColorIndex
 90
        5
102
RTVSPost2010Prop44ColorRGB
 90
      255
102
RTVSPost2010PropOp44
 70
     1
102
RTVSPost2010Prop45
280
     0
102
RTVSPost2010PropOp45
 70
     1
102
RTVSPost2010Prop46
 90
       50
102
RTVSPost2010PropOp46
 70
     1
102
RTVSPost2010Prop47
 90
       50
102
RTVSPost2010PropOp47
 70
     1
102
RTVSPost2010Prop48
 90
       50
102
RTVSPost2010PropOp48
 70
     1
102
RTVSPost2010Prop49
280
     0
102
RTVSPost2010PropOp49
 70
     1
102
RTVSPost2010Prop50
 90
       50
102
RTVSPost2010PropOp50
 70
     1
102
RTVSPost2010Prop51ColorIndex
 90
      256
102
RTVSPost2010Prop51ColorRGB
 90
-16777216
102
RTVSPost2010PropOp51
 70
     0
102
RTVSPost2010Prop52
140
1.0
102
RTVSPost2010PropOp52
 70
     0
102
RTVSPost2010Prop53
 90
        2
102
RTVSPost2010PropOp53
 70
     1
102
RTVSPost2010Prop54
  1
strokes_ogs.tif
102
RTVSPost2010PropOp54
 70
     1
102
RTVSPost2010Prop55
280
     0
102
RTVSPost2010PropOp55
 70
     1
102
RTVSPost2010Prop56
140
1.0
102
RTVSPost2010PropOp56
 70
     1
102
RTVSPost2010Prop57
140
1.0
102
RTVSPost2010PropOp57
 70
     1
  0
XRECORD
  5
B4
102
{ACAD_REACTORS
330
B3
102
}
330
B3
100
AcDbXrecord
280
     1
102
RTVSPropertyOp0
 70
     1
102
RTVSPropertyOp1
 70
     1
102
RTVSPropertyOp2
 70
     1
102
RTVSPropertyOp3
 70
     1
102
RTVSPropertyOp4
 70
     1
102
RTVSPropertyOp5
 70
     1
102
RTVSPropertyOp6
 70
     1
102
RTVSPropertyOp7
 70
     1
102
RTVSPropertyOp8
 70
     1
102
RTVSPropertyOp9
 70
     1
102
RTVSPropertyOp10
 70
     1
102
RTVSPropertyOp11
 70
     1
102
RTVSPropertyOp12
 70
     1
102
RTVSPropertyOp13
 70
     1
102
RTVSPropertyOp14
 70
     1
102
RTVSPropertyOp15
 70
     1
102
RTVSPropertyOp16
 70
     1
102
RTVSPropertyOp17
 70
     1
102
RTVSPropertyOp18
 70
     1
102
RTVSPropertyOp19
 70
     1
102
RTVSPropertyOp20
 70
     1
102
RTVSPropertyOp21
 70
     1
102
RTVSPropertyOp22
 70
     1
102
RTVSPropertyOp23
 70
     1
102
RTVSPropertyOp24
 70
     1
102
RTVSPropertyOp25
 70
     1
102
RTVSPropertyOp26
 70
     1
102
RTVSPropertyOp27
 70
     1
102
RTVSPropertyOp28
 70
     1
102
RTVSPropertyOp29
 70
     1
102
RTVSPropertyOp30
 70
     1
102
RTVSPropertyOp31
 70
     1
102
RTVSPropertyOp32
 70
     1
102
RTVSPropertyOp33
 70
     1
102
RTVSPropertyOp34
 70
     1
102
RTVSPropertyOp35
 70
     1
102
RTVSPropertyOp36
 70
     1
102
RTVSPropertyOp37
 70
     1
102
RTVSPropertyOp38
 70
     1
102
RTVSPropertyOp39
 70
     1
102
RTVSPropertyOp40
 70
     1
102
RTVSPropertyOp41
 70
     1
102
RTVSPropertyOp42
 70
     1
102
RTVSPropertyOp43
 70
     1
102
RTVSPropertyOp44
 70
     1
102
RTVSPropertyOp45
 70
     1
102
RTVSPropertyOp46
 70
     1
102
RTVSPropertyOp47
 70
     1
102
RTVSPropertyOp48
 70
     1
102
RTVSPropertyOp49
 70
     1
102
RTVSPropertyOp50
 70
     1
102
RTVSPropertyOp51
 70
     0
102
RTVSPropertyOp52
 70
     0
102
RTVSPropertyOp53
 70
     1
102
RTVSPropertyOp54
 70
     1
102
RTVSPropertyOp55
 70
     1
102
RTVSPropertyOp56
 70
     1
102
RTVSPropertyOp57
 70
     1
102
RTVSPost2010Prop28
280
     0
102
RTVSPost2010PropOp28
 70
     1
102
RTVSPost2010Prop29
280
     1
102
RTVSPost2010PropOp29
 70
     1
102
RTVSPost2010Prop30
280
     1
102
RTVSPost2010PropOp30
 70
     1
102
RTVSPost2010Prop31
280
     0
102
RTVSPost2010PropOp31
 70
     1
102
RTVSPost2010Prop32
280
     0
102
RTVSPost2010PropOp32
 70
     1
102
RTVSPost2010Prop33
280
     0
102
RTVSPost2010PropOp33
 70
     1
102
RTVSPost2010Prop34
280
     0
102
RTVSPost2010PropOp34
 70
     1
102
RTVSPost2010Prop35
280
     0
102
RTVSPost2010PropOp35
 70
     1
102
RTVSPost2010Prop36
280
     0
102
RTVSPost2010PropOp36
 70
     1
102
RTVSPost2010Prop37
 90
       50
102
RTVSPost2010PropOp37
 70
     1
102
RTVSPost2010Prop38
140
0.0
102
RTVSPost2010PropOp38
 70
     1
102
RTVSPost2010Prop39
140
1.0
102
RTVSPost2010PropOp39
 70
     1
102
RTVSPost2010Prop40
 90
        0
102
RTVSPost2010PropOp40
 70
     1
102
RTVSPost2010Prop41ColorIndex
 90
       18
102
RTVSPost2010Prop41ColorRGB
 90
        0
102
RTVSPost2010PropOp41
 70
     1
102
RTVSPost2010Prop42
 90
       50
102
RTVSPost2010PropOp42
 70
     1
102
RTVSPost2010Prop43
 90
        3
102
RTVSPost2010PropOp43
 70
     1
102
RTVSPost2010Prop44ColorIndex
 90
        5
102
RTVSPost2010Prop44ColorRGB
 90
      255
102
RTVSPost2010PropOp44
 70
     1
102
RTVSPost2010Prop45
280
     0
102
RTVSPost2010PropOp45
 70
     1
102
RTVSPost2010Prop46
 90
       50
102
RTVSPost2010PropOp46
 70
     1
102
RTVSPost2010Prop47
 90
       50
102
RTVSPost2010PropOp47
 70
     1
102
RTVSPost2010Prop48
 90
       50
102
RTVSPost2010PropOp48
 70
     1
102
RTVSPost2010Prop49
280
     0
102
RTVSPost2010PropOp49
 70
     1
102
RTVSPost2010Prop50
 90
       50
102
RTVSPost2010PropOp50
 70
     1
102
RTVSPost2010Prop51ColorIndex
 90
      256
102
RTVSPost2010Prop51ColorRGB
 90
-16777216
102
RTVSPost2010PropOp51
 70
     0
102
RTVSPost2010Prop52
140
1.0
102
RTVSPost2010PropOp52
 70
     0
102
RTVSPost2010Prop53
 90
        2
102
RTVSPost2010PropOp53
 70
     1
102
RTVSPost2010Prop54
  1
strokes_ogs.tif
102
RTVSPost2010PropOp54
 70
     1
102
RTVSPost2010Prop55
280
     0
102
RTVSPost2010PropOp55
 70
     1
102
RTVSPost2010Prop56
140
1.0
102
RTVSPost2010PropOp56
 70
     1
102
RTVSPost2010Prop57
140
1.0
102
RTVSPost2010PropOp57
 70
     1
  0
XRECORD
  5
A6
102
{ACAD_REACTORS
330
A5
102
}
330
A5
100
AcDbXrecord
280
     1
102
RTVSPropertyOp0
 70
     1
102
RTVSPropertyOp1
 70
     1
102
RTVSPropertyOp2
 70
     1
102
RTVSPropertyOp3
 70
     1
102
RTVSPropertyOp4
 70
     1
102
RTVSPropertyOp5
 70
     1
102
RTVSPropertyOp6
 70
     1
102
RTVSPropertyOp7
 70
     1
102
RTVSPropertyOp8
 70
     1
102
RTVSPropertyOp9
 70
     1
102
RTVSPropertyOp10
 70
     1
102
RTVSPropertyOp11
 70
     1
102
RTVSPropertyOp12
 70
     1
102
RTVSPropertyOp13
 70
     1
102
RTVSPropertyOp14
 70
     1
102
RTVSPropertyOp15
 70
     1
102
RTVSPropertyOp16
 70
     1
102
RTVSPropertyOp17
 70
     1
102
RTVSPropertyOp18
 70
     1
102
RTVSPropertyOp19
 70
     1
102
RTVSPropertyOp20
 70
     1
102
RTVSPropertyOp21
 70
     1
102
RTVSPropertyOp22
 70
     1
102
RTVSPropertyOp23
 70
     1
102
RTVSPropertyOp24
 70
     1
102
RTVSPropertyOp25
 70
     1
102
RTVSPropertyOp26
 70
     1
102
RTVSPropertyOp27
 70
     1
102
RTVSPropertyOp28
 70
     1
102
RTVSPropertyOp29
 70
     1
102
RTVSPropertyOp30
 70
     1
102
RTVSPropertyOp31
 70
     1
102
RTVSPropertyOp32
 70
     1
102
RTVSPropertyOp33
 70
     1
102
RTVSPropertyOp34
 70
     1
102
RTVSPropertyOp35
 70
     1
102
RTVSPropertyOp36
 70
     1
102
RTVSPropertyOp37
 70
     1
102
RTVSPropertyOp38
 70
     1
102
RTVSPropertyOp39
 70
     1
102
RTVSPropertyOp40
 70
     1
102
RTVSPropertyOp41
 70
     1
102
RTVSPropertyOp42
 70
     1
102
RTVSPropertyOp43
 70
     1
102
RTVSPropertyOp44
 70
     1
102
RTVSPropertyOp45
 70
     1
102
RTVSPropertyOp46
 70
     1
102
RTVSPropertyOp47
 70
     1
102
RTVSPropertyOp48
 70
     1
102
RTVSPropertyOp49
 70
     1
102
RTVSPropertyOp50
 70
     1
102
RTVSPropertyOp51
 70
     0
102
RTVSPropertyOp52
 70
     0
102
RTVSPropertyOp53
 70
     1
102
RTVSPropertyOp54
 70
     1
102
RTVSPropertyOp55
 70
     1
102
RTVSPropertyOp56
 70
     1
102
RTVSPropertyOp57
 70
     1
102
RTVSPost2010Prop28
280
     0
102
RTVSPost2010PropOp28
 70
     1
102
RTVSPost2010Prop29
280
     1
102
RTVSPost2010PropOp29
 70
     1
102
RTVSPost2010Prop30
280
     1
102
RTVSPost2010PropOp30
 70
     1
102
RTVSPost2010Prop31
280
     0
102
RTVSPost2010PropOp31
 70
     1
102
RTVSPost2010Prop32
280
     0
102
RTVSPost2010PropOp32
 70
     1
102
RTVSPost2010Prop33
280
     0
102
RTVSPost2010PropOp33
 70
     1
102
RTVSPost2010Prop34
280
     0
102
RTVSPost2010PropOp34
 70
     1
102
RTVSPost2010Prop35
280
     0
102
RTVSPost2010PropOp35
 70
     1
102
RTVSPost2010Prop36
280
     0
102
RTVSPost2010PropOp36
 70
     1
102
RTVSPost2010Prop37
 90
       50
102
RTVSPost2010PropOp37
 70
     1
102
RTVSPost2010Prop38
140
0.0
102
RTVSPost2010PropOp38
 70
     1
102
RTVSPost2010Prop39
140
1.0
102
RTVSPost2010PropOp39
 70
     1
102
RTVSPost2010Prop40
 90
        0
102
RTVSPost2010PropOp40
 70
     1
102
RTVSPost2010Prop41ColorIndex
 90
       18
102
RTVSPost2010Prop41ColorRGB
 90
        0
102
RTVSPost2010PropOp41
 70
     1
102
RTVSPost2010Prop42
 90
       50
102
RTVSPost2010PropOp42
 70
     1
102
RTVSPost2010Prop43
 90
        3
102
RTVSPost2010PropOp43
 70
     1
102
RTVSPost2010Prop44ColorIndex
 90
        5
102
RTVSPost2010Prop44ColorRGB
 90
      255
102
RTVSPost2010PropOp44
 70
     1
102
RTVSPost2010Prop45
280
     0
102
RTVSPost2010PropOp45
 70
     1
102
RTVSPost2010Prop46
 90
       50
102
RTVSPost2010PropOp46
 70
     1
102
RTVSPost2010Prop47
 90
       50
102
RTVSPost2010PropOp47
 70
     1
102
RTVSPost2010Prop48
 90
       50
102
RTVSPost2010PropOp48
 70
     1
102
RTVSPost2010Prop49
280
     0
102
RTVSPost2010PropOp49
 70
     1
102
RTVSPost2010Prop50
 90
       50
102
RTVSPost2010PropOp50
 70
     1
102
RTVSPost2010Prop51ColorIndex
 90
      256
102
RTVSPost2010Prop51ColorRGB
 90
-16777216
102
RTVSPost2010PropOp51
 70
     0
102
RTVSPost2010Prop52
140
1.0
102
RTVSPost2010PropOp52
 70
     0
102
RTVSPost2010Prop53
 90
        2
102
RTVSPost2010PropOp53
 70
     1
102
RTVSPost2010Prop54
  1
strokes_ogs.tif
102
RTVSPost2010PropOp54
 70
     1
102
RTVSPost2010Prop55
280
     0
102
RTVSPost2010PropOp55
 70
     1
102
RTVSPost2010Prop56
140
1.0
102
RTVSPost2010PropOp56
 70
     1
102
RTVSPost2010Prop57
140
1.0
102
RTVSPost2010PropOp57
 70
     1
  0
XRECORD
  5
C6
102
{ACAD_REACTORS
330
C5
102
}
330
C5
100
AcDbXrecord
280
     1
102
RTVSPropertyOp0
 70
     1
102
RTVSPropertyOp1
 70
     1
102
RTVSPropertyOp2
 70
     1
102
RTVSPropertyOp3
 70
     1
102
RTVSPropertyOp4
 70
     1
102
RTVSPropertyOp5
 70
     1
102
RTVSPropertyOp6
 70
     1
102
RTVSPropertyOp7
 70
     1
102
RTVSPropertyOp8
 70
     1
102
RTVSPropertyOp9
 70
     1
102
RTVSPropertyOp10
 70
     1
102
RTVSPropertyOp11
 70
     1
102
RTVSPropertyOp12
 70
     1
102
RTVSPropertyOp13
 70
     1
102
RTVSPropertyOp14
 70
     1
102
RTVSPropertyOp15
 70
     1
102
RTVSPropertyOp16
 70
     1
102
RTVSPropertyOp17
 70
     1
102
RTVSPropertyOp18
 70
     1
102
RTVSPropertyOp19
 70
     1
102
RTVSPropertyOp20
 70
     1
102
RTVSPropertyOp21
 70
     1
102
RTVSPropertyOp22
 70
     1
102
RTVSPropertyOp23
 70
     1
102
RTVSPropertyOp24
 70
     1
102
RTVSPropertyOp25
 70
     1
102
RTVSPropertyOp26
 70
     1
102
RTVSPropertyOp27
 70
     1
102
RTVSPropertyOp28
 70
     1
102
RTVSPropertyOp29
 70
     1
102
RTVSPropertyOp30
 70
     1
102
RTVSPropertyOp31
 70
     1
102
RTVSPropertyOp32
 70
     1
102
RTVSPropertyOp33
 70
     1
102
RTVSPropertyOp34
 70
     1
102
RTVSPropertyOp35
 70
     1
102
RTVSPropertyOp36
 70
     1
102
RTVSPropertyOp37
 70
     1
102
RTVSPropertyOp38
 70
     1
102
RTVSPropertyOp39
 70
     1
102
RTVSPropertyOp40
 70
     1
102
RTVSPropertyOp41
 70
     1
102
RTVSPropertyOp42
 70
     1
102
RTVSPropertyOp43
 70
     1
102
RTVSPropertyOp44
 70
     1
102
RTVSPropertyOp45
 70
     1
102
RTVSPropertyOp46
 70
     1
102
RTVSPropertyOp47
 70
     1
102
RTVSPropertyOp48
 70
     1
102
RTVSPropertyOp49
 70
     1
102
RTVSPropertyOp50
 70
     1
102
RTVSPropertyOp51
 70
     0
102
RTVSPropertyOp52
 70
     0
102
RTVSPropertyOp53
 70
     1
102
RTVSPropertyOp54
 70
     1
102
RTVSPropertyOp55
 70
     1
102
RTVSPropertyOp56
 70
     1
102
RTVSPropertyOp57
 70
     1
102
RTVSPost2010Prop28
280
     0
102
RTVSPost2010PropOp28
 70
     1
102
RTVSPost2010Prop29
280
     1
102
RTVSPost2010PropOp29
 70
     1
102
RTVSPost2010Prop30
280
     1
102
RTVSPost2010PropOp30
 70
     1
102
RTVSPost2010Prop31
280
     0
102
RTVSPost2010PropOp31
 70
     1
102
RTVSPost2010Prop32
280
     0
102
RTVSPost2010PropOp32
 70
     1
102
RTVSPost2010Prop33
280
     0
102
RTVSPost2010PropOp33
 70
     1
102
RTVSPost2010Prop34
280
     0
102
RTVSPost2010PropOp34
 70
     1
102
RTVSPost2010Prop35
280
     0
102
RTVSPost2010PropOp35
 70
     1
102
RTVSPost2010Prop36
280
     0
102
RTVSPost2010PropOp36
 70
     1
102
RTVSPost2010Prop37
 90
       50
102
RTVSPost2010PropOp37
 70
     1
102
RTVSPost2010Prop38
140
0.0
102
RTVSPost2010PropOp38
 70
     1
102
RTVSPost2010Prop39
140
1.0
102
RTVSPost2010PropOp39
 70
     1
102
RTVSPost2010Prop40
 90
        0
102
RTVSPost2010PropOp40
 70
     1
102
RTVSPost2010Prop41ColorIndex
 90
       18
102
RTVSPost2010Prop41ColorRGB
 90
        0
102
RTVSPost2010PropOp41
 70
     1
102
RTVSPost2010Prop42
 90
       50
102
RTVSPost2010PropOp42
 70
     1
102
RTVSPost2010Prop43
 90
        3
102
RTVSPost2010PropOp43
 70
     1
102
RTVSPost2010Prop44ColorIndex
 90
        5
102
RTVSPost2010Prop44ColorRGB
 90
      255
102
RTVSPost2010PropOp44
 70
     1
102
RTVSPost2010Prop45
280
     0
102
RTVSPost2010PropOp45
 70
     1
102
RTVSPost2010Prop46
 90
       50
102
RTVSPost2010PropOp46
 70
     1
102
RTVSPost2010Prop47
 90
       50
102
RTVSPost2010PropOp47
 70
     1
102
RTVSPost2010Prop48
 90
       50
102
RTVSPost2010PropOp48
 70
     1
102
RTVSPost2010Prop49
280
     0
102
RTVSPost2010PropOp49
 70
     1
102
RTVSPost2010Prop50
 90
       50
102
RTVSPost2010PropOp50
 70
     1
102
RTVSPost2010Prop51ColorIndex
 90
      256
102
RTVSPost2010Prop51ColorRGB
 90
-16777216
102
RTVSPost2010PropOp51
 70
     0
102
RTVSPost2010Prop52
140
1.0
102
RTVSPost2010PropOp52
 70
     0
102
RTVSPost2010Prop53
 90
        2
102
RTVSPost2010PropOp53
 70
     1
102
RTVSPost2010Prop54
  1
strokes_ogs.tif
102
RTVSPost2010PropOp54
 70
     1
102
RTVSPost2010Prop55
280
     0
102
RTVSPost2010PropOp55
 70
     1
102
RTVSPost2010Prop56
140
1.0
102
RTVSPost2010PropOp56
 70
     1
102
RTVSPost2010Prop57
140
1.0
102
RTVSPost2010PropOp57
 70
     1
  0
ENDSEC
  0
EOF
