  0
SECTION
  2
HEADER
  9
$ACADVER
  1
AC1015
  9
$ACADMAINTVER
 70
     6
  9
$DWGCODEPAGE
  3
ANSI_1252
  9
$INSBASE
 10
398.2514359707015
 20
414.1317320011668
 30
0.0
  9
$EXTMIN
 10
378.0211996922373
 20
404.9979999999995
 30
0.0
  9
$EXTMAX
 10
411.048789616034
 20
424.9579999999997
 30
0.0
  9
$LIMMIN
 10
0.0
 20
0.0
  9
$LIMMAX
 10
12.0
 20
9.0
  9
$ORTHOMODE
 70
     0
  9
$REGENMODE
 70
     1
  9
$FILLMODE
 70
     1
  9
$QTEXTMODE
 70
     0
  9
$MIRRTEXT
 70
     1
  9
$LTSCALE
 40
1.0
  9
$ATTMODE
 70
     1
  9
$TEXTSIZE
 40
0.2
  9
$TRACEWID
 40
0.05
  9
$TEXTSTYLE
  7
Standard
  9
$CLAYER
  8
0
  9
$CELTYPE
  6
ByLayer
  9
$CECOLOR
 62
   256
  9
$CELTSCALE
 40
1.0
  9
$DISPSILH
 70
     0
  9
$DIMSCALE
 40
1.0
  9
$DIMASZ
 40
0.18
  9
$DIMEXO
 40
0.0625
  9
$DIMDLI
 40
0.38
  9
$DIMRND
 40
0.0
  9
$DIMDLE
 40
0.0
  9
$DIMEXE
 40
0.18
  9
$DIMTP
 40
0.0
  9
$DIMTM
 40
0.0
  9
$DIMTXT
 40
0.18
  9
$DIMCEN
 40
0.09
  9
$DIMTSZ
 40
0.0
  9
$DIMTOL
 70
     0
  9
$DIMLIM
 70
     0
  9
$DIMTIH
 70
     1
  9
$DIMTOH
 70
     1
  9
$DIMSE1
 70
     0
  9
$DIMSE2
 70
     0
  9
$DIMTAD
 70
     0
  9
$DIMZIN
 70
     0
  9
$DIMBLK
  1

  9
$DIMASO
 70
     1
  9
$DIMSHO
 70
     1
  9
$DIMPOST
  1

  9
$DIMAPOST
  1

  9
$DIMALT
 70
     0
  9
$DIMALTD
 70
     2
  9
$DIMALTF
 40
25.4
  9
$DIMLFAC
 40
1.0
  9
$DIMTOFL
 70
     0
  9
$DIMTVP
 40
0.0
  9
$DIMTIX
 70
     0
  9
$DIMSOXD
 70
     0
  9
$DIMSAH
 70
     0
  9
$DIMBLK1
  1

  9
$DIMBLK2
  1

  9
$DIMSTYLE
  2
Standard
  9
$DIMCLRD
 70
     0
  9
$DIMCLRE
 70
     0
  9
$DIMCLRT
 70
     0
  9
$DIMTFAC
 40
1.0
  9
$DIMGAP
 40
0.09
  9
$DIMJUST
 70
     0
  9
$DIMSD1
 70
     0
  9
$DIMSD2
 70
     0
  9
$DIMTOLJ
 70
     1
  9
$DIMTZIN
 70
     0
  9
$DIMALTZ
 70
     0
  9
$DIMALTTZ
 70
     0
  9
$DIMUPT
 70
     0
  9
$DIMDEC
 70
     4
  9
$DIMTDEC
 70
     4
  9
$DIMALTU
 70
     2
  9
$DIMALTTD
 70
     2
  9
$DIMTXSTY
  7
Standard
  9
$DIMAUNIT
 70
     0
  9
$DIMADEC
 70
     0
  9
$DIMALTRND
 40
0.0
  9
$DIMAZIN
 70
     0
  9
$DIMDSEP
 70
    46
  9
$DIMATFIT
 70
     3
  9
$DIMFRAC
 70
     0
  9
$DIMLDRBLK
  1

  9
$DIMLUNIT
 70
     2
  9
$DIMLWD
 70
    -2
  9
$DIMLWE
 70
    -2
  9
$DIMTMOVE
 70
     0
  9
$LUNITS
 70
     2
  9
$LUPREC
 70
     4
  9
$SKETCHINC
 40
0.1
  9
$FILLETRAD
 40
0.5
  9
$AUNITS
 70
     0
  9
$AUPREC
 70
     0
  9
$MENU
  1
.
  9
$ELEVATION
 40
0.0
  9
$PELEVATION
 40
0.0
  9
$THICKNESS
 40
0.0
  9
$LIMCHECK
 70
     0
  9
$CHAMFERA
 40
0.5
  9
$CHAMFERB
 40
0.5
  9
$CHAMFERC
 40
1.0
  9
$CHAMFERD
 40
0.0
  9
$SKPOLY
 70
     0
  9
$TDCREATE
 40
2458676.485268229
  9
$TDUCREATE
 40
2458676.651934896
  9
$TDUPDATE
 40
2458708.511955822
  9
$TDUUPDATE
 40
2458708.678622488
  9
$TDINDWG
 40
0.1600564468
  9
$TDUSRTIMER
 40
0.1600564468
  9
$USRTIMER
 70
     1
  9
$ANGBASE
 50
0.0
  9
$ANGDIR
 70
     0
  9
$PDMODE
 70
     0
  9
$PDSIZE
 40
0.0
  9
$PLINEWID
 40
0.0
  9
$SPLFRAME
 70
     0
  9
$SPLINETYPE
 70
     6
  9
$SPLINESEGS
 70
     8
  9
$HANDSEED
  5
FB
  9
$SURFTAB1
 70
     6
  9
$SURFTAB2
 70
     6
  9
$SURFTYPE
 70
     6
  9
$SURFU
 70
     6
  9
$SURFV
 70
     6
  9
$UCSBASE
  2

  9
$UCSNAME
  2

  9
$UCSORG
 10
0.0
 20
0.0
 30
0.0
  9
$UCSXDIR
 10
1.0
 20
0.0
 30
0.0
  9
$UCSYDIR
 10
0.0
 20
1.0
 30
0.0
  9
$UCSORTHOREF
  2

  9
$UCSORTHOVIEW
 70
     0
  9
$UCSORGTOP
 10
0.0
 20
0.0
 30
0.0
  9
$UCSORGBOTTOM
 10
0.0
 20
0.0
 30
0.0
  9
$UCSORGLEFT
 10
0.0
 20
0.0
 30
0.0
  9
$UCSORGRIGHT
 10
0.0
 20
0.0
 30
0.0
  9
$UCSORGFRONT
 10
0.0
 20
0.0
 30
0.0
  9
$UCSORGBACK
 10
0.0
 20
0.0
 30
0.0
  9
$PUCSBASE
  2

  9
$PUCSNAME
  2

  9
$PUCSORG
 10
0.0
 20
0.0
 30
0.0
  9
$PUCSXDIR
 10
1.0
 20
0.0
 30
0.0
  9
$PUCSYDIR
 10
0.0
 20
1.0
 30
0.0
  9
$PUCSORTHOREF
  2

  9
$PUCSORTHOVIEW
 70
     0
  9
$PUCSORGTOP
 10
0.0
 20
0.0
 30
0.0
  9
$PUCSORGBOTTOM
 10
0.0
 20
0.0
 30
0.0
  9
$PUCSORGLEFT
 10
0.0
 20
0.0
 30
0.0
  9
$PUCSORGRIGHT
 10
0.0
 20
0.0
 30
0.0
  9
$PUCSORGFRONT
 10
0.0
 20
0.0
 30
0.0
  9
$PUCSORGBACK
 10
0.0
 20
0.0
 30
0.0
  9
$USERI1
 70
     0
  9
$USERI2
 70
     0
  9
$USERI3
 70
     0
  9
$USERI4
 70
     0
  9
$USERI5
 70
     0
  9
$USERR1
 40
0.0
  9
$USERR2
 40
0.0
  9
$USERR3
 40
0.0
  9
$USERR4
 40
0.0
  9
$USERR5
 40
0.0
  9
$WORLDVIEW
 70
     1
  9
$SHADEDGE
 70
     3
  9
$SHADEDIF
 70
    70
  9
$TILEMODE
 70
     1
  9
$MAXACTVP
 70
    64
  9
$PINSBASE
 10
0.0
 20
0.0
 30
0.0
  9
$PLIMCHECK
 70
     0
  9
$PEXTMIN
 10
1.000000000000000E+20
 20
1.000000000000000E+20
 30
1.000000000000000E+20
  9
$PEXTMAX
 10
-1.000000000000000E+20
 20
-1.000000000000000E+20
 30
-1.000000000000000E+20
  9
$PLIMMIN
 10
-0.25
 20
-0.25
  9
$PLIMMAX
 10
10.75
 20
8.25
  9
$UNITMODE
 70
     0
  9
$VISRETAIN
 70
     1
  9
$PLINEGEN
 70
     0
  9
$PSLTSCALE
 70
     1
  9
$TREEDEPTH
 70
  3020
  9
$CMLSTYLE
  2
Standard
  9
$CMLJUST
 70
     0
  9
$CMLSCALE
 40
1.0
  9
$PROXYGRAPHICS
 70
     1
  9
$MEASUREMENT
 70
     0
  9
$CELWEIGHT
370
    -1
  9
$ENDCAPS
280
     0
  9
$JOINSTYLE
280
     0
  9
$LWDISPLAY
290
     1
  9
$INSUNITS
 70
     1
  9
$HYPERLINKBASE
  1

  9
$STYLESHEET
  1

  9
$XEDIT
290
     1
  9
$CEPSNTYPE
380
     0
  9
$PSTYLEMODE
290
     1
  9
$FINGERPRINTGUID
  2
{3FF96223-F9C2-48F7-A4C5-C732E40B2087}
  9
$VERSIONGUID
  2
{FAEB1C32-E019-11D5-929B-00C0DF256EC4}
  9
$EXTNAMES
290
     1
  9
$PSVPSCALE
 40
0.0
  9
$OLESTARTUP
290
     0
  0
ENDSEC
  0
SECTION
  2
CLASSES
  0
CLASS
  1
ACDBDICTIONARYWDFLT
  2
AcDbDictionaryWithDefault
  3
ObjectDBX Classes
 90
        0
280
     0
281
     0
  0
CLASS
  1
MATERIAL
  2
AcDbMaterial
  3
ObjectDBX Classes
 90
     1153
280
     0
281
     0
  0
CLASS
  1
VISUALSTYLE
  2
AcDbVisualStyle
  3
ObjectDBX Classes
 90
     4095
280
     0
281
     0
  0
CLASS
  1
SUN
  2
AcDbSun
  3
SCENEOE
 90
     1153
280
     0
281
     0
  0
CLASS
  1
SCALE
  2
AcDbScale
  3
ObjectDBX Classes
 90
     1153
280
     0
281
     0
  0
CLASS
  1
DICTIONARYVAR
  2
AcDbDictionaryVar
  3
ObjectDBX Classes
 90
        0
280
     0
281
     0
  0
CLASS
  1
MLEADERSTYLE
  2
AcDbMLeaderStyle
  3
ACDB_MLEADERSTYLE_CLASS
 90
     4095
280
     0
281
     0
  0
CLASS
  1
TABLESTYLE
  2
AcDbTableStyle
  3
ObjectDBX Classes
 90
     4095
280
     0
281
     0
  0
CLASS
  1
ACDBPLACEHOLDER
  2
AcDbPlaceHolder
  3
ObjectDBX Classes
 90
        0
280
     0
281
     0
  0
CLASS
  1
LAYOUT
  2
AcDbLayout
  3
ObjectDBX Classes
 90
        0
280
     0
281
     0
  0
ENDSEC
  0
SECTION
  2
TABLES
  0
TABLE
  2
VPORT
  5
1F
102
{ACAD_XDICTIONARY
360
BF
102
}
330
0
100
AcDbSymbolTable
 70
     1
  0
VPORT
  5
25
330
1F
100
AcDbSymbolTableRecord
100
AcDbViewportTableRecord
  2
*Active
 70
     0
 10
0.0
 20
0.0
 11
1.0
 21
1.0
 12
394.5349946541356
 22
414.9779999999996
 13
0.0
 23
0.0
 14
0.5
 24
0.5
 15
0.5
 25
0.5
 16
0.0
 26
0.0
 36
1.0
 17
0.0
 27
0.0
 37
0.0
 40
20.35920000000015
 41
1.654688873937696
 42
50.0
 43
0.0
 44
0.0
 50
0.0
 51
0.0
 71
    16
 72
   100
 73
     1
 74
     3
 75
     0
 76
     0
 77
     0
 78
     0
281
     0
 65
     1
110
0.0
120
0.0
130
0.0
111
1.0
121
0.0
131
0.0
112
0.0
122
1.0
132
0.0
 79
     0
146
0.0
  0
ENDTAB
  0
TABLE
  2
LTYPE
  5
9
330
0
100
AcDbSymbolTable
 70
     1
  0
LTYPE
  5
A
330
9
100
AcDbSymbolTableRecord
100
AcDbLinetypeTableRecord
  2
ByBlock
 70
     0
  3

 72
    65
 73
     0
 40
0.0
  0
LTYPE
  5
B
330
9
100
AcDbSymbolTableRecord
100
AcDbLinetypeTableRecord
  2
ByLayer
 70
     0
  3

 72
    65
 73
     0
 40
0.0
  0
LTYPE
  5
8
330
9
100
AcDbSymbolTableRecord
100
AcDbLinetypeTableRecord
  2
Continuous
 70
     0
  3
Solid line
 72
    65
 73
     0
 40
0.0
  0
ENDTAB
  0
TABLE
  2
LAYER
  5
2
330
0
100
AcDbSymbolTable
 70
     2
  0
LAYER
  5
1
330
2
100
AcDbSymbolTableRecord
100
AcDbLayerTableRecord
  2
0
 70
     0
 62
     7
  6
Continuous
370
    -3
390
3
  0
LAYER
  5
4E
330
2
100
AcDbSymbolTableRecord
100
AcDbLayerTableRecord
  2
Layer 1
 70
     0
 62
     7
  6
Continuous
370
    -3
390
3
  0
ENDTAB
  0
TABLE
  2
STYLE
  5
D
330
0
100
AcDbSymbolTable
 70
     1
  0
STYLE
  5
C
330
D
100
AcDbSymbolTableRecord
100
AcDbTextStyleTableRecord
  2
Standard
 70
     0
 40
0.0
 41
1.0
 50
0.0
 71
     0
 42
0.2
  3
txt
  4

  0
ENDTAB
  0
TABLE
  2
VIEW
  5
1D
330
0
100
AcDbSymbolTable
 70
     0
  0
ENDTAB
  0
TABLE
  2
UCS
  5
1E
330
0
100
AcDbSymbolTable
 70
     0
  0
ENDTAB
  0
TABLE
  2
APPID
  5
20
330
0
100
AcDbSymbolTable
 70
     2
  0
APPID
  5
24
330
20
100
AcDbSymbolTableRecord
100
AcDbRegAppTableRecord
  2
ACAD
 70
     0
  0
APPID
  5
F8
330
20
100
AcDbSymbolTableRecord
100
AcDbRegAppTableRecord
  2
ACAD_MLEADERVER
 70
     0
  0
ENDTAB
  0
TABLE
  2
DIMSTYLE
  5
10
330
0
100
AcDbSymbolTable
 70
     1
100
AcDbDimStyleTable
  0
DIMSTYLE
105
F
330
10
100
AcDbSymbolTableRecord
100
AcDbDimStyleTableRecord
  2
Standard
 70
     0
178
     0
340
C
  0
ENDTAB
  0
TABLE
  2
BLOCK_RECORD
  5
13
330
0
100
AcDbSymbolTable
 70
     0
  0
BLOCK_RECORD
  5
14
330
13
100
AcDbSymbolTableRecord
100
AcDbBlockTableRecord
  2
*Model_Space
340
17
  0
BLOCK_RECORD
  5
19
330
13
100
AcDbSymbolTableRecord
100
AcDbBlockTableRecord
  2
*Paper_Space
340
1C
  0
ENDTAB
  0
ENDSEC
  0
SECTION
  2
BLOCKS
  0
BLOCK
  5
15
330
14
100
AcDbEntity
  8
0
100
AcDbBlockBegin
  2
*Model_Space
 70
     0
 10
0.0
 20
0.0
 30
0.0
  3
*Model_Space
  1

  0
ENDBLK
  5
16
330
14
100
AcDbEntity
  8
0
100
AcDbBlockEnd
  0
BLOCK
  5
1A
330
19
100
AcDbEntity
 67
     1
  8
0
100
AcDbBlockBegin
  2
*Paper_Space
 70
     0
 10
0.0
 20
0.0
 30
0.0
  3
*Paper_Space
  1

  0
ENDBLK
  5
1B
330
19
100
AcDbEntity
 67
     1
  8
0
100
AcDbBlockEnd
  0
ENDSEC
  0
SECTION
  2
ENTITIES
  0
SPLINE
  5
4D
330
14
100
AcDbEntity
  8
Layer 1
370
     0
100
AcDbSpline
210
0.0
220
0.0
230
1.0
 70
    11
 71
     3
 72
    32
 73
    28
 74
     0
 42
0.000000001
 43
0.0000000001
 40
0.0
 40
0.0
 40
0.0
 40
0.0
 40
1.0
 40
1.0
 40
1.0
 40
2.0
 40
2.0
 40
2.0
 40
3.0
 40
3.0
 40
3.0
 40
4.0
 40
4.0
 40
4.0
 40
5.0
 40
5.0
 40
5.0
 40
6.0
 40
6.0
 40
6.0
 40
7.0
 40
7.0
 40
7.0
 40
8.0
 40
8.0
 40
8.0
 40
9.0
 40
9.0
 40
9.0
 40
9.0
 10
403.1630898152434
 20
406.945289719697
 30
0.0
 10
403.2724898124798
 20
406.8349999999991
 30
0.0
 10
403.3407898107544
 20
406.6825897263334
 30
0.0
 10
403.3407898107544
 20
406.5155897305522
 30
0.0
 10
403.3407898107544
 20
406.3476897347937
 30
0.0
 10
403.2724898124798
 20
406.1952897386436
 30
0.0
 10
403.1630898152434
 20
406.0858897414073
 30
0.0
 10
403.0526898180324
 20
405.974589744219
 30
0.0
 10
402.9003898218798
 20
405.9071897459216
 30
0.0
 10
402.7333898260986
 20
405.9071897459216
 30
0.0
 10
402.5644898303653
 20
405.9071897459216
 30
0.0
 10
402.4120898342153
 20
405.974589744219
 30
0.0
 10
402.302689836979
 20
406.0858897414073
 30
0.0
 10
402.1933898397401
 20
406.1952897386436
 30
0.0
 10
402.125
 20
406.3476897347937
 30
0.0
 10
402.125
 20
406.5155897305522
 30
0.0
 10
402.125
 20
406.6825897263334
 30
0.0
 10
402.1933898397401
 20
406.8349999999991
 30
0.0
 10
402.302689836979
 20
406.945289719697
 30
0.0
 10
402.4120898342153
 20
407.0546897169334
 30
0.0
 10
402.5644898303653
 20
407.1229999999996
 30
0.0
 10
402.7333898260986
 20
407.1229999999996
 30
0.0
 10
402.9003898218798
 20
407.1229999999996
 30
0.0
 10
403.0526898180324
 20
407.0546897169334
 30
0.0
 10
403.1630898152434
 20
406.945289719697
 30
0.0
 10
403.1630898152434
 20
406.945289719697
 30
0.0
 10
403.1630898152434
 20
406.945289719697
 30
0.0
 10
403.1630898152434
 20
406.945289719697
 30
0.0
  0
SPLINE
  5
4F
330
14
100
AcDbEntity
  8
Layer 1
370
     0
100
AcDbSpline
210
0.0
220
0.0
230
1.0
 70
    11
 71
     3
 72
    32
 73
    28
 74
     0
 42
0.000000001
 43
0.0000000001
 40
0.0
 40
0.0
 40
0.0
 40
0.0
 40
1.0
 40
1.0
 40
1.0
 40
2.0
 40
2.0
 40
2.0
 40
3.0
 40
3.0
 40
3.0
 40
4.0
 40
4.0
 40
4.0
 40
5.0
 40
5.0
 40
5.0
 40
6.0
 40
6.0
 40
6.0
 40
7.0
 40
7.0
 40
7.0
 40
8.0
 40
8.0
 40
8.0
 40
9.0
 40
9.0
 40
9.0
 40
9.0
 10
405.6054897535432
 20
406.945289719697
 30
0.0
 10
405.7147897507821
 20
406.8349999999991
 30
0.0
 10
405.7831897490541
 20
406.6825897263334
 30
0.0
 10
405.7831897490541
 20
406.5155897305522
 30
0.0
 10
405.7831897490541
 20
406.3476897347937
 30
0.0
 10
405.7147897507821
 20
406.1952897386436
 30
0.0
 10
405.6054897535432
 20
406.0858897414073
 30
0.0
 10
405.4950897563322
 20
405.974589744219
 30
0.0
 10
405.3437897601543
 20
405.9071897459216
 30
0.0
 10
405.1757897643984
 20
405.9071897459216
 30
0.0
 10
405.0077897686424
 20
405.9071897459216
 30
0.0
 10
404.8554897724898
 20
405.974589744219
 30
0.0
 10
404.7460897752535
 20
406.0858897414073
 30
0.0
 10
404.6356897780424
 20
406.1952897386436
 30
0.0
 10
404.5683897797426
 20
406.3476897347937
 30
0.0
 10
404.5683897797426
 20
406.5155897305522
 30
0.0
 10
404.5683897797426
 20
406.6825897263334
 30
0.0
 10
404.6356897780424
 20
406.8349999999991
 30
0.0
 10
404.7460897752535
 20
406.945289719697
 30
0.0
 10
404.8554897724898
 20
407.0546897169334
 30
0.0
 10
405.0077897686424
 20
407.1229999999996
 30
0.0
 10
405.1757897643984
 20
407.1229999999996
 30
0.0
 10
405.3437897601543
 20
407.1229999999996
 30
0.0
 10
405.4950897563322
 20
407.0546897169334
 30
0.0
 10
405.6054897535432
 20
406.945289719697
 30
0.0
 10
405.6054897535432
 20
406.945289719697
 30
0.0
 10
405.6054897535432
 20
406.945289719697
 30
0.0
 10
405.6054897535432
 20
406.945289719697
 30
0.0
  0
SPLINE
  5
50
330
14
100
AcDbEntity
  8
Layer 1
370
     0
100
AcDbSpline
210
0.0
220
0.0
230
1.0
 70
    11
 71
     3
 72
    32
 73
    28
 74
     0
 42
0.000000001
 43
0.0000000001
 40
0.0
 40
0.0
 40
0.0
 40
0.0
 40
1.0
 40
1.0
 40
1.0
 40
2.0
 40
2.0
 40
2.0
 40
3.0
 40
3.0
 40
3.0
 40
4.0
 40
4.0
 40
4.0
 40
5.0
 40
5.0
 40
5.0
 40
6.0
 40
6.0
 40
6.0
 40
7.0
 40
7.0
 40
7.0
 40
8.0
 40
8.0
 40
8.0
 40
9.0
 40
9.0
 40
9.0
 40
9.0
 10
402.8515898231126
 20
409.5878896529393
 30
0.0
 10
402.9022898218318
 20
409.5351896542707
 30
0.0
 10
402.9354898209931
 20
409.4628896560971
 30
0.0
 10
402.9354898209931
 20
409.3837896580953
 30
0.0
 10
402.9354898209931
 20
409.3026896601441
 30
0.0
 10
402.9022898218318
 20
409.230489661968
 30
0.0
 10
402.8515898231126
 20
409.1786896632766
 30
0.0
 10
402.7987898244464
 20
409.1260000000002
 30
0.0
 10
402.7255898262956
 20
409.0937896654214
 30
0.0
 10
402.6464898282939
 20
409.0937896654214
 30
0.0
 10
402.5663898303173
 20
409.0937896654214
 30
0.0
 10
402.4931898321665
 20
409.1260000000002
 30
0.0
 10
402.4413898334751
 20
409.1786896632766
 30
0.0
 10
402.3886898348064
 20
409.230489661968
 30
0.0
 10
402.3554898356451
 20
409.3026896601441
 30
0.0
 10
402.3554898356451
 20
409.3837896580953
 30
0.0
 10
402.3554898356451
 20
409.4628896560971
 30
0.0
 10
402.3886898348064
 20
409.5351896542707
 30
0.0
 10
402.4413898334751
 20
409.5878896529393
 30
0.0
 10
402.4931898321665
 20
409.640589651608
 30
0.0
 10
402.5663898303173
 20
409.6718896508173
 30
0.0
 10
402.6464898282939
 20
409.6718896508173
 30
0.0
 10
402.7255898262956
 20
409.6718896508173
 30
0.0
 10
402.7987898244464
 20
409.640589651608
 30
0.0
 10
402.8515898231126
 20
409.5878896529393
 30
0.0
 10
402.8515898231126
 20
409.5878896529393
 30
0.0
 10
402.8515898231126
 20
409.5878896529393
 30
0.0
 10
402.8515898231126
 20
409.5878896529393
 30
0.0
  0
SPLINE
  5
51
330
14
100
AcDbEntity
  8
Layer 1
370
     0
100
AcDbSpline
210
0.0
220
0.0
230
1.0
 70
    11
 71
     3
 72
    44
 73
    40
 74
     0
 42
0.000000001
 43
0.0000000001
 40
0.0
 40
0.0
 40
0.0
 40
0.0
 40
1.0
 40
1.0
 40
1.0
 40
2.0
 40
2.0
 40
2.0
 40
3.0
 40
3.0
 40
3.0
 40
4.0
 40
4.0
 40
4.0
 40
5.0
 40
5.0
 40
5.0
 40
6.0
 40
6.0
 40
6.0
 40
7.0
 40
7.0
 40
7.0
 40
8.0
 40
8.0
 40
8.0
 40
9.0
 40
9.0
 40
9.0
 40
10.0
 40
10.0
 40
10.0
 40
11.0
 40
11.0
 40
11.0
 40
12.0
 40
12.0
 40
12.0
 40
13.0
 40
13.0
 40
13.0
 40
13.0
 10
407.6308897023773
 20
409.2226896621651
 30
0.0
 10
407.6308897023773
 20
409.2226896621651
 30
0.0
 10
407.6327897023293
 20
409.2216896621903
 30
0.0
 10
407.6327897023293
 20
409.2216896621903
 30
0.0
 10
407.7704896988507
 20
409.0820000000003
 30
0.0
 10
407.8573896966554
 20
408.8895896705799
 30
0.0
 10
407.8573896966554
 20
408.6757896759809
 30
0.0
 10
407.8573896966554
 20
408.4618896813845
 30
0.0
 10
407.7704896988507
 20
408.2675896862929
 30
0.0
 10
407.6327897023293
 20
408.1298896897715
 30
0.0
 10
407.6327897023293
 20
408.1298896897715
 30
0.0
 10
407.6308897023773
 20
408.1288896897968
 30
0.0
 10
407.6308897023773
 20
408.1288896897968
 30
0.0
 10
407.4921897058812
 20
407.9901896933006
 30
0.0
 10
407.2987897107669
 20
407.9042896954707
 30
0.0
 10
407.0849999999991
 20
407.9042896954707
 30
0.0
 10
406.8710897215715
 20
407.9042896954707
 30
0.0
 10
406.6776897264572
 20
407.9901896933006
 30
0.0
 10
406.5390897299585
 20
408.1288896897968
 30
0.0
 10
406.5390897299585
 20
408.1288896897968
 30
0.0
 10
406.537089730009
 20
408.1298896897715
 30
0.0
 10
406.537089730009
 20
408.1298896897715
 30
0.0
 10
406.3993897334876
 20
408.2675896862929
 30
0.0
 10
406.3144897356324
 20
408.4618896813845
 30
0.0
 10
406.3144897356324
 20
408.6757896759809
 30
0.0
 10
406.3144897356324
 20
408.8895896705799
 30
0.0
 10
406.3993897334876
 20
409.0820000000003
 30
0.0
 10
406.537089730009
 20
409.2216896621903
 30
0.0
 10
406.537089730009
 20
409.2216896621903
 30
0.0
 10
406.5390897299585
 20
409.2226896621651
 30
0.0
 10
406.5390897299585
 20
409.2226896621651
 30
0.0
 10
406.6776897264572
 20
409.3612896586637
 30
0.0
 10
406.8710897215715
 20
409.4472896564912
 30
0.0
 10
407.0849999999991
 20
409.4472896564912
 30
0.0
 10
407.2987897107669
 20
409.4472896564912
 30
0.0
 10
407.4921897058812
 20
409.3612896586637
 30
0.0
 10
407.6308897023773
 20
409.2226896621651
 30
0.0
 10
407.6308897023773
 20
409.2226896621651
 30
0.0
 10
407.6308897023773
 20
409.2226896621651
 30
0.0
 10
407.6308897023773
 20
409.2226896621651
 30
0.0
  0
SPLINE
  5
52
330
14
100
AcDbEntity
  8
Layer 1
370
     0
100
AcDbSpline
210
0.0
220
0.0
230
1.0
 70
    11
 71
     3
 72
    23
 73
    19
 74
     0
 42
0.000000001
 43
0.0000000001
 40
0.0
 40
0.0
 40
0.0
 40
0.0
 40
1.0
 40
1.0
 40
1.0
 40
2.0
 40
2.0
 40
2.0
 40
3.0
 40
3.0
 40
3.0
 40
4.0
 40
4.0
 40
4.0
 40
5.0
 40
5.0
 40
5.0
 40
6.0
 40
6.0
 40
6.0
 40
6.0
 10
407.1952897133815
 20
406.995089718439
 30
0.0
 10
407.1952897133815
 20
406.995089718439
 30
0.0
 10
406.331089735213
 20
406.134789740172
 30
0.0
 10
406.331089735213
 20
406.134789740172
 30
0.0
 10
406.3710897342025
 20
406.2538897371633
 30
0.0
 10
406.3925897336594
 20
406.3817897339322
 30
0.0
 10
406.3925897336594
 20
406.5155897305522
 30
0.0
 10
406.3925897336594
 20
406.8241897227563
 30
0.0
 10
406.2772897365721
 20
407.10548971565
 30
0.0
 10
406.0878897413568
 20
407.3202897102237
 30
0.0
 10
406.3671897343011
 20
407.113289715453
 30
0.0
 10
406.7128897255679
 20
406.9911897185375
 30
0.0
 10
407.0849999999991
 20
406.9911897185375
 30
0.0
 10
407.1220897152307
 20
406.9911897185375
 30
0.0
 10
407.1591897142935
 20
406.9921897185122
 30
0.0
 10
407.1952897133815
 20
406.995089718439
 30
0.0
 10
407.1952897133815
 20
406.995089718439
 30
0.0
 10
407.1952897133815
 20
406.995089718439
 30
0.0
 10
407.1952897133815
 20
406.995089718439
 30
0.0
  0
POLYLINE
  5
53
330
14
100
AcDbEntity
  8
Layer 1
370
     0
100
AcDb2dPolyline
 66
     1
 10
0.0
 20
0.0
 30
0.0
  0
VERTEX
  5
54
330
53
100
AcDbEntity
  8
Layer 1
370
     0
100
AcDbVertex
100
AcDb2dVertex
 10
397.4188899603541
 20
414.9901895164658
 30
0.0
  0
VERTEX
  5
55
330
53
100
AcDbEntity
  8
Layer 1
370
     0
100
AcDbVertex
100
AcDb2dVertex
 10
397.4188899603541
 20
413.7020895490059
 30
0.0
  0
VERTEX
  5
56
330
53
100
AcDbEntity
  8
Layer 1
370
     0
100
AcDbVertex
100
AcDb2dVertex
 10
389.5272901597127
 20
413.7020895490059
 30
0.0
  0
VERTEX
  5
57
330
53
100
AcDbEntity
  8
Layer 1
370
     0
100
AcDbVertex
100
AcDb2dVertex
 10
389.5272901597127
 20
414.9901895164658
 30
0.0
  0
VERTEX
  5
58
330
53
100
AcDbEntity
  8
Layer 1
370
     0
100
AcDbVertex
100
AcDb2dVertex
 10
397.4188899603541
 20
414.9901895164658
 30
0.0
  0
SEQEND
  5
59
330
53
100
AcDbEntity
  8
Layer 1
370
     0
  0
POLYLINE
  5
5A
330
14
100
AcDbEntity
  8
Layer 1
370
     0
100
AcDb2dPolyline
 66
     1
 10
0.0
 20
0.0
 30
0.0
  0
VERTEX
  5
5B
330
5A
100
AcDbEntity
  8
Layer 1
370
     0
100
AcDbVertex
100
AcDb2dVertex
 10
393.7470900531116
 20
416.7685894715396
 30
0.0
  0
VERTEX
  5
5C
330
5A
100
AcDbEntity
  8
Layer 1
370
     0
100
AcDbVertex
100
AcDb2dVertex
 10
395.5185900083598
 20
416.7685894715396
 30
0.0
  0
VERTEX
  5
5D
330
5A
100
AcDbEntity
  8
Layer 1
370
     0
100
AcDbVertex
100
AcDb2dVertex
 10
395.5185900083598
 20
416.5409999999993
 30
0.0
  0
VERTEX
  5
5E
330
5A
100
AcDbEntity
  8
Layer 1
370
     0
100
AcDbVertex
100
AcDb2dVertex
 10
393.7470900531116
 20
416.5409999999993
 30
0.0
  0
VERTEX
  5
5F
330
5A
100
AcDbEntity
  8
Layer 1
370
     0
100
AcDbVertex
100
AcDb2dVertex
 10
393.7470900531116
 20
416.7685894715396
 30
0.0
  0
VERTEX
  5
60
330
5A
100
AcDbEntity
  8
Layer 1
370
     0
100
AcDbVertex
100
AcDb2dVertex
 10
393.7470900531116
 20
416.7685894715396
 30
0.0
  0
SEQEND
  5
61
330
5A
100
AcDbEntity
  8
Layer 1
370
     0
  0
POLYLINE
  5
62
330
14
100
AcDbEntity
  8
Layer 1
370
     0
100
AcDb2dPolyline
 66
     1
 10
0.0
 20
0.0
 30
0.0
  0
VERTEX
  5
63
330
62
100
AcDbEntity
  8
Layer 1
370
     0
100
AcDbVertex
100
AcDb2dVertex
 10
393.7470900531116
 20
416.3056894832334
 30
0.0
  0
VERTEX
  5
64
330
62
100
AcDbEntity
  8
Layer 1
370
     0
100
AcDbVertex
100
AcDb2dVertex
 10
395.5185900083598
 20
416.3056894832334
 30
0.0
  0
VERTEX
  5
65
330
62
100
AcDbEntity
  8
Layer 1
370
     0
100
AcDbVertex
100
AcDb2dVertex
 10
395.5185900083598
 20
416.0780894889831
 30
0.0
  0
VERTEX
  5
66
330
62
100
AcDbEntity
  8
Layer 1
370
     0
100
AcDbVertex
100
AcDb2dVertex
 10
393.7470900531116
 20
416.0780894889831
 30
0.0
  0
VERTEX
  5
67
330
62
100
AcDbEntity
  8
Layer 1
370
     0
100
AcDbVertex
100
AcDb2dVertex
 10
393.7470900531116
 20
416.3056894832334
 30
0.0
  0
VERTEX
  5
68
330
62
100
AcDbEntity
  8
Layer 1
370
     0
100
AcDbVertex
100
AcDb2dVertex
 10
393.7470900531116
 20
416.3056894832334
 30
0.0
  0
SEQEND
  5
69
330
62
100
AcDbEntity
  8
Layer 1
370
     0
  0
POLYLINE
  5
6A
330
14
100
AcDbEntity
  8
Layer 1
370
     0
100
AcDb2dPolyline
 66
     1
 10
0.0
 20
0.0
 30
0.0
  0
VERTEX
  5
6B
330
6A
100
AcDbEntity
  8
Layer 1
370
     0
100
AcDbVertex
100
AcDb2dVertex
 10
393.7470900531116
 20
415.8495894947555
 30
0.0
  0
VERTEX
  5
6C
330
6A
100
AcDbEntity
  8
Layer 1
370
     0
100
AcDbVertex
100
AcDb2dVertex
 10
395.5185900083598
 20
415.8495894947555
 30
0.0
  0
VERTEX
  5
6D
330
6A
100
AcDbEntity
  8
Layer 1
370
     0
100
AcDbVertex
100
AcDb2dVertex
 10
395.5185900083598
 20
415.6210895005279
 30
0.0
  0
VERTEX
  5
6E
330
6A
100
AcDbEntity
  8
Layer 1
370
     0
100
AcDbVertex
100
AcDb2dVertex
 10
393.7470900531116
 20
415.6210895005279
 30
0.0
  0
VERTEX
  5
6F
330
6A
100
AcDbEntity
  8
Layer 1
370
     0
100
AcDbVertex
100
AcDb2dVertex
 10
393.7470900531116
 20
415.8495894947555
 30
0.0
  0
VERTEX
  5
70
330
6A
100
AcDbEntity
  8
Layer 1
370
     0
100
AcDbVertex
100
AcDb2dVertex
 10
393.7470900531116
 20
415.8495894947555
 30
0.0
  0
SEQEND
  5
71
330
6A
100
AcDbEntity
  8
Layer 1
370
     0
  0
POLYLINE
  5
72
330
14
100
AcDbEntity
  8
Layer 1
370
     0
100
AcDb2dPolyline
 66
     1
 10
0.0
 20
0.0
 30
0.0
  0
VERTEX
  5
73
330
72
100
AcDbEntity
  8
Layer 1
370
     0
100
AcDbVertex
100
AcDb2dVertex
 10
393.7470900531116
 20
415.4130895057824
 30
0.0
  0
VERTEX
  5
74
330
72
100
AcDbEntity
  8
Layer 1
370
     0
100
AcDbVertex
100
AcDb2dVertex
 10
395.5185900083598
 20
415.4130895057824
 30
0.0
  0
VERTEX
  5
75
330
72
100
AcDbEntity
  8
Layer 1
370
     0
100
AcDbVertex
100
AcDb2dVertex
 10
395.5185900083598
 20
415.1854895115321
 30
0.0
  0
VERTEX
  5
76
330
72
100
AcDbEntity
  8
Layer 1
370
     0
100
AcDbVertex
100
AcDb2dVertex
 10
393.7470900531116
 20
415.1854895115321
 30
0.0
  0
VERTEX
  5
77
330
72
100
AcDbEntity
  8
Layer 1
370
     0
100
AcDbVertex
100
AcDb2dVertex
 10
393.7470900531116
 20
415.4130895057824
 30
0.0
  0
VERTEX
  5
78
330
72
100
AcDbEntity
  8
Layer 1
370
     0
100
AcDbVertex
100
AcDb2dVertex
 10
393.7470900531116
 20
415.4130895057824
 30
0.0
  0
SEQEND
  5
79
330
72
100
AcDbEntity
  8
Layer 1
370
     0
  0
POLYLINE
  5
7A
330
14
100
AcDbEntity
  8
Layer 1
370
     0
100
AcDb2dPolyline
 66
     1
 10
0.0
 20
0.0
 30
0.0
  0
VERTEX
  5
7B
330
7A
100
AcDbEntity
  8
Layer 1
370
     0
100
AcDbVertex
100
AcDb2dVertex
 10
393.7470900531116
 20
417.2245894600201
 30
0.0
  0
VERTEX
  5
7C
330
7A
100
AcDbEntity
  8
Layer 1
370
     0
100
AcDbVertex
100
AcDb2dVertex
 10
395.5185900083598
 20
417.2245894600201
 30
0.0
  0
VERTEX
  5
7D
330
7A
100
AcDbEntity
  8
Layer 1
370
     0
100
AcDbVertex
100
AcDb2dVertex
 10
395.5185900083598
 20
416.9960894657925
 30
0.0
  0
VERTEX
  5
7E
330
7A
100
AcDbEntity
  8
Layer 1
370
     0
100
AcDbVertex
100
AcDb2dVertex
 10
393.7470900531116
 20
416.9960894657925
 30
0.0
  0
VERTEX
  5
7F
330
7A
100
AcDbEntity
  8
Layer 1
370
     0
100
AcDbVertex
100
AcDb2dVertex
 10
393.7470900531116
 20
417.2245894600201
 30
0.0
  0
VERTEX
  5
80
330
7A
100
AcDbEntity
  8
Layer 1
370
     0
100
AcDbVertex
100
AcDb2dVertex
 10
393.7470900531116
 20
417.2245894600201
 30
0.0
  0
SEQEND
  5
81
330
7A
100
AcDbEntity
  8
Layer 1
370
     0
  0
SPLINE
  5
82
330
14
100
AcDbEntity
  8
Layer 1
370
     0
100
AcDbSpline
210
0.0
220
0.0
230
1.0
 70
    11
 71
     3
 72
    44
 73
    40
 74
     0
 42
0.000000001
 43
0.0000000001
 40
0.0
 40
0.0
 40
0.0
 40
0.0
 40
1.0
 40
1.0
 40
1.0
 40
2.0
 40
2.0
 40
2.0
 40
3.0
 40
3.0
 40
3.0
 40
4.0
 40
4.0
 40
4.0
 40
5.0
 40
5.0
 40
5.0
 40
6.0
 40
6.0
 40
6.0
 40
7.0
 40
7.0
 40
7.0
 40
8.0
 40
8.0
 40
8.0
 40
9.0
 40
9.0
 40
9.0
 40
10.0
 40
10.0
 40
10.0
 40
11.0
 40
11.0
 40
11.0
 40
12.0
 40
12.0
 40
12.0
 40
13.0
 40
13.0
 40
13.0
 40
13.0
 10
390.9901901227568
 20
409.2226896621651
 30
0.0
 10
390.9901901227568
 20
409.2226896621651
 30
0.0
 10
390.9921901227062
 20
409.2216896621903
 30
0.0
 10
390.9921901227062
 20
409.2216896621903
 30
0.0
 10
391.1288901192529
 20
409.0820000000003
 30
0.0
 10
391.2147901170829
 20
408.8895896705799
 30
0.0
 10
391.2147901170829
 20
408.6757896759809
 30
0.0
 10
391.2147901170829
 20
408.4618896813845
 30
0.0
 10
391.1288901192529
 20
408.2675896862929
 30
0.0
 10
390.9921901227062
 20
408.1298896897715
 30
0.0
 10
390.9921901227062
 20
408.1298896897715
 30
0.0
 10
390.9901901227568
 20
408.1288896897968
 30
0.0
 10
390.9901901227568
 20
408.1288896897968
 30
0.0
 10
390.8505901262834
 20
407.9901896933006
 30
0.0
 10
390.6581901311438
 20
407.9042896954707
 30
0.0
 10
390.4433901365701
 20
407.9042896954707
 30
0.0
 10
390.2304901419484
 20
407.9042896954707
 30
0.0
 10
390.0370901468341
 20
407.9901896933006
 30
0.0
 10
389.8983901503379
 20
408.1288896897968
 30
0.0
 10
389.8983901503379
 20
408.1288896897968
 30
0.0
 10
389.8964901503859
 20
408.1298896897715
 30
0.0
 10
389.8964901503859
 20
408.1298896897715
 30
0.0
 10
389.7577901538898
 20
408.2675896862929
 30
0.0
 10
389.6718901560598
 20
408.4618896813845
 30
0.0
 10
389.6718901560598
 20
408.6757896759809
 30
0.0
 10
389.6718901560598
 20
408.8895896705799
 30
0.0
 10
389.7577901538898
 20
409.0820000000003
 30
0.0
 10
389.8964901503859
 20
409.2216896621903
 30
0.0
 10
389.8964901503859
 20
409.2216896621903
 30
0.0
 10
389.8983901503379
 20
409.2226896621651
 30
0.0
 10
389.8983901503379
 20
409.2226896621651
 30
0.0
 10
390.0370901468341
 20
409.3612896586637
 30
0.0
 10
390.2304901419484
 20
409.4472896564912
 30
0.0
 10
390.4433901365701
 20
409.4472896564912
 30
0.0
 10
390.6581901311438
 20
409.4472896564912
 30
0.0
 10
390.8505901262834
 20
409.3612896586637
 30
0.0
 10
390.9901901227568
 20
409.2226896621651
 30
0.0
 10
390.9901901227568
 20
409.2226896621651
 30
0.0
 10
390.9901901227568
 20
409.2226896621651
 30
0.0
 10
390.9901901227568
 20
409.2226896621651
 30
0.0
  0
SPLINE
  5
83
330
14
100
AcDbEntity
  8
Layer 1
370
     0
100
AcDbSpline
210
0.0
220
0.0
230
1.0
 70
    11
 71
     3
 72
    32
 73
    28
 74
     0
 42
0.000000001
 43
0.0000000001
 40
0.0
 40
0.0
 40
0.0
 40
0.0
 40
1.0
 40
1.0
 40
1.0
 40
2.0
 40
2.0
 40
2.0
 40
3.0
 40
3.0
 40
3.0
 40
4.0
 40
4.0
 40
4.0
 40
5.0
 40
5.0
 40
5.0
 40
6.0
 40
6.0
 40
6.0
 40
7.0
 40
7.0
 40
7.0
 40
8.0
 40
8.0
 40
8.0
 40
9.0
 40
9.0
 40
9.0
 40
9.0
 10
395.5409999999993
 20
406.945289719697
 30
0.0
 10
395.6522900049822
 20
406.8349999999991
 30
0.0
 10
395.7187900033023
 20
406.6825897263334
 30
0.0
 10
395.7187900033023
 20
406.5155897305522
 30
0.0
 10
395.7187900033023
 20
406.3476897347937
 30
0.0
 10
395.6522900049822
 20
406.1952897386436
 30
0.0
 10
395.5409999999993
 20
406.0858897414073
 30
0.0
 10
395.4315900105576
 20
405.974589744219
 30
0.0
 10
395.279290014405
 20
405.9071897459216
 30
0.0
 10
395.111290018649
 20
405.9071897459216
 30
0.0
 10
394.9433900228905
 20
405.9071897459216
 30
0.0
 10
394.7929999999997
 20
405.974589744219
 30
0.0
 10
394.6815900295042
 20
406.0858897414073
 30
0.0
 10
394.5722900322653
 20
406.1952897386436
 30
0.0
 10
394.5038900339932
 20
406.3476897347937
 30
0.0
 10
394.5038900339932
 20
406.5155897305522
 30
0.0
 10
394.5038900339932
 20
406.6825897263334
 30
0.0
 10
394.5722900322653
 20
406.8349999999991
 30
0.0
 10
394.6815900295042
 20
406.945289719697
 30
0.0
 10
394.7929999999997
 20
407.0546897169334
 30
0.0
 10
394.9433900228905
 20
407.1229999999996
 30
0.0
 10
395.111290018649
 20
407.1229999999996
 30
0.0
 10
395.279290014405
 20
407.1229999999996
 30
0.0
 10
395.4315900105576
 20
407.0546897169334
 30
0.0
 10
395.5409999999993
 20
406.945289719697
 30
0.0
 10
395.5409999999993
 20
406.945289719697
 30
0.0
 10
395.5409999999993
 20
406.945289719697
 30
0.0
 10
395.5409999999993
 20
406.945289719697
 30
0.0
  0
SPLINE
  5
84
330
14
100
AcDbEntity
  8
Layer 1
370
     0
100
AcDbSpline
210
0.0
220
0.0
230
1.0
 70
    11
 71
     3
 72
    32
 73
    28
 74
     0
 42
0.000000001
 43
0.0000000001
 40
0.0
 40
0.0
 40
0.0
 40
0.0
 40
1.0
 40
1.0
 40
1.0
 40
2.0
 40
2.0
 40
2.0
 40
3.0
 40
3.0
 40
3.0
 40
4.0
 40
4.0
 40
4.0
 40
5.0
 40
5.0
 40
5.0
 40
6.0
 40
6.0
 40
6.0
 40
7.0
 40
7.0
 40
7.0
 40
8.0
 40
8.0
 40
8.0
 40
9.0
 40
9.0
 40
9.0
 40
9.0
 10
398.0937899433047
 20
406.945289719697
 30
0.0
 10
398.2030899405436
 20
406.8349999999991
 30
0.0
 10
398.2714899388156
 20
406.6825897263334
 30
0.0
 10
398.2714899388156
 20
406.5155897305522
 30
0.0
 10
398.2714899388156
 20
406.3476897347937
 30
0.0
 10
398.2030899405436
 20
406.1952897386436
 30
0.0
 10
398.0937899433047
 20
406.0858897414073
 30
0.0
 10
397.9833899460937
 20
405.974589744219
 30
0.0
 10
397.8310899499411
 20
405.9071897459216
 30
0.0
 10
397.6640899541599
 20
405.9071897459216
 30
0.0
 10
397.4960899584039
 20
405.9071897459216
 30
0.0
 10
397.3437899622513
 20
405.974589744219
 30
0.0
 10
397.2333899650403
 20
406.0858897414073
 30
0.0
 10
397.1229999999996
 20
406.1952897386436
 30
0.0
 10
397.0556899695293
 20
406.3476897347937
 30
0.0
 10
397.0556899695293
 20
406.5155897305522
 30
0.0
 10
397.0556899695293
 20
406.6825897263334
 30
0.0
 10
397.1229999999996
 20
406.8349999999991
 30
0.0
 10
397.2333899650403
 20
406.945289719697
 30
0.0
 10
397.3437899622513
 20
407.0546897169334
 30
0.0
 10
397.4960899584039
 20
407.1229999999996
 30
0.0
 10
397.6640899541599
 20
407.1229999999996
 30
0.0
 10
397.8310899499411
 20
407.1229999999996
 30
0.0
 10
397.9833899460937
 20
407.0546897169334
 30
0.0
 10
398.0937899433047
 20
406.945289719697
 30
0.0
 10
398.0937899433047
 20
406.945289719697
 30
0.0
 10
398.0937899433047
 20
406.945289719697
 30
0.0
 10
398.0937899433047
 20
406.945289719697
 30
0.0
  0
SPLINE
  5
85
330
14
100
AcDbEntity
  8
Layer 1
370
     0
100
AcDbSpline
210
0.0
220
0.0
230
1.0
 70
    11
 71
     3
 72
    32
 73
    28
 74
     0
 42
0.000000001
 43
0.0000000001
 40
0.0
 40
0.0
 40
0.0
 40
0.0
 40
1.0
 40
1.0
 40
1.0
 40
2.0
 40
2.0
 40
2.0
 40
3.0
 40
3.0
 40
3.0
 40
4.0
 40
4.0
 40
4.0
 40
5.0
 40
5.0
 40
5.0
 40
6.0
 40
6.0
 40
6.0
 40
7.0
 40
7.0
 40
7.0
 40
8.0
 40
8.0
 40
8.0
 40
9.0
 40
9.0
 40
9.0
 40
9.0
 10
400.6532898786463
 20
406.945289719697
 30
0.0
 10
400.7636898758574
 20
406.8349999999991
 30
0.0
 10
400.8310898741547
 20
406.6825897263334
 30
0.0
 10
400.8310898741547
 20
406.5155897305522
 30
0.0
 10
400.8310898741547
 20
406.3476897347937
 30
0.0
 10
400.7636898758574
 20
406.1952897386436
 30
0.0
 10
400.6532898786463
 20
406.0858897414073
 30
0.0
 10
400.5429999999997
 20
405.974589744219
 30
0.0
 10
400.3905898852827
 20
405.9071897459216
 30
0.0
 10
400.2226898895242
 20
405.9071897459216
 30
0.0
 10
400.055689893743
 20
405.9071897459216
 30
0.0
 10
399.9042898975677
 20
405.974589744219
 30
0.0
 10
399.7929999999997
 20
406.0858897414073
 30
0.0
 10
399.683589903143
 20
406.1952897386436
 30
0.0
 10
399.6151899048709
 20
406.3476897347937
 30
0.0
 10
399.6151899048709
 20
406.5155897305522
 30
0.0
 10
399.6151899048709
 20
406.6825897263334
 30
0.0
 10
399.683589903143
 20
406.8349999999991
 30
0.0
 10
399.7929999999997
 20
406.945289719697
 30
0.0
 10
399.9042898975677
 20
407.0546897169334
 30
0.0
 10
400.055689893743
 20
407.1229999999996
 30
0.0
 10
400.2226898895242
 20
407.1229999999996
 30
0.0
 10
400.3905898852827
 20
407.1229999999996
 30
0.0
 10
400.5429999999997
 20
407.0546897169334
 30
0.0
 10
400.6532898786463
 20
406.945289719697
 30
0.0
 10
400.6532898786463
 20
406.945289719697
 30
0.0
 10
400.6532898786463
 20
406.945289719697
 30
0.0
 10
400.6532898786463
 20
406.945289719697
 30
0.0
  0
SPLINE
  5
86
330
14
100
AcDbEntity
  8
Layer 1
370
     0
100
AcDbSpline
210
0.0
220
0.0
230
1.0
 70
    11
 71
     3
 72
    32
 73
    28
 74
     0
 42
0.000000001
 43
0.0000000001
 40
0.0
 40
0.0
 40
0.0
 40
0.0
 40
1.0
 40
1.0
 40
1.0
 40
2.0
 40
2.0
 40
2.0
 40
3.0
 40
3.0
 40
3.0
 40
4.0
 40
4.0
 40
4.0
 40
5.0
 40
5.0
 40
5.0
 40
6.0
 40
6.0
 40
6.0
 40
7.0
 40
7.0
 40
7.0
 40
8.0
 40
8.0
 40
8.0
 40
9.0
 40
9.0
 40
9.0
 40
9.0
 10
392.9530900731697
 20
406.945289719697
 30
0.0
 10
393.0634900703808
 20
406.8349999999991
 30
0.0
 10
393.1308900686781
 20
406.6825897263334
 30
0.0
 10
393.1308900686781
 20
406.5155897305522
 30
0.0
 10
393.1308900686781
 20
406.3476897347937
 30
0.0
 10
393.0634900703808
 20
406.1952897386436
 30
0.0
 10
392.9530900731697
 20
406.0858897414073
 30
0.0
 10
392.8427900759561
 20
405.974589744219
 30
0.0
 10
392.6913900797808
 20
405.9071897459216
 30
0.0
 10
392.5233900840249
 20
405.9071897459216
 30
0.0
 10
392.3554900882664
 20
405.9071897459216
 30
0.0
 10
392.2030900921163
 20
405.974589744219
 30
0.0
 10
392.0937900948775
 20
406.0858897414073
 30
0.0
 10
391.9823900976917
 20
406.1952897386436
 30
0.0
 10
391.9159999999993
 20
406.3476897347937
 30
0.0
 10
391.9159999999993
 20
406.5155897305522
 30
0.0
 10
391.9159999999993
 20
406.6825897263334
 30
0.0
 10
391.9823900976917
 20
406.8349999999991
 30
0.0
 10
392.0937900948775
 20
406.945289719697
 30
0.0
 10
392.2030900921163
 20
407.0546897169334
 30
0.0
 10
392.3554900882664
 20
407.1229999999996
 30
0.0
 10
392.5233900840249
 20
407.1229999999996
 30
0.0
 10
392.6913900797808
 20
407.1229999999996
 30
0.0
 10
392.8427900759561
 20
407.0546897169334
 30
0.0
 10
392.9530900731697
 20
406.945289719697
 30
0.0
 10
392.9530900731697
 20
406.945289719697
 30
0.0
 10
392.9530900731697
 20
406.945289719697
 30
0.0
 10
392.9530900731697
 20
406.945289719697
 30
0.0
  0
SPLINE
  5
87
330
14
100
AcDbEntity
  8
Layer 1
370
     0
100
AcDbSpline
210
0.0
220
0.0
230
1.0
 70
    11
 71
     3
 72
    32
 73
    28
 74
     0
 42
0.000000001
 43
0.0000000001
 40
0.0
 40
0.0
 40
0.0
 40
0.0
 40
1.0
 40
1.0
 40
1.0
 40
2.0
 40
2.0
 40
2.0
 40
3.0
 40
3.0
 40
3.0
 40
4.0
 40
4.0
 40
4.0
 40
5.0
 40
5.0
 40
5.0
 40
6.0
 40
6.0
 40
6.0
 40
7.0
 40
7.0
 40
7.0
 40
8.0
 40
8.0
 40
8.0
 40
9.0
 40
9.0
 40
9.0
 40
9.0
 10
394.7440900279253
 20
409.5878896529393
 30
0.0
 10
394.7978900265662
 20
409.5351896542707
 30
0.0
 10
394.8300900257527
 20
409.4628896560971
 30
0.0
 10
394.8300900257527
 20
409.3837896580953
 30
0.0
 10
394.8300900257527
 20
409.3026896601441
 30
0.0
 10
394.7978900265662
 20
409.230489661968
 30
0.0
 10
394.7440900279253
 20
409.1786896632766
 30
0.0
 10
394.6933900292061
 20
409.1260000000002
 30
0.0
 10
394.619090031083
 20
409.0937896654214
 30
0.0
 10
394.5400000000009
 20
409.0937896654214
 30
0.0
 10
394.4608900350795
 20
409.0937896654214
 30
0.0
 10
394.3876900369287
 20
409.1260000000002
 30
0.0
 10
394.3358900382373
 20
409.1786896632766
 30
0.0
 10
394.2821900395938
 20
409.230489661968
 30
0.0
 10
394.25
 20
409.3026896601441
 30
0.0
 10
394.25
 20
409.3837896580953
 30
0.0
 10
394.25
 20
409.4628896560971
 30
0.0
 10
394.2821900395938
 20
409.5351896542707
 30
0.0
 10
394.3358900382373
 20
409.5878896529393
 30
0.0
 10
394.3876900369287
 20
409.640589651608
 30
0.0
 10
394.4608900350795
 20
409.6718896508173
 30
0.0
 10
394.5400000000009
 20
409.6718896508173
 30
0.0
 10
394.619090031083
 20
409.6718896508173
 30
0.0
 10
394.6933900292061
 20
409.640589651608
 30
0.0
 10
394.7440900279253
 20
409.5878896529393
 30
0.0
 10
394.7440900279253
 20
409.5878896529393
 30
0.0
 10
394.7440900279253
 20
409.5878896529393
 30
0.0
 10
394.7440900279253
 20
409.5878896529393
 30
0.0
  0
POLYLINE
  5
88
330
14
100
AcDbEntity
  8
Layer 1
370
     0
100
AcDb2dPolyline
 66
     1
 10
0.0
 20
0.0
 30
0.0
  0
VERTEX
  5
89
330
88
100
AcDbEntity
  8
Layer 1
370
     0
100
AcDbVertex
100
AcDb2dVertex
 10
400.2362898891806
 20
422.6483893230034
 30
0.0
  0
VERTEX
  5
8A
330
88
100
AcDbEntity
  8
Layer 1
370
     0
100
AcDbVertex
100
AcDb2dVertex
 10
400.2362898891806
 20
417.6200894500289
 30
0.0
  0
VERTEX
  5
8B
330
88
100
AcDbEntity
  8
Layer 1
370
     0
100
AcDbVertex
100
AcDb2dVertex
 10
398.4599999999991
 20
417.6200894500289
 30
0.0
  0
VERTEX
  5
8C
330
88
100
AcDbEntity
  8
Layer 1
370
     0
100
AcDbVertex
100
AcDb2dVertex
 10
398.0038899455758
 20
422.6483893230034
 30
0.0
  0
VERTEX
  5
8D
330
88
100
AcDbEntity
  8
Layer 1
370
     0
100
AcDbVertex
100
AcDb2dVertex
 10
400.2362898891806
 20
422.6483893230034
 30
0.0
  0
VERTEX
  5
8E
330
88
100
AcDbEntity
  8
Layer 1
370
     0
100
AcDbVertex
100
AcDb2dVertex
 10
400.2362898891806
 20
422.6483893230034
 30
0.0
  0
SEQEND
  5
8F
330
88
100
AcDbEntity
  8
Layer 1
370
     0
  0
HATCH
  5
90
330
14
100
AcDbEntity
  8
Layer 1
 62
     7
100
AcDbHatch
 10
0.0
 20
0.0
 30
0.0
210
0.0
220
0.0
230
1.0
  2
SOLID
 70
     1
 71
     0
 91
       22
 92
        1
 93
        1
 72
     4
 94
        3
 73
     0
 74
     1
 95
      158
 96
      154
 40
0.0
 40
0.0
 40
0.0
 40
0.0
 40
1.0
 40
1.0
 40
1.0
 40
2.0
 40
2.0
 40
2.0
 40
3.0
 40
3.0
 40
3.0
 40
4.0
 40
4.0
 40
4.0
 40
5.0
 40
5.0
 40
5.0
 40
6.0
 40
6.0
 40
6.0
 40
7.0
 40
7.0
 40
7.0
 40
8.0
 40
8.0
 40
8.0
 40
9.0
 40
9.0
 40
9.0
 40
10.0
 40
10.0
 40
10.0
 40
11.0
 40
11.0
 40
11.0
 40
12.0
 40
12.0
 40
12.0
 40
13.0
 40
13.0
 40
13.0
 40
14.0
 40
14.0
 40
14.0
 40
15.0
 40
15.0
 40
15.0
 40
16.0
 40
16.0
 40
16.0
 40
17.0
 40
17.0
 40
17.0
 40
18.0
 40
18.0
 40
18.0
 40
19.0
 40
19.0
 40
19.0
 40
20.0
 40
20.0
 40
20.0
 40
21.0
 40
21.0
 40
21.0
 40
22.0
 40
22.0
 40
22.0
 40
23.0
 40
23.0
 40
23.0
 40
24.0
 40
24.0
 40
24.0
 40
25.0
 40
25.0
 40
25.0
 40
26.0
 40
26.0
 40
26.0
 40
27.0
 40
27.0
 40
27.0
 40
28.0
 40
28.0
 40
28.0
 40
29.0
 40
29.0
 40
29.0
 40
30.0
 40
30.0
 40
30.0
 40
31.0
 40
31.0
 40
31.0
 40
32.0
 40
32.0
 40
32.0
 40
33.0
 40
33.0
 40
33.0
 40
34.0
 40
34.0
 40
34.0
 40
35.0
 40
35.0
 40
35.0
 40
36.0
 40
36.0
 40
36.0
 40
37.0
 40
37.0
 40
37.0
 40
38.0
 40
38.0
 40
38.0
 40
39.0
 40
39.0
 40
39.0
 40
40.0
 40
40.0
 40
40.0
 40
41.0
 40
41.0
 40
41.0
 40
42.0
 40
42.0
 40
42.0
 40
43.0
 40
43.0
 40
43.0
 40
44.0
 40
44.0
 40
44.0
 40
45.0
 40
45.0
 40
45.0
 40
46.0
 40
46.0
 40
46.0
 40
47.0
 40
47.0
 40
47.0
 40
48.0
 40
48.0
 40
48.0
 40
49.0
 40
49.0
 40
49.0
 40
50.0
 40
50.0
 40
50.0
 40
51.0
 40
51.0
 40
51.0
 40
51.0
 10
411.0487896160339
 20
412.139589588478
 10
411.0487896160339
 20
412.139589588478
 10
407.7284896999117
 20
412.139589588478
 10
407.7284896999117
 20
412.139589588478
 10
407.7284896999117
 20
412.139589588478
 10
407.7284896999117
 20
416.9218894676669
 10
407.7284896999117
 20
416.9218894676669
 10
407.7284896999117
 20
416.9218894676669
 10
406.8847897212254
 20
416.9218894676669
 10
406.8847897212254
 20
416.9218894676669
 10
406.8847897212254
 20
416.9218894676669
 10
406.8847897212254
 20
422.9520893153312
 10
406.8847897212254
 20
422.9520893153312
 10
406.8847897212254
 20
422.9520893153312
 10
407.309589710494
 20
422.9520893153312
 10
407.309589710494
 20
422.9520893153312
 10
407.309589710494
 20
422.9520893153312
 10
407.309589710494
 20
424.9579999999996
 10
407.309589710494
 20
424.9579999999996
 10
407.309589710494
 20
424.9579999999996
 10
399.4784899083243
 20
424.9579999999996
 10
399.4784899083243
 20
424.9579999999996
 10
399.4784899083243
 20
424.9579999999996
 10
396.129889992917
 20
423.9926892890435
 10
396.129889992917
 20
423.9926892890435
 10
396.129889992917
 20
423.9926892890435
 10
396.129889992917
 20
422.9520893153312
 10
396.129889992917
 20
422.9520893153312
 10
396.129889992917
 20
422.9520893153312
 10
396.7577899770549
 20
422.9520893153312
 10
396.7577899770549
 20
422.9520893153312
 10
396.7577899770549
 20
422.9520893153312
 10
397.242189964818
 20
417.6200894500289
 10
397.242189964818
 20
417.6200894500289
 10
397.242189964818
 20
417.6200894500289
 10
391.7284901041057
 20
417.6200894500289
 10
391.7284901041057
 20
417.6200894500289
 10
391.7284901041057
 20
417.6200894500289
 10
391.7284901041057
 20
419.4452894039205
 10
391.7284901041057
 20
419.4452894039205
 10
391.7284901041057
 20
419.4452894039205
 10
391.2851901153044
 20
419.4452894039205
 10
391.2851901153044
 20
419.4452894039205
 10
391.2851901153044
 20
419.4452894039205
 10
391.2851901153044
 20
421.5600893504961
 10
391.2851901153044
 20
421.5600893504961
 10
391.2851901153044
 20
421.5600893504961
 10
392.5380900836535
 20
422.3642893301803
 10
392.5380900836535
 20
422.3642893301803
 10
392.5380900836535
 20
422.3642893301803
 10
392.0458900960875
 20
423.1298893108396
 10
392.0458900960875
 20
423.1298893108396
 10
392.0458900960875
 20
423.1298893108396
 10
390.5830000000005
 20
422.1913893345481
 10
390.5830000000005
 20
422.1913893345481
 10
390.5830000000005
 20
422.1913893345481
 10
390.3729999999996
 20
422.0565893379535
 10
390.3729999999996
 20
422.0565893379535
 10
390.3729999999996
 20
422.0565893379535
 10
390.3729999999996
 20
421.8080893442311
 10
390.3729999999996
 20
421.8080893442311
 10
390.3729999999996
 20
421.8080893442311
 10
390.3729999999996
 20
419.4452894039205
 10
390.3729999999996
 20
419.4452894039205
 10
390.3729999999996
 20
419.4452894039205
 10
389.9296901495472
 20
419.4452894039205
 10
389.9296901495472
 20
419.4452894039205
 10
389.9296901495472
 20
419.4452894039205
 10
389.9296901495472
 20
417.6200894500289
 10
389.9296901495472
 20
417.6200894500289
 10
389.9296901495472
 20
417.6200894500289
 10
389.0976901705653
 20
417.6200894500289
 10
389.0976901705653
 20
417.6200894500289
 10
389.0976901705653
 20
417.6200894500289
 10
385.7694902546427
 20
417.0116894653984
 10
385.7694902546427
 20
417.0116894653984
 10
385.7694902546427
 20
417.0116894653984
 10
385.7694902546427
 20
411.9267895938538
 10
385.7694902546427
 20
411.9267895938538
 10
385.7694902546427
 20
411.9267895938538
 10
382.4491903385206
 20
410.6815896253102
 10
382.4491903385206
 20
410.6815896253102
 10
382.4491903385206
 20
410.6815896253102
 10
382.4491903385206
 20
415.6308895002803
 10
382.4491903385206
 20
415.6308895002803
 10
382.4491903385206
 20
415.6308895002803
 10
381.0
 20
415.6308895002803
 10
381.0
 20
415.6308895002803
 10
380.3554903914119
 20
411.8544895956802
 10
380.4892903880318
 20
408.830089672083
 10
378.0204904503989
 20
405.4315897579363
 10
378.0204904503989
 20
405.4315897579363
 10
382.4491903385206
 20
405.4315897579363
 10
382.4491903385206
 20
405.4315897579363
 10
382.4491903385206
 20
405.4315897579363
 10
382.4491903385206
 20
408.0907896907593
 10
382.4491903385206
 20
408.0907896907593
 10
382.4491903385206
 20
408.0907896907593
 10
385.1435902704543
 20
409.1015896652243
 10
385.1435902704543
 20
409.1015896652243
 10
385.1435902704543
 20
409.1015896652243
 10
385.1435902704543
 20
407.9042896954707
 10
385.1435902704543
 20
407.9042896954707
 10
385.1435902704543
 20
407.9042896954707
 10
386.4140902383588
 20
406.6864897262349
 10
386.4140902383588
 20
406.6864897262349
 10
386.4140902383588
 20
406.6864897262349
 10
388.4853901860333
 20
406.6864897262349
 10
388.4853901860333
 20
406.6864897262349
 10
388.4853901860333
 20
406.6864897262349
 10
388.4590000000007
 20
406.7196897253962
 10
388.4590000000007
 20
406.7196897253962
 10
388.4590000000007
 20
406.7196897253962
 10
388.4530901868493
 20
406.7265897252219
 10
388.4530901868493
 20
406.7265897252219
 10
388.1083901955571
 20
407.1659999999993
 10
387.8573902018979
 20
407.675789701243
 10
387.7479999999996
 20
408.2235896874045
 10
387.6503902071272
 20
408.7090000000007
 10
387.6659999999993
 20
409.2147896623646
 10
387.8173902029084
 20
409.688489650398
 10
387.9706901990357
 20
410.1718896381863
 10
388.2567901918082
 20
410.5976896274296
 10
388.656290181716
 20
410.9110896195125
 10
388.9570000000003
 20
411.1464896135658
 10
389.3065901652881
 20
411.3046896095693
 10
389.6806901558375
 20
411.3808896076443
 10
389.6806901558375
 20
411.3808896076443
 10
389.8056901526797
 20
411.405289607028
 10
389.8056901526797
 20
411.405289607028
 10
389.8056901526797
 20
411.405289607028
 10
407.7128897003058
 20
411.405289607028
 10
407.7128897003058
 20
411.405289607028
 10
407.7128897003058
 20
411.405289607028
 10
407.7987896981358
 20
411.3944896073008
 10
407.7987896981358
 20
411.3944896073008
 10
408.4003896829381
 20
411.3144896093218
 10
408.9608896687787
 20
411.0595896157611
 10
409.3847896580701
 20
410.6210896268385
 10
409.646489651459
 20
410.3495896336972
 10
409.8397896465758
 20
410.0233896419377
 10
409.9511896437616
 20
409.6650000000009
 10
409.9921896427259
 20
409.5400000000009
 10
410.0194896420362
 20
409.4130896573552
 10
410.0390896415411
 20
409.2851896605862
 10
410.0390896415411
 20
409.2851896605862
 10
411.0487896160339
 20
409.9394896440572
 10
411.0487896160339
 20
409.9394896440572
 10
411.0487896160339
 20
409.9394896440572
 10
411.0487896160339
 20
412.139589588478
 10
411.0487896160339
 20
412.139589588478
 10
411.0487896160339
 20
412.139589588478
 10
411.0487896160339
 20
412.139589588478
 10
411.0487896160339
 20
412.139589588478
 97
        0
 92
        1
 93
        1
 72
     4
 94
        3
 73
     0
 74
     1
 95
       74
 96
       70
 40
0.0
 40
0.0
 40
0.0
 40
0.0
 40
1.0
 40
1.0
 40
1.0
 40
2.0
 40
2.0
 40
2.0
 40
3.0
 40
3.0
 40
3.0
 40
4.0
 40
4.0
 40
4.0
 40
5.0
 40
5.0
 40
5.0
 40
6.0
 40
6.0
 40
6.0
 40
7.0
 40
7.0
 40
7.0
 40
8.0
 40
8.0
 40
8.0
 40
9.0
 40
9.0
 40
9.0
 40
10.0
 40
10.0
 40
10.0
 40
11.0
 40
11.0
 40
11.0
 40
12.0
 40
12.0
 40
12.0
 40
13.0
 40
13.0
 40
13.0
 40
14.0
 40
14.0
 40
14.0
 40
15.0
 40
15.0
 40
15.0
 40
16.0
 40
16.0
 40
16.0
 40
17.0
 40
17.0
 40
17.0
 40
18.0
 40
18.0
 40
18.0
 40
19.0
 40
19.0
 40
19.0
 40
20.0
 40
20.0
 40
20.0
 40
21.0
 40
21.0
 40
21.0
 40
22.0
 40
22.0
 40
22.0
 40
23.0
 40
23.0
 40
23.0
 40
23.0
 10
389.9198901497948
 20
410.4921896300948
 10
389.9198901497948
 20
410.4921896300948
 10
407.6405897021323
 20
410.4921896300948
 10
407.6405897021323
 20
410.4921896300948
 10
407.6405897021323
 20
410.4921896300948
 10
407.6522897018367
 20
410.4921896300948
 10
407.6522897018367
 20
410.4921896300948
 10
407.6522897018367
 20
410.4921896300948
 10
407.6796897011445
 20
410.4882896301933
 10
407.6796897011445
 20
410.4882896301933
 10
408.1190896900443
 20
410.4306896316484
 10
408.4745896810637
 20
410.2479999999996
 10
408.7274896746749
 20
409.9862896428749
 10
408.8915896705294
 20
409.8173896471417
 10
409.0116896674954
 20
409.6142896522724
 10
409.0810896657422
 20
409.392589657873
 10
409.148389664042
 20
409.1737896634004
 10
409.1698896634989
 20
408.9335896694683
 10
409.1366896643376
 20
408.6874896756854
 10
409.078089665818
 20
408.2382896870331
 10
408.8427896717621
 20
407.7636896990225
 10
408.4013896829128
 20
407.3388897097539
 10
408.4013896829128
 20
407.3388897097539
 10
406.7304897251233
 20
405.6757897517673
 10
406.7304897251233
 20
405.6757897517673
 10
406.4237897328712
 20
405.3700897594899
 10
406.1317897402478
 20
405.2011897637567
 10
405.8036897485363
 20
405.1054897661743
 10
405.4862897565545
 20
405.0136897684934
 10
405.158189764843
 20
404.9979999999996
 10
404.7538897750565
 20
404.9979999999996
 10
404.7538897750565
 20
404.9979999999996
 10
392.6395900810894
 20
404.9979999999996
 10
392.6395900810894
 20
404.9979999999996
 10
392.6395900810894
 20
404.9979999999996
 10
392.5556900832089
 20
404.9979999999996
 10
392.5556900832089
 20
404.9979999999996
 10
392.5556900832089
 20
404.9979999999996
 10
392.5556900832089
 20
405.0
 10
392.5556900832089
 20
405.0
 10
391.4530901110629
 20
405.0
 10
391.1796901179696
 20
405.0
 10
390.6093901323766
 20
405.650389752409
 10
390.6093901323766
 20
405.650389752409
 10
389.1815901684458
 20
407.27728971131
 10
389.1815901684458
 20
407.27728971131
 10
389.1815901684458
 20
407.27728971131
 10
389.1718901686909
 20
407.2909999999993
 10
389.1718901686909
 20
407.2909999999993
 10
388.8876901758704
 20
407.6522897018367
 10
388.7167901801877
 20
408.0341896921891
 10
388.6425901820621
 20
408.4032896828649
 10
388.5702901838886
 20
408.7606896738362
 10
388.589790183396
 20
409.1073896650778
 10
388.6874901809279
 20
409.4110896574057
 10
388.7870901784117
 20
409.7265896494355
 10
388.9706901737736
 20
409.9970896426021
 10
389.2187901675061
 20
410.1923896376684
 10
389.4003901629185
 20
410.3340000000007
 10
389.6171901574417
 20
410.4354896315272
 10
389.8612901512752
 20
410.4853896302666
 10
389.8612901512752
 20
410.4853896302666
 10
389.8964901503859
 20
410.4921896300948
 10
389.8964901503859
 20
410.4921896300948
 10
389.8964901503859
 20
410.4921896300948
 10
389.9198901497948
 20
410.4921896300948
 10
389.9198901497948
 20
410.4921896300948
 10
389.9198901497948
 20
410.4921896300948
 10
389.9198901497948
 20
410.4921896300948
 10
389.9198901497948
 20
410.4921896300948
 97
        0
 92
        1
 93
        1
 72
     4
 94
        3
 73
     0
 74
     1
 95
       23
 96
       19
 40
0.0
 40
0.0
 40
0.0
 40
0.0
 40
1.0
 40
1.0
 40
1.0
 40
2.0
 40
2.0
 40
2.0
 40
3.0
 40
3.0
 40
3.0
 40
4.0
 40
4.0
 40
4.0
 40
5.0
 40
5.0
 40
5.0
 40
6.0
 40
6.0
 40
6.0
 40
6.0
 10
407.1952897133815
 20
406.995089718439
 10
407.1952897133815
 20
406.995089718439
 10
406.331089735213
 20
406.134789740172
 10
406.331089735213
 20
406.134789740172
 10
406.3710897342025
 20
406.2538897371633
 10
406.3925897336594
 20
406.3817897339322
 10
406.3925897336594
 20
406.5155897305522
 10
406.3925897336594
 20
406.8241897227563
 10
406.2772897365721
 20
407.10548971565
 10
406.0878897413568
 20
407.3202897102237
 10
406.3671897343011
 20
407.113289715453
 10
406.7128897255679
 20
406.9911897185375
 10
407.0849999999991
 20
406.9911897185375
 10
407.1220897152307
 20
406.9911897185375
 10
407.1591897142935
 20
406.9921897185122
 10
407.1952897133815
 20
406.995089718439
 10
407.1952897133815
 20
406.995089718439
 10
407.1952897133815
 20
406.995089718439
 10
407.1952897133815
 20
406.995089718439
 97
        0
 92
        1
 93
        1
 72
     4
 94
        3
 73
     0
 74
     1
 95
      251
 96
      247
 40
0.0
 40
0.0
 40
0.0
 40
0.0
 40
1.0
 40
1.0
 40
1.0
 40
2.0
 40
2.0
 40
2.0
 40
3.0
 40
3.0
 40
3.0
 40
4.0
 40
4.0
 40
4.0
 40
5.0
 40
5.0
 40
5.0
 40
6.0
 40
6.0
 40
6.0
 40
7.0
 40
7.0
 40
7.0
 40
8.0
 40
8.0
 40
8.0
 40
9.0
 40
9.0
 40
9.0
 40
10.0
 40
10.0
 40
10.0
 40
11.0
 40
11.0
 40
11.0
 40
12.0
 40
12.0
 40
12.0
 40
13.0
 40
13.0
 40
13.0
 40
14.0
 40
14.0
 40
14.0
 40
15.0
 40
15.0
 40
15.0
 40
16.0
 40
16.0
 40
16.0
 40
17.0
 40
17.0
 40
17.0
 40
18.0
 40
18.0
 40
18.0
 40
19.0
 40
19.0
 40
19.0
 40
20.0
 40
20.0
 40
20.0
 40
21.0
 40
21.0
 40
21.0
 40
22.0
 40
22.0
 40
22.0
 40
23.0
 40
23.0
 40
23.0
 40
24.0
 40
24.0
 40
24.0
 40
25.0
 40
25.0
 40
25.0
 40
26.0
 40
26.0
 40
26.0
 40
27.0
 40
27.0
 40
27.0
 40
28.0
 40
28.0
 40
28.0
 40
29.0
 40
29.0
 40
29.0
 40
30.0
 40
30.0
 40
30.0
 40
31.0
 40
31.0
 40
31.0
 40
32.0
 40
32.0
 40
32.0
 40
33.0
 40
33.0
 40
33.0
 40
34.0
 40
34.0
 40
34.0
 40
35.0
 40
35.0
 40
35.0
 40
36.0
 40
36.0
 40
36.0
 40
37.0
 40
37.0
 40
37.0
 40
38.0
 40
38.0
 40
38.0
 40
39.0
 40
39.0
 40
39.0
 40
40.0
 40
40.0
 40
40.0
 40
41.0
 40
41.0
 40
41.0
 40
42.0
 40
42.0
 40
42.0
 40
43.0
 40
43.0
 40
43.0
 40
44.0
 40
44.0
 40
44.0
 40
45.0
 40
45.0
 40
45.0
 40
46.0
 40
46.0
 40
46.0
 40
47.0
 40
47.0
 40
47.0
 40
48.0
 40
48.0
 40
48.0
 40
49.0
 40
49.0
 40
49.0
 40
50.0
 40
50.0
 40
50.0
 40
51.0
 40
51.0
 40
51.0
 40
52.0
 40
52.0
 40
52.0
 40
53.0
 40
53.0
 40
53.0
 40
54.0
 40
54.0
 40
54.0
 40
55.0
 40
55.0
 40
55.0
 40
56.0
 40
56.0
 40
56.0
 40
57.0
 40
57.0
 40
57.0
 40
58.0
 40
58.0
 40
58.0
 40
59.0
 40
59.0
 40
59.0
 40
60.0
 40
60.0
 40
60.0
 40
61.0
 40
61.0
 40
61.0
 40
62.0
 40
62.0
 40
62.0
 40
63.0
 40
63.0
 40
63.0
 40
64.0
 40
64.0
 40
64.0
 40
65.0
 40
65.0
 40
65.0
 40
66.0
 40
66.0
 40
66.0
 40
67.0
 40
67.0
 40
67.0
 40
68.0
 40
68.0
 40
68.0
 40
69.0
 40
69.0
 40
69.0
 40
70.0
 40
70.0
 40
70.0
 40
71.0
 40
71.0
 40
71.0
 40
72.0
 40
72.0
 40
72.0
 40
73.0
 40
73.0
 40
73.0
 40
74.0
 40
74.0
 40
74.0
 40
75.0
 40
75.0
 40
75.0
 40
76.0
 40
76.0
 40
76.0
 40
77.0
 40
77.0
 40
77.0
 40
78.0
 40
78.0
 40
78.0
 40
79.0
 40
79.0
 40
79.0
 40
80.0
 40
80.0
 40
80.0
 40
81.0
 40
81.0
 40
81.0
 40
82.0
 40
82.0
 40
82.0
 40
82.0
 10
405.8612897470812
 20
407.5194897051915
 10
405.6659999999993
 20
407.6522897018367
 10
405.4296897579843
 20
407.7313896998385
 10
405.1757897643984
 20
407.7313896998385
 10
404.8388897729092
 20
407.7313896998385
 10
404.5351897805813
 20
407.5956897032665
 10
404.3144897861566
 20
407.3760000000002
 10
404.095689791684
 20
407.155289714392
 10
403.9590000000007
 20
406.8515897220641
 10
403.9590000000007
 20
406.5155897305522
 10
403.9590000000007
 20
406.1796897390377
 10
404.095689791684
 20
405.875
 10
404.3144897861566
 20
405.6552897522852
 10
404.3320000000003
 20
405.6386897527045
 10
404.3476897853179
 20
405.6229999999996
 10
404.3651897848758
 20
405.6073897534952
 10
404.3651897848758
 20
405.6073897534952
 10
403.5429999999997
 20
405.6073897534952
 10
403.5429999999997
 20
405.6073897534952
 10
403.559589805227
 20
405.6229999999996
 10
403.5761898048077
 20
405.6386897527045
 10
403.5927898043883
 20
405.6552897522852
 10
403.813489798813
 20
405.875
 10
403.9491897953849
 20
406.1796897390377
 10
403.9491897953849
 20
406.5155897305522
 10
403.9491897953849
 20
406.8515897220641
 10
403.813489798813
 20
407.155289714392
 10
403.5927898043883
 20
407.3760000000002
 10
403.3729999999996
 20
407.5956897032665
 10
403.0683898176358
 20
407.7313896998385
 10
402.7333898260986
 20
407.7313896998385
 10
402.3964898346094
 20
407.7313896998385
 10
402.0937898422562
 20
407.5956897032665
 10
401.8729999999996
 20
407.3760000000002
 10
401.6522898534095
 20
407.155289714392
 10
401.5175898568123
 20
406.8515897220641
 10
401.5175898568123
 20
406.5155897305522
 10
401.5175898568123
 20
406.1796897390377
 10
401.6522898534095
 20
405.875
 10
401.8729999999996
 20
405.6552897522852
 10
401.8886898474375
 20
405.6386897527045
 10
401.9062898469929
 20
405.6229999999996
 10
401.9237898465508
 20
405.6073897534952
 10
401.9237898465508
 20
405.6073897534952
 10
401.0331898690492
 20
405.6073897534952
 10
401.0331898690492
 20
405.6073897534952
 10
401.0497898686299
 20
405.6229999999996
 10
401.0673898681853
 20
405.6386897527045
 10
401.0830000000005
 20
405.6552897522852
 10
401.3036898622158
 20
405.875
 10
401.4394898587852
 20
406.1796897390377
 10
401.4394898587852
 20
406.5155897305522
 10
401.4394898587852
 20
406.8515897220641
 10
401.3036898622158
 20
407.155289714392
 10
401.0830000000005
 20
407.3760000000002
 10
400.8632898733413
 20
407.5956897032665
 10
400.5585898810386
 20
407.7313896998385
 10
400.2226898895242
 20
407.7313896998385
 10
399.8866898980123
 20
407.7313896998385
 10
399.5830000000005
 20
407.5956897032665
 10
399.3632899112345
 20
407.3760000000002
 10
399.1425899168098
 20
407.155289714392
 10
399.0067899202404
 20
406.8515897220641
 10
399.0067899202404
 20
406.5155897305522
 10
399.0067899202404
 20
406.1796897390377
 10
399.1425899168098
 20
405.875
 10
399.3632899112345
 20
405.6552897522852
 10
399.3788899108404
 20
405.6386897527045
 10
399.3964899103958
 20
405.6229999999996
 10
399.4140899099511
 20
405.6073897534952
 10
399.4140899099511
 20
405.6073897534952
 10
398.4726899337329
 20
405.6073897534952
 10
398.4726899337329
 20
405.6073897534952
 10
398.4901899332908
 20
405.6229999999996
 10
398.5077899328462
 20
405.6386897527045
 10
398.5233899324521
 20
405.6552897522852
 10
398.7440899268768
 20
405.875
 10
398.8798899234462
 20
406.1796897390377
 10
398.8798899234462
 20
406.5155897305522
 10
398.8798899234462
 20
406.8515897220641
 10
398.7440899268768
 20
407.155289714392
 10
398.5233899324521
 20
407.3760000000002
 10
398.3026899380275
 20
407.5956897032665
 10
398.0
 20
407.7313896998385
 10
397.6640899541599
 20
407.7313896998385
 10
397.3270899626732
 20
407.7313896998385
 10
397.0233899703453
 20
407.5956897032665
 10
396.8036899758954
 20
407.3760000000002
 10
396.5830000000005
 20
407.155289714392
 10
396.4472899848988
 20
406.8515897220641
 10
396.4472899848988
 20
406.5155897305522
 10
396.4472899848988
 20
406.1796897390377
 10
396.5830000000005
 20
405.875
 10
396.8036899758954
 20
405.6552897522852
 10
396.8192899755013
 20
405.6386897527045
 10
396.835889975082
 20
405.6229999999996
 10
396.8534899746373
 20
405.6073897534952
 10
396.8534899746373
 20
405.6073897534952
 10
395.9218899981715
 20
405.6073897534952
 10
395.9218899981715
 20
405.6073897534952
 10
395.9394899977269
 20
405.6229999999996
 10
395.9560899973076
 20
405.6386897527045
 10
395.9726899968882
 20
405.6552897522852
 10
396.1913899913634
 20
405.875
 10
396.3280899879101
 20
406.1796897390377
 10
396.3280899879101
 20
406.5155897305522
 10
396.3280899879101
 20
406.8515897220641
 10
396.1913899913634
 20
407.155289714392
 10
395.9726899968882
 20
407.3760000000002
 10
395.7520000000004
 20
407.5956897032665
 10
395.4472900101609
 20
407.7313896998385
 10
395.111290018649
 20
407.7313896998385
 10
394.7763900271093
 20
407.7313896998385
 10
394.4706900348319
 20
407.5956897032665
 10
394.2520000000004
 20
407.3760000000002
 10
394.0312900459321
 20
407.155289714392
 10
393.894490049388
 20
406.8515897220641
 10
393.894490049388
 20
406.5155897305522
 10
393.894490049388
 20
406.1796897390377
 10
394.0312900459321
 20
405.875
 10
394.2520000000004
 20
405.6552897522852
 10
394.2675900399627
 20
405.6386897527045
 10
394.2851900395181
 20
405.6229999999996
 10
394.3017900390987
 20
405.6073897534952
 10
394.3017900390987
 20
405.6073897534952
 10
393.3330000000005
 20
405.6073897534952
 10
393.3330000000005
 20
405.6073897534952
 10
393.350590063128
 20
405.6229999999996
 10
393.3671900627087
 20
405.6386897527045
 10
393.3827900623146
 20
405.6552897522852
 10
393.6034900567392
 20
405.875
 10
393.7401900532859
 20
406.1796897390377
 10
393.7401900532859
 20
406.5155897305522
 10
393.7401900532859
 20
406.8515897220641
 10
393.6034900567392
 20
407.155289714392
 10
393.3827900623146
 20
407.3760000000002
 10
393.1630900678647
 20
407.5956897032665
 10
392.8593900755368
 20
407.7313896998385
 10
392.5233900840249
 20
407.7313896998385
 10
392.1874900925104
 20
407.7313896998385
 10
391.8827901002078
 20
407.5956897032665
 10
391.6640901057326
 20
407.3760000000002
 10
391.443390111308
 20
407.155289714392
 10
391.3065901147638
 20
406.8515897220641
 10
391.3065901147638
 20
406.5155897305522
 10
391.3065901147638
 20
406.1796897390377
 10
391.443390111308
 20
405.875
 10
391.6640901057326
 20
405.6552897522852
 10
391.6640901057326
 20
405.6552897522852
 10
391.6679999999997
 20
405.6513897523837
 10
391.6679999999997
 20
405.6513897523837
 10
391.4315901116061
 20
405.7030897510776
 10
391.2733901156025
 20
405.8144897482634
 10
391.0663901208318
 20
406.0487897423445
 10
391.0663901208318
 20
406.0487897423445
 10
390.2274901420242
 20
407.0058897181661
 10
390.2274901420242
 20
407.0058897181661
 10
390.298790140223
 20
406.9960897184137
 10
390.3710901383965
 20
406.9911897185375
 10
390.4433901365701
 20
406.9911897185375
 10
390.9062901248763
 20
406.9911897185375
 10
391.3261901142687
 20
407.1796897137756
 10
391.6327901065233
 20
407.4843897060782
 10
391.6327901065233
 20
407.4843897060782
 10
391.6337901064981
 20
407.485389706053
 10
391.6337901064981
 20
407.485389706053
 10
391.6337901064981
 20
407.485389706053
 10
391.6347901064728
 20
407.4862897060302
 10
391.6347901064728
 20
407.4862897060302
 10
391.9394900987754
 20
407.7919999999995
 10
392.1288900939908
 20
408.2128896876748
 10
392.1288900939908
 20
408.6757896759809
 10
392.1288900939908
 20
409.1386896642871
 10
391.9394900987754
 20
409.5585896536795
 10
391.6347901064728
 20
409.8642896459569
 10
391.6347901064728
 20
409.8642896459569
 10
391.6337901064981
 20
409.8651896459342
 10
391.6337901064981
 20
409.8651896459342
 10
391.6337901064981
 20
409.8651896459342
 10
391.6327901065233
 20
409.8661896459089
 10
391.6327901065233
 20
409.8661896459089
 10
391.6327901065233
 20
409.8661896459089
 10
391.6161901069427
 20
409.8827896454895
 10
391.6161901069427
 20
409.8827896454895
 10
391.6161901069427
 20
409.8827896454895
 10
393.7948900519041
 20
409.8827896454895
 10
393.7948900519041
 20
409.8827896454895
 10
393.6972900543697
 20
409.7401896490919
 10
393.640590055802
 20
409.568389653432
 10
393.640590055802
 20
409.3837896580953
 10
393.640590055802
 20
409.1347896643856
 10
393.7421900532354
 20
408.9101896700595
 10
393.9042900491404
 20
408.7479999999996
 10
394.0683900449949
 20
408.585889678252
 10
394.2919999999995
 20
408.4843896808161
 10
394.5400000000009
 20
408.4843896808161
 10
394.7880900268137
 20
408.4843896808161
 10
395.0126900211399
 20
408.585889678252
 10
395.1757900170196
 20
408.7479999999996
 10
395.3378900129246
 20
408.9101896700595
 10
395.4374900104085
 20
409.1347896643856
 10
395.4374900104085
 20
409.3837896580953
 10
395.4374900104085
 20
409.568389653432
 10
395.3827900117903
 20
409.7401896490919
 10
395.2860900142332
 20
409.8827896454895
 10
395.2860900142332
 20
409.8827896454895
 10
401.8993898471672
 20
409.8827896454895
 10
401.8993898471672
 20
409.8827896454895
 10
401.8046898495595
 20
409.7401896490919
 10
401.7479999999996
 20
409.568389653432
 10
401.7479999999996
 20
409.3837896580953
 10
401.7479999999996
 20
409.1347896643856
 10
401.8476898484732
 20
408.9101896700595
 10
402.0106898443555
 20
408.7479999999996
 10
402.1737898402353
 20
408.585889678252
 10
402.3983898345614
 20
408.4843896808161
 10
402.6464898282939
 20
408.4843896808161
 10
402.8944898220288
 20
408.4843896808161
 10
403.119089816355
 20
408.585889678252
 10
403.2812898122575
 20
408.7479999999996
 10
403.4433898081625
 20
408.9101896700595
 10
403.5438898056236
 20
409.1347896643856
 10
403.5438898056236
 20
409.3837896580953
 10
403.5438898056236
 20
409.568389653432
 10
403.4882898070282
 20
409.7401896490919
 10
403.3925898094458
 20
409.8827896454895
 10
403.3925898094458
 20
409.8827896454895
 10
405.9130897457726
 20
409.8827896454895
 10
405.9130897457726
 20
409.8827896454895
 10
405.9130897457726
 20
409.8827896454895
 10
405.8964897461919
 20
409.8661896459089
 10
405.8964897461919
 20
409.8661896459089
 10
405.8964897461919
 20
409.8661896459089
 10
405.8944897462425
 20
409.8651896459342
 10
405.8944897462425
 20
409.8651896459342
 10
405.8944897462425
 20
409.8651896459342
 10
405.8944897462425
 20
409.8642896459569
 10
405.8944897462425
 20
409.8642896459569
 10
405.5897897539398
 20
409.5585896536795
 10
405.4003897587245
 20
409.1386896642871
 10
405.4003897587245
 20
408.6757896759809
 10
405.4003897587245
 20
408.2284896872807
 10
405.5761897542834
 20
407.8222896975421
 10
405.8612897470812
 20
407.5194897051915
 10
405.8612897470812
 20
407.5194897051915
 10
405.8612897470812
 20
407.5194897051915
 10
405.8612897470812
 20
407.5194897051915
 97
        0
 92
        1
 93
        1
 72
     4
 94
        3
 73
     0
 74
     1
 95
       44
 96
       40
 40
0.0
 40
0.0
 40
0.0
 40
0.0
 40
1.0
 40
1.0
 40
1.0
 40
2.0
 40
2.0
 40
2.0
 40
3.0
 40
3.0
 40
3.0
 40
4.0
 40
4.0
 40
4.0
 40
5.0
 40
5.0
 40
5.0
 40
6.0
 40
6.0
 40
6.0
 40
7.0
 40
7.0
 40
7.0
 40
8.0
 40
8.0
 40
8.0
 40
9.0
 40
9.0
 40
9.0
 40
10.0
 40
10.0
 40
10.0
 40
11.0
 40
11.0
 40
11.0
 40
12.0
 40
12.0
 40
12.0
 40
13.0
 40
13.0
 40
13.0
 40
13.0
 10
407.6308897023773
 20
409.2226896621651
 10
407.6308897023773
 20
409.2226896621651
 10
407.6327897023293
 20
409.2216896621903
 10
407.6327897023293
 20
409.2216896621903
 10
407.7704896988507
 20
409.0820000000003
 10
407.8573896966554
 20
408.8895896705799
 10
407.8573896966554
 20
408.6757896759809
 10
407.8573896966554
 20
408.4618896813845
 10
407.7704896988507
 20
408.2675896862929
 10
407.6327897023293
 20
408.1298896897715
 10
407.6327897023293
 20
408.1298896897715
 10
407.6308897023773
 20
408.1288896897968
 10
407.6308897023773
 20
408.1288896897968
 10
407.4921897058812
 20
407.9901896933006
 10
407.2987897107669
 20
407.9042896954707
 10
407.0849999999991
 20
407.9042896954707
 10
406.8710897215715
 20
407.9042896954707
 10
406.6776897264572
 20
407.9901896933006
 10
406.5390897299585
 20
408.1288896897968
 10
406.5390897299585
 20
408.1288896897968
 10
406.537089730009
 20
408.1298896897715
 10
406.537089730009
 20
408.1298896897715
 10
406.3993897334876
 20
408.2675896862929
 10
406.3144897356324
 20
408.4618896813845
 10
406.3144897356324
 20
408.6757896759809
 10
406.3144897356324
 20
408.8895896705799
 10
406.3993897334876
 20
409.0820000000003
 10
406.537089730009
 20
409.2216896621903
 10
406.537089730009
 20
409.2216896621903
 10
406.5390897299585
 20
409.2226896621651
 10
406.5390897299585
 20
409.2226896621651
 10
406.6776897264572
 20
409.3612896586637
 10
406.8710897215715
 20
409.4472896564912
 10
407.0849999999991
 20
409.4472896564912
 10
407.2987897107669
 20
409.4472896564912
 10
407.4921897058812
 20
409.3612896586637
 10
407.6308897023773
 20
409.2226896621651
 10
407.6308897023773
 20
409.2226896621651
 10
407.6308897023773
 20
409.2226896621651
 10
407.6308897023773
 20
409.2226896621651
 97
        0
 92
        1
 93
        1
 72
     4
 94
        3
 73
     0
 74
     1
 95
       32
 96
       28
 40
0.0
 40
0.0
 40
0.0
 40
0.0
 40
1.0
 40
1.0
 40
1.0
 40
2.0
 40
2.0
 40
2.0
 40
3.0
 40
3.0
 40
3.0
 40
4.0
 40
4.0
 40
4.0
 40
5.0
 40
5.0
 40
5.0
 40
6.0
 40
6.0
 40
6.0
 40
7.0
 40
7.0
 40
7.0
 40
8.0
 40
8.0
 40
8.0
 40
9.0
 40
9.0
 40
9.0
 40
9.0
 10
402.8515898231126
 20
409.5878896529393
 10
402.9022898218318
 20
409.5351896542707
 10
402.9354898209931
 20
409.4628896560971
 10
402.9354898209931
 20
409.3837896580953
 10
402.9354898209931
 20
409.3026896601441
 10
402.9022898218318
 20
409.230489661968
 10
402.8515898231126
 20
409.1786896632766
 10
402.7987898244464
 20
409.1260000000002
 10
402.7255898262956
 20
409.0937896654214
 10
402.6464898282939
 20
409.0937896654214
 10
402.5663898303173
 20
409.0937896654214
 10
402.4931898321665
 20
409.1260000000002
 10
402.4413898334751
 20
409.1786896632766
 10
402.3886898348064
 20
409.230489661968
 10
402.3554898356451
 20
409.3026896601441
 10
402.3554898356451
 20
409.3837896580953
 10
402.3554898356451
 20
409.4628896560971
 10
402.3886898348064
 20
409.5351896542707
 10
402.4413898334751
 20
409.5878896529393
 10
402.4931898321665
 20
409.640589651608
 10
402.5663898303173
 20
409.6718896508173
 10
402.6464898282939
 20
409.6718896508173
 10
402.7255898262956
 20
409.6718896508173
 10
402.7987898244464
 20
409.640589651608
 10
402.8515898231126
 20
409.5878896529393
 10
402.8515898231126
 20
409.5878896529393
 10
402.8515898231126
 20
409.5878896529393
 10
402.8515898231126
 20
409.5878896529393
 97
        0
 92
        1
 93
        1
 72
     4
 94
        3
 73
     0
 74
     1
 95
       32
 96
       28
 40
0.0
 40
0.0
 40
0.0
 40
0.0
 40
1.0
 40
1.0
 40
1.0
 40
2.0
 40
2.0
 40
2.0
 40
3.0
 40
3.0
 40
3.0
 40
4.0
 40
4.0
 40
4.0
 40
5.0
 40
5.0
 40
5.0
 40
6.0
 40
6.0
 40
6.0
 40
7.0
 40
7.0
 40
7.0
 40
8.0
 40
8.0
 40
8.0
 40
9.0
 40
9.0
 40
9.0
 40
9.0
 10
394.7440900279253
 20
409.5878896529393
 10
394.7978900265662
 20
409.5351896542707
 10
394.8300900257527
 20
409.4628896560971
 10
394.8300900257527
 20
409.3837896580953
 10
394.8300900257527
 20
409.3026896601441
 10
394.7978900265662
 20
409.230489661968
 10
394.7440900279253
 20
409.1786896632766
 10
394.6933900292061
 20
409.1260000000002
 10
394.619090031083
 20
409.0937896654214
 10
394.5400000000009
 20
409.0937896654214
 10
394.4608900350795
 20
409.0937896654214
 10
394.3876900369287
 20
409.1260000000002
 10
394.3358900382373
 20
409.1786896632766
 10
394.2821900395938
 20
409.230489661968
 10
394.25
 20
409.3026896601441
 10
394.25
 20
409.3837896580953
 10
394.25
 20
409.4628896560971
 10
394.2821900395938
 20
409.5351896542707
 10
394.3358900382373
 20
409.5878896529393
 10
394.3876900369287
 20
409.640589651608
 10
394.4608900350795
 20
409.6718896508173
 10
394.5400000000009
 20
409.6718896508173
 10
394.619090031083
 20
409.6718896508173
 10
394.6933900292061
 20
409.640589651608
 10
394.7440900279253
 20
409.5878896529393
 10
394.7440900279253
 20
409.5878896529393
 10
394.7440900279253
 20
409.5878896529393
 10
394.7440900279253
 20
409.5878896529393
 97
        0
 92
        1
 93
        1
 72
     4
 94
        3
 73
     0
 74
     1
 95
       32
 96
       28
 40
0.0
 40
0.0
 40
0.0
 40
0.0
 40
1.0
 40
1.0
 40
1.0
 40
2.0
 40
2.0
 40
2.0
 40
3.0
 40
3.0
 40
3.0
 40
4.0
 40
4.0
 40
4.0
 40
5.0
 40
5.0
 40
5.0
 40
6.0
 40
6.0
 40
6.0
 40
7.0
 40
7.0
 40
7.0
 40
8.0
 40
8.0
 40
8.0
 40
9.0
 40
9.0
 40
9.0
 40
9.0
 10
392.9530900731697
 20
406.945289719697
 10
393.0634900703808
 20
406.8349999999991
 10
393.1308900686781
 20
406.6825897263334
 10
393.1308900686781
 20
406.5155897305522
 10
393.1308900686781
 20
406.3476897347937
 10
393.0634900703808
 20
406.1952897386436
 10
392.9530900731697
 20
406.0858897414073
 10
392.8427900759561
 20
405.974589744219
 10
392.6913900797808
 20
405.9071897459216
 10
392.5233900840249
 20
405.9071897459216
 10
392.3554900882664
 20
405.9071897459216
 10
392.2030900921163
 20
405.974589744219
 10
392.0937900948775
 20
406.0858897414073
 10
391.9823900976917
 20
406.1952897386436
 10
391.9159999999993
 20
406.3476897347937
 10
391.9159999999993
 20
406.5155897305522
 10
391.9159999999993
 20
406.6825897263334
 10
391.9823900976917
 20
406.8349999999991
 10
392.0937900948775
 20
406.945289719697
 10
392.2030900921163
 20
407.0546897169334
 10
392.3554900882664
 20
407.1229999999996
 10
392.5233900840249
 20
407.1229999999996
 10
392.6913900797808
 20
407.1229999999996
 10
392.8427900759561
 20
407.0546897169334
 10
392.9530900731697
 20
406.945289719697
 10
392.9530900731697
 20
406.945289719697
 10
392.9530900731697
 20
406.945289719697
 10
392.9530900731697
 20
406.945289719697
 97
        0
 92
        1
 93
        1
 72
     4
 94
        3
 73
     0
 74
     1
 95
       32
 96
       28
 40
0.0
 40
0.0
 40
0.0
 40
0.0
 40
1.0
 40
1.0
 40
1.0
 40
2.0
 40
2.0
 40
2.0
 40
3.0
 40
3.0
 40
3.0
 40
4.0
 40
4.0
 40
4.0
 40
5.0
 40
5.0
 40
5.0
 40
6.0
 40
6.0
 40
6.0
 40
7.0
 40
7.0
 40
7.0
 40
8.0
 40
8.0
 40
8.0
 40
9.0
 40
9.0
 40
9.0
 40
9.0
 10
405.6054897535432
 20
406.945289719697
 10
405.7147897507821
 20
406.8349999999991
 10
405.7831897490541
 20
406.6825897263334
 10
405.7831897490541
 20
406.5155897305522
 10
405.7831897490541
 20
406.3476897347937
 10
405.7147897507821
 20
406.1952897386436
 10
405.6054897535432
 20
406.0858897414073
 10
405.4950897563322
 20
405.974589744219
 10
405.3437897601543
 20
405.9071897459216
 10
405.1757897643984
 20
405.9071897459216
 10
405.0077897686424
 20
405.9071897459216
 10
404.8554897724898
 20
405.974589744219
 10
404.7460897752535
 20
406.0858897414073
 10
404.6356897780424
 20
406.1952897386436
 10
404.5683897797426
 20
406.3476897347937
 10
404.5683897797426
 20
406.5155897305522
 10
404.5683897797426
 20
406.6825897263334
 10
404.6356897780424
 20
406.8349999999991
 10
404.7460897752535
 20
406.945289719697
 10
404.8554897724898
 20
407.0546897169334
 10
405.0077897686424
 20
407.1229999999996
 10
405.1757897643984
 20
407.1229999999996
 10
405.3437897601543
 20
407.1229999999996
 10
405.4950897563322
 20
407.0546897169334
 10
405.6054897535432
 20
406.945289719697
 10
405.6054897535432
 20
406.945289719697
 10
405.6054897535432
 20
406.945289719697
 10
405.6054897535432
 20
406.945289719697
 97
        0
 92
        1
 93
        1
 72
     4
 94
        3
 73
     0
 74
     1
 95
       32
 96
       28
 40
0.0
 40
0.0
 40
0.0
 40
0.0
 40
1.0
 40
1.0
 40
1.0
 40
2.0
 40
2.0
 40
2.0
 40
3.0
 40
3.0
 40
3.0
 40
4.0
 40
4.0
 40
4.0
 40
5.0
 40
5.0
 40
5.0
 40
6.0
 40
6.0
 40
6.0
 40
7.0
 40
7.0
 40
7.0
 40
8.0
 40
8.0
 40
8.0
 40
9.0
 40
9.0
 40
9.0
 40
9.0
 10
403.1630898152434
 20
406.945289719697
 10
403.2724898124798
 20
406.8349999999991
 10
403.3407898107544
 20
406.6825897263334
 10
403.3407898107544
 20
406.5155897305522
 10
403.3407898107544
 20
406.3476897347937
 10
403.2724898124798
 20
406.1952897386436
 10
403.1630898152434
 20
406.0858897414073
 10
403.0526898180324
 20
405.974589744219
 10
402.9003898218798
 20
405.9071897459216
 10
402.7333898260986
 20
405.9071897459216
 10
402.5644898303653
 20
405.9071897459216
 10
402.4120898342153
 20
405.974589744219
 10
402.302689836979
 20
406.0858897414073
 10
402.1933898397401
 20
406.1952897386436
 10
402.125
 20
406.3476897347937
 10
402.125
 20
406.5155897305522
 10
402.125
 20
406.6825897263334
 10
402.1933898397401
 20
406.8349999999991
 10
402.302689836979
 20
406.945289719697
 10
402.4120898342153
 20
407.0546897169334
 10
402.5644898303653
 20
407.1229999999996
 10
402.7333898260986
 20
407.1229999999996
 10
402.9003898218798
 20
407.1229999999996
 10
403.0526898180324
 20
407.0546897169334
 10
403.1630898152434
 20
406.945289719697
 10
403.1630898152434
 20
406.945289719697
 10
403.1630898152434
 20
406.945289719697
 10
403.1630898152434
 20
406.945289719697
 97
        0
 92
        1
 93
        1
 72
     4
 94
        3
 73
     0
 74
     1
 95
       32
 96
       28
 40
0.0
 40
0.0
 40
0.0
 40
0.0
 40
1.0
 40
1.0
 40
1.0
 40
2.0
 40
2.0
 40
2.0
 40
3.0
 40
3.0
 40
3.0
 40
4.0
 40
4.0
 40
4.0
 40
5.0
 40
5.0
 40
5.0
 40
6.0
 40
6.0
 40
6.0
 40
7.0
 40
7.0
 40
7.0
 40
8.0
 40
8.0
 40
8.0
 40
9.0
 40
9.0
 40
9.0
 40
9.0
 10
400.6532898786463
 20
406.945289719697
 10
400.7636898758574
 20
406.8349999999991
 10
400.8310898741547
 20
406.6825897263334
 10
400.8310898741547
 20
406.5155897305522
 10
400.8310898741547
 20
406.3476897347937
 10
400.7636898758574
 20
406.1952897386436
 10
400.6532898786463
 20
406.0858897414073
 10
400.5429999999997
 20
405.974589744219
 10
400.3905898852827
 20
405.9071897459216
 10
400.2226898895242
 20
405.9071897459216
 10
400.055689893743
 20
405.9071897459216
 10
399.9042898975677
 20
405.974589744219
 10
399.7929999999997
 20
406.0858897414073
 10
399.683589903143
 20
406.1952897386436
 10
399.6151899048709
 20
406.3476897347937
 10
399.6151899048709
 20
406.5155897305522
 10
399.6151899048709
 20
406.6825897263334
 10
399.683589903143
 20
406.8349999999991
 10
399.7929999999997
 20
406.945289719697
 10
399.9042898975677
 20
407.0546897169334
 10
400.055689893743
 20
407.1229999999996
 10
400.2226898895242
 20
407.1229999999996
 10
400.3905898852827
 20
407.1229999999996
 10
400.5429999999997
 20
407.0546897169334
 10
400.6532898786463
 20
406.945289719697
 10
400.6532898786463
 20
406.945289719697
 10
400.6532898786463
 20
406.945289719697
 10
400.6532898786463
 20
406.945289719697
 97
        0
 92
        1
 93
        1
 72
     4
 94
        3
 73
     0
 74
     1
 95
       32
 96
       28
 40
0.0
 40
0.0
 40
0.0
 40
0.0
 40
1.0
 40
1.0
 40
1.0
 40
2.0
 40
2.0
 40
2.0
 40
3.0
 40
3.0
 40
3.0
 40
4.0
 40
4.0
 40
4.0
 40
5.0
 40
5.0
 40
5.0
 40
6.0
 40
6.0
 40
6.0
 40
7.0
 40
7.0
 40
7.0
 40
8.0
 40
8.0
 40
8.0
 40
9.0
 40
9.0
 40
9.0
 40
9.0
 10
398.0937899433047
 20
406.945289719697
 10
398.2030899405436
 20
406.8349999999991
 10
398.2714899388156
 20
406.6825897263334
 10
398.2714899388156
 20
406.5155897305522
 10
398.2714899388156
 20
406.3476897347937
 10
398.2030899405436
 20
406.1952897386436
 10
398.0937899433047
 20
406.0858897414073
 10
397.9833899460937
 20
405.974589744219
 10
397.8310899499411
 20
405.9071897459216
 10
397.6640899541599
 20
405.9071897459216
 10
397.4960899584039
 20
405.9071897459216
 10
397.3437899622513
 20
405.974589744219
 10
397.2333899650403
 20
406.0858897414073
 10
397.1229999999996
 20
406.1952897386436
 10
397.0556899695293
 20
406.3476897347937
 10
397.0556899695293
 20
406.5155897305522
 10
397.0556899695293
 20
406.6825897263334
 10
397.1229999999996
 20
406.8349999999991
 10
397.2333899650403
 20
406.945289719697
 10
397.3437899622513
 20
407.0546897169334
 10
397.4960899584039
 20
407.1229999999996
 10
397.6640899541599
 20
407.1229999999996
 10
397.8310899499411
 20
407.1229999999996
 10
397.9833899460937
 20
407.0546897169334
 10
398.0937899433047
 20
406.945289719697
 10
398.0937899433047
 20
406.945289719697
 10
398.0937899433047
 20
406.945289719697
 10
398.0937899433047
 20
406.945289719697
 97
        0
 92
        1
 93
        1
 72
     4
 94
        3
 73
     0
 74
     1
 95
       32
 96
       28
 40
0.0
 40
0.0
 40
0.0
 40
0.0
 40
1.0
 40
1.0
 40
1.0
 40
2.0
 40
2.0
 40
2.0
 40
3.0
 40
3.0
 40
3.0
 40
4.0
 40
4.0
 40
4.0
 40
5.0
 40
5.0
 40
5.0
 40
6.0
 40
6.0
 40
6.0
 40
7.0
 40
7.0
 40
7.0
 40
8.0
 40
8.0
 40
8.0
 40
9.0
 40
9.0
 40
9.0
 40
9.0
 10
395.5409999999993
 20
406.945289719697
 10
395.6522900049822
 20
406.8349999999991
 10
395.7187900033023
 20
406.6825897263334
 10
395.7187900033023
 20
406.5155897305522
 10
395.7187900033023
 20
406.3476897347937
 10
395.6522900049822
 20
406.1952897386436
 10
395.5409999999993
 20
406.0858897414073
 10
395.4315900105576
 20
405.974589744219
 10
395.279290014405
 20
405.9071897459216
 10
395.111290018649
 20
405.9071897459216
 10
394.9433900228905
 20
405.9071897459216
 10
394.7929999999997
 20
405.974589744219
 10
394.6815900295042
 20
406.0858897414073
 10
394.5722900322653
 20
406.1952897386436
 10
394.5038900339932
 20
406.3476897347937
 10
394.5038900339932
 20
406.5155897305522
 10
394.5038900339932
 20
406.6825897263334
 10
394.5722900322653
 20
406.8349999999991
 10
394.6815900295042
 20
406.945289719697
 10
394.7929999999997
 20
407.0546897169334
 10
394.9433900228905
 20
407.1229999999996
 10
395.111290018649
 20
407.1229999999996
 10
395.279290014405
 20
407.1229999999996
 10
395.4315900105576
 20
407.0546897169334
 10
395.5409999999993
 20
406.945289719697
 10
395.5409999999993
 20
406.945289719697
 10
395.5409999999993
 20
406.945289719697
 10
395.5409999999993
 20
406.945289719697
 97
        0
 92
        1
 93
        1
 72
     4
 94
        3
 73
     0
 74
     1
 95
       44
 96
       40
 40
0.0
 40
0.0
 40
0.0
 40
0.0
 40
1.0
 40
1.0
 40
1.0
 40
2.0
 40
2.0
 40
2.0
 40
3.0
 40
3.0
 40
3.0
 40
4.0
 40
4.0
 40
4.0
 40
5.0
 40
5.0
 40
5.0
 40
6.0
 40
6.0
 40
6.0
 40
7.0
 40
7.0
 40
7.0
 40
8.0
 40
8.0
 40
8.0
 40
9.0
 40
9.0
 40
9.0
 40
10.0
 40
10.0
 40
10.0
 40
11.0
 40
11.0
 40
11.0
 40
12.0
 40
12.0
 40
12.0
 40
13.0
 40
13.0
 40
13.0
 40
13.0
 10
390.9901901227568
 20
409.2226896621651
 10
390.9901901227568
 20
409.2226896621651
 10
390.9921901227062
 20
409.2216896621903
 10
390.9921901227062
 20
409.2216896621903
 10
391.1288901192529
 20
409.0820000000003
 10
391.2147901170829
 20
408.8895896705799
 10
391.2147901170829
 20
408.6757896759809
 10
391.2147901170829
 20
408.4618896813845
 10
391.1288901192529
 20
408.2675896862929
 10
390.9921901227062
 20
408.1298896897715
 10
390.9921901227062
 20
408.1298896897715
 10
390.9901901227568
 20
408.1288896897968
 10
390.9901901227568
 20
408.1288896897968
 10
390.8505901262834
 20
407.9901896933006
 10
390.6581901311438
 20
407.9042896954707
 10
390.4433901365701
 20
407.9042896954707
 10
390.2304901419484
 20
407.9042896954707
 10
390.0370901468341
 20
407.9901896933006
 10
389.8983901503379
 20
408.1288896897968
 10
389.8983901503379
 20
408.1288896897968
 10
389.8964901503859
 20
408.1298896897715
 10
389.8964901503859
 20
408.1298896897715
 10
389.7577901538898
 20
408.2675896862929
 10
389.6718901560598
 20
408.4618896813845
 10
389.6718901560598
 20
408.6757896759809
 10
389.6718901560598
 20
408.8895896705799
 10
389.7577901538898
 20
409.0820000000003
 10
389.8964901503859
 20
409.2216896621903
 10
389.8964901503859
 20
409.2216896621903
 10
389.8983901503379
 20
409.2226896621651
 10
389.8983901503379
 20
409.2226896621651
 10
390.0370901468341
 20
409.3612896586637
 10
390.2304901419484
 20
409.4472896564912
 10
390.4433901365701
 20
409.4472896564912
 10
390.6581901311438
 20
409.4472896564912
 10
390.8505901262834
 20
409.3612896586637
 10
390.9901901227568
 20
409.2226896621651
 10
390.9901901227568
 20
409.2226896621651
 10
390.9901901227568
 20
409.2226896621651
 10
390.9901901227568
 20
409.2226896621651
 97
        0
 92
        1
 93
        4
 72
     1
 10
393.7470900531116
 20
417.2245894600201
 11
395.5185900083598
 21
417.2245894600201
 72
     1
 10
395.5185900083598
 20
417.2245894600201
 11
395.5185900083598
 21
416.9960894657925
 72
     1
 10
395.5185900083598
 20
416.9960894657925
 11
393.7470900531116
 21
416.9960894657925
 72
     1
 10
393.7470900531116
 20
416.9960894657925
 11
393.7470900531116
 21
417.2245894600201
 97
        0
 92
        1
 93
        4
 72
     1
 10
393.7470900531116
 20
415.4130895057824
 11
395.5185900083598
 21
415.4130895057824
 72
     1
 10
395.5185900083598
 20
415.4130895057824
 11
395.5185900083598
 21
415.1854895115321
 72
     1
 10
395.5185900083598
 20
415.1854895115321
 11
393.7470900531116
 21
415.1854895115321
 72
     1
 10
393.7470900531116
 20
415.1854895115321
 11
393.7470900531116
 21
415.4130895057824
 97
        0
 92
        1
 93
        4
 72
     1
 10
393.7470900531116
 20
415.8495894947555
 11
395.5185900083598
 21
415.8495894947555
 72
     1
 10
395.5185900083598
 20
415.8495894947555
 11
395.5185900083598
 21
415.6210895005279
 72
     1
 10
395.5185900083598
 20
415.6210895005279
 11
393.7470900531116
 21
415.6210895005279
 72
     1
 10
393.7470900531116
 20
415.6210895005279
 11
393.7470900531116
 21
415.8495894947555
 97
        0
 92
        1
 93
        4
 72
     1
 10
393.7470900531116
 20
416.3056894832334
 11
395.5185900083598
 21
416.3056894832334
 72
     1
 10
395.5185900083598
 20
416.3056894832334
 11
395.5185900083598
 21
416.0780894889831
 72
     1
 10
395.5185900083598
 20
416.0780894889831
 11
393.7470900531116
 21
416.0780894889831
 72
     1
 10
393.7470900531116
 20
416.0780894889831
 11
393.7470900531116
 21
416.3056894832334
 97
        0
 92
        1
 93
        4
 72
     1
 10
393.7470900531116
 20
416.7685894715396
 11
395.5185900083598
 21
416.7685894715396
 72
     1
 10
395.5185900083598
 20
416.7685894715396
 11
395.5185900083598
 21
416.5409999999993
 72
     1
 10
395.5185900083598
 20
416.5409999999993
 11
393.7470900531116
 21
416.5409999999993
 72
     1
 10
393.7470900531116
 20
416.5409999999993
 11
393.7470900531116
 21
416.7685894715396
 97
        0
 92
        1
 93
        4
 72
     1
 10
401.2558898634234
 20
417.5312894522722
 11
401.2558898634234
 21
422.6483893230034
 72
     1
 10
401.2558898634234
 20
422.6483893230034
 11
405.6679999999997
 21
422.6483893230034
 72
     1
 10
405.6679999999997
 20
422.6483893230034
 11
405.6679999999997
 21
417.5312894522722
 72
     1
 10
405.6679999999997
 20
417.5312894522722
 11
401.2558898634234
 21
417.5312894522722
 97
        0
 92
        1
 93
        4
 72
     1
 10
400.2362898891806
 20
422.6483893230034
 11
400.2362898891806
 21
417.6200894500289
 72
     1
 10
400.2362898891806
 20
417.6200894500289
 11
398.4599999999991
 21
417.6200894500289
 72
     1
 10
398.4599999999991
 20
417.6200894500289
 11
398.0038899455758
 21
422.6483893230034
 72
     1
 10
398.0038899455758
 20
422.6483893230034
 11
400.2362898891806
 21
422.6483893230034
 97
        0
 92
        1
 93
        4
 72
     1
 10
397.4188899603541
 20
414.9901895164658
 11
397.4188899603541
 21
413.7020895490059
 72
     1
 10
397.4188899603541
 20
413.7020895490059
 11
389.5272901597127
 21
413.7020895490059
 72
     1
 10
389.5272901597127
 20
413.7020895490059
 11
389.5272901597127
 21
414.9901895164658
 72
     1
 10
389.5272901597127
 20
414.9901895164658
 11
397.4188899603541
 21
414.9901895164658
 97
        0
 75
     0
 76
     1
 98
        0
  0
POLYLINE
  5
91
330
14
100
AcDbEntity
  8
Layer 1
370
     0
100
AcDb2dPolyline
 66
     1
 10
0.0
 20
0.0
 30
0.0
  0
VERTEX
  5
92
330
91
100
AcDbEntity
  8
Layer 1
370
     0
100
AcDbVertex
100
AcDb2dVertex
 10
401.2558898634234
 20
417.5312894522722
 30
0.0
  0
VERTEX
  5
93
330
91
100
AcDbEntity
  8
Layer 1
370
     0
100
AcDbVertex
100
AcDb2dVertex
 10
401.2558898634234
 20
422.6483893230034
 30
0.0
  0
VERTEX
  5
94
330
91
100
AcDbEntity
  8
Layer 1
370
     0
100
AcDbVertex
100
AcDb2dVertex
 10
405.6679999999997
 20
422.6483893230034
 30
0.0
  0
VERTEX
  5
95
330
91
100
AcDbEntity
  8
Layer 1
370
     0
100
AcDbVertex
100
AcDb2dVertex
 10
405.6679999999997
 20
417.5312894522722
 30
0.0
  0
VERTEX
  5
96
330
91
100
AcDbEntity
  8
Layer 1
370
     0
100
AcDbVertex
100
AcDb2dVertex
 10
401.2558898634234
 20
417.5312894522722
 30
0.0
  0
VERTEX
  5
97
330
91
100
AcDbEntity
  8
Layer 1
370
     0
100
AcDbVertex
100
AcDb2dVertex
 10
401.2558898634234
 20
417.5312894522722
 30
0.0
  0
SEQEND
  5
98
330
91
100
AcDbEntity
  8
Layer 1
370
     0
  0
SPLINE
  5
99
330
14
100
AcDbEntity
  8
Layer 1
370
     0
100
AcDbSpline
210
0.0
220
0.0
230
1.0
 70
    11
 71
     3
 72
   251
 73
   247
 74
     0
 42
0.000000001
 43
0.0000000001
 40
0.0
 40
0.0
 40
0.0
 40
0.0
 40
1.0
 40
1.0
 40
1.0
 40
2.0
 40
2.0
 40
2.0
 40
3.0
 40
3.0
 40
3.0
 40
4.0
 40
4.0
 40
4.0
 40
5.0
 40
5.0
 40
5.0
 40
6.0
 40
6.0
 40
6.0
 40
7.0
 40
7.0
 40
7.0
 40
8.0
 40
8.0
 40
8.0
 40
9.0
 40
9.0
 40
9.0
 40
10.0
 40
10.0
 40
10.0
 40
11.0
 40
11.0
 40
11.0
 40
12.0
 40
12.0
 40
12.0
 40
13.0
 40
13.0
 40
13.0
 40
14.0
 40
14.0
 40
14.0
 40
15.0
 40
15.0
 40
15.0
 40
16.0
 40
16.0
 40
16.0
 40
17.0
 40
17.0
 40
17.0
 40
18.0
 40
18.0
 40
18.0
 40
19.0
 40
19.0
 40
19.0
 40
20.0
 40
20.0
 40
20.0
 40
21.0
 40
21.0
 40
21.0
 40
22.0
 40
22.0
 40
22.0
 40
23.0
 40
23.0
 40
23.0
 40
24.0
 40
24.0
 40
24.0
 40
25.0
 40
25.0
 40
25.0
 40
26.0
 40
26.0
 40
26.0
 40
27.0
 40
27.0
 40
27.0
 40
28.0
 40
28.0
 40
28.0
 40
29.0
 40
29.0
 40
29.0
 40
30.0
 40
30.0
 40
30.0
 40
31.0
 40
31.0
 40
31.0
 40
32.0
 40
32.0
 40
32.0
 40
33.0
 40
33.0
 40
33.0
 40
34.0
 40
34.0
 40
34.0
 40
35.0
 40
35.0
 40
35.0
 40
36.0
 40
36.0
 40
36.0
 40
37.0
 40
37.0
 40
37.0
 40
38.0
 40
38.0
 40
38.0
 40
39.0
 40
39.0
 40
39.0
 40
40.0
 40
40.0
 40
40.0
 40
41.0
 40
41.0
 40
41.0
 40
42.0
 40
42.0
 40
42.0
 40
43.0
 40
43.0
 40
43.0
 40
44.0
 40
44.0
 40
44.0
 40
45.0
 40
45.0
 40
45.0
 40
46.0
 40
46.0
 40
46.0
 40
47.0
 40
47.0
 40
47.0
 40
48.0
 40
48.0
 40
48.0
 40
49.0
 40
49.0
 40
49.0
 40
50.0
 40
50.0
 40
50.0
 40
51.0
 40
51.0
 40
51.0
 40
52.0
 40
52.0
 40
52.0
 40
53.0
 40
53.0
 40
53.0
 40
54.0
 40
54.0
 40
54.0
 40
55.0
 40
55.0
 40
55.0
 40
56.0
 40
56.0
 40
56.0
 40
57.0
 40
57.0
 40
57.0
 40
58.0
 40
58.0
 40
58.0
 40
59.0
 40
59.0
 40
59.0
 40
60.0
 40
60.0
 40
60.0
 40
61.0
 40
61.0
 40
61.0
 40
62.0
 40
62.0
 40
62.0
 40
63.0
 40
63.0
 40
63.0
 40
64.0
 40
64.0
 40
64.0
 40
65.0
 40
65.0
 40
65.0
 40
66.0
 40
66.0
 40
66.0
 40
67.0
 40
67.0
 40
67.0
 40
68.0
 40
68.0
 40
68.0
 40
69.0
 40
69.0
 40
69.0
 40
70.0
 40
70.0
 40
70.0
 40
71.0
 40
71.0
 40
71.0
 40
72.0
 40
72.0
 40
72.0
 40
73.0
 40
73.0
 40
73.0
 40
74.0
 40
74.0
 40
74.0
 40
75.0
 40
75.0
 40
75.0
 40
76.0
 40
76.0
 40
76.0
 40
77.0
 40
77.0
 40
77.0
 40
78.0
 40
78.0
 40
78.0
 40
79.0
 40
79.0
 40
79.0
 40
80.0
 40
80.0
 40
80.0
 40
81.0
 40
81.0
 40
81.0
 40
82.0
 40
82.0
 40
82.0
 40
82.0
 10
405.8612897470812
 20
407.5194897051915
 30
0.0
 10
405.6659999999993
 20
407.6522897018367
 30
0.0
 10
405.4296897579843
 20
407.7313896998385
 30
0.0
 10
405.1757897643984
 20
407.7313896998385
 30
0.0
 10
404.8388897729092
 20
407.7313896998385
 30
0.0
 10
404.5351897805813
 20
407.5956897032665
 30
0.0
 10
404.3144897861566
 20
407.3760000000002
 30
0.0
 10
404.095689791684
 20
407.155289714392
 30
0.0
 10
403.9590000000007
 20
406.8515897220641
 30
0.0
 10
403.9590000000007
 20
406.5155897305522
 30
0.0
 10
403.9590000000007
 20
406.1796897390377
 30
0.0
 10
404.095689791684
 20
405.875
 30
0.0
 10
404.3144897861566
 20
405.6552897522852
 30
0.0
 10
404.3320000000003
 20
405.6386897527045
 30
0.0
 10
404.3476897853179
 20
405.6229999999996
 30
0.0
 10
404.3651897848758
 20
405.6073897534952
 30
0.0
 10
404.3651897848758
 20
405.6073897534952
 30
0.0
 10
403.5429999999997
 20
405.6073897534952
 30
0.0
 10
403.5429999999997
 20
405.6073897534952
 30
0.0
 10
403.559589805227
 20
405.6229999999996
 30
0.0
 10
403.5761898048077
 20
405.6386897527045
 30
0.0
 10
403.5927898043883
 20
405.6552897522852
 30
0.0
 10
403.813489798813
 20
405.875
 30
0.0
 10
403.9491897953849
 20
406.1796897390377
 30
0.0
 10
403.9491897953849
 20
406.5155897305522
 30
0.0
 10
403.9491897953849
 20
406.8515897220641
 30
0.0
 10
403.813489798813
 20
407.155289714392
 30
0.0
 10
403.5927898043883
 20
407.3760000000002
 30
0.0
 10
403.3729999999996
 20
407.5956897032665
 30
0.0
 10
403.0683898176358
 20
407.7313896998385
 30
0.0
 10
402.7333898260986
 20
407.7313896998385
 30
0.0
 10
402.3964898346094
 20
407.7313896998385
 30
0.0
 10
402.0937898422562
 20
407.5956897032665
 30
0.0
 10
401.8729999999996
 20
407.3760000000002
 30
0.0
 10
401.6522898534095
 20
407.155289714392
 30
0.0
 10
401.5175898568123
 20
406.8515897220641
 30
0.0
 10
401.5175898568123
 20
406.5155897305522
 30
0.0
 10
401.5175898568123
 20
406.1796897390377
 30
0.0
 10
401.6522898534095
 20
405.875
 30
0.0
 10
401.8729999999996
 20
405.6552897522852
 30
0.0
 10
401.8886898474375
 20
405.6386897527045
 30
0.0
 10
401.9062898469929
 20
405.6229999999996
 30
0.0
 10
401.9237898465508
 20
405.6073897534952
 30
0.0
 10
401.9237898465508
 20
405.6073897534952
 30
0.0
 10
401.0331898690492
 20
405.6073897534952
 30
0.0
 10
401.0331898690492
 20
405.6073897534952
 30
0.0
 10
401.0497898686299
 20
405.6229999999996
 30
0.0
 10
401.0673898681853
 20
405.6386897527045
 30
0.0
 10
401.0830000000005
 20
405.6552897522852
 30
0.0
 10
401.3036898622158
 20
405.875
 30
0.0
 10
401.4394898587852
 20
406.1796897390377
 30
0.0
 10
401.4394898587852
 20
406.5155897305522
 30
0.0
 10
401.4394898587852
 20
406.8515897220641
 30
0.0
 10
401.3036898622158
 20
407.155289714392
 30
0.0
 10
401.0830000000005
 20
407.3760000000002
 30
0.0
 10
400.8632898733413
 20
407.5956897032665
 30
0.0
 10
400.5585898810386
 20
407.7313896998385
 30
0.0
 10
400.2226898895242
 20
407.7313896998385
 30
0.0
 10
399.8866898980123
 20
407.7313896998385
 30
0.0
 10
399.5830000000005
 20
407.5956897032665
 30
0.0
 10
399.3632899112345
 20
407.3760000000002
 30
0.0
 10
399.1425899168098
 20
407.155289714392
 30
0.0
 10
399.0067899202404
 20
406.8515897220641
 30
0.0
 10
399.0067899202404
 20
406.5155897305522
 30
0.0
 10
399.0067899202404
 20
406.1796897390377
 30
0.0
 10
399.1425899168098
 20
405.875
 30
0.0
 10
399.3632899112345
 20
405.6552897522852
 30
0.0
 10
399.3788899108404
 20
405.6386897527045
 30
0.0
 10
399.3964899103958
 20
405.6229999999996
 30
0.0
 10
399.4140899099511
 20
405.6073897534952
 30
0.0
 10
399.4140899099511
 20
405.6073897534952
 30
0.0
 10
398.4726899337329
 20
405.6073897534952
 30
0.0
 10
398.4726899337329
 20
405.6073897534952
 30
0.0
 10
398.4901899332908
 20
405.6229999999996
 30
0.0
 10
398.5077899328462
 20
405.6386897527045
 30
0.0
 10
398.5233899324521
 20
405.6552897522852
 30
0.0
 10
398.7440899268768
 20
405.875
 30
0.0
 10
398.8798899234462
 20
406.1796897390377
 30
0.0
 10
398.8798899234462
 20
406.5155897305522
 30
0.0
 10
398.8798899234462
 20
406.8515897220641
 30
0.0
 10
398.7440899268768
 20
407.155289714392
 30
0.0
 10
398.5233899324521
 20
407.3760000000002
 30
0.0
 10
398.3026899380275
 20
407.5956897032665
 30
0.0
 10
398.0
 20
407.7313896998385
 30
0.0
 10
397.6640899541599
 20
407.7313896998385
 30
0.0
 10
397.3270899626732
 20
407.7313896998385
 30
0.0
 10
397.0233899703453
 20
407.5956897032665
 30
0.0
 10
396.8036899758954
 20
407.3760000000002
 30
0.0
 10
396.5830000000005
 20
407.155289714392
 30
0.0
 10
396.4472899848988
 20
406.8515897220641
 30
0.0
 10
396.4472899848988
 20
406.5155897305522
 30
0.0
 10
396.4472899848988
 20
406.1796897390377
 30
0.0
 10
396.5830000000005
 20
405.875
 30
0.0
 10
396.8036899758954
 20
405.6552897522852
 30
0.0
 10
396.8192899755013
 20
405.6386897527045
 30
0.0
 10
396.835889975082
 20
405.6229999999996
 30
0.0
 10
396.8534899746373
 20
405.6073897534952
 30
0.0
 10
396.8534899746373
 20
405.6073897534952
 30
0.0
 10
395.9218899981715
 20
405.6073897534952
 30
0.0
 10
395.9218899981715
 20
405.6073897534952
 30
0.0
 10
395.9394899977269
 20
405.6229999999996
 30
0.0
 10
395.9560899973076
 20
405.6386897527045
 30
0.0
 10
395.9726899968882
 20
405.6552897522852
 30
0.0
 10
396.1913899913634
 20
405.875
 30
0.0
 10
396.3280899879101
 20
406.1796897390377
 30
0.0
 10
396.3280899879101
 20
406.5155897305522
 30
0.0
 10
396.3280899879101
 20
406.8515897220641
 30
0.0
 10
396.1913899913634
 20
407.155289714392
 30
0.0
 10
395.9726899968882
 20
407.3760000000002
 30
0.0
 10
395.7520000000004
 20
407.5956897032665
 30
0.0
 10
395.4472900101609
 20
407.7313896998385
 30
0.0
 10
395.111290018649
 20
407.7313896998385
 30
0.0
 10
394.7763900271093
 20
407.7313896998385
 30
0.0
 10
394.4706900348319
 20
407.5956897032665
 30
0.0
 10
394.2520000000004
 20
407.3760000000002
 30
0.0
 10
394.0312900459321
 20
407.155289714392
 30
0.0
 10
393.894490049388
 20
406.8515897220641
 30
0.0
 10
393.894490049388
 20
406.5155897305522
 30
0.0
 10
393.894490049388
 20
406.1796897390377
 30
0.0
 10
394.0312900459321
 20
405.875
 30
0.0
 10
394.2520000000004
 20
405.6552897522852
 30
0.0
 10
394.2675900399627
 20
405.6386897527045
 30
0.0
 10
394.2851900395181
 20
405.6229999999996
 30
0.0
 10
394.3017900390987
 20
405.6073897534952
 30
0.0
 10
394.3017900390987
 20
405.6073897534952
 30
0.0
 10
393.3330000000005
 20
405.6073897534952
 30
0.0
 10
393.3330000000005
 20
405.6073897534952
 30
0.0
 10
393.350590063128
 20
405.6229999999996
 30
0.0
 10
393.3671900627087
 20
405.6386897527045
 30
0.0
 10
393.3827900623146
 20
405.6552897522852
 30
0.0
 10
393.6034900567392
 20
405.875
 30
0.0
 10
393.7401900532859
 20
406.1796897390377
 30
0.0
 10
393.7401900532859
 20
406.5155897305522
 30
0.0
 10
393.7401900532859
 20
406.8515897220641
 30
0.0
 10
393.6034900567392
 20
407.155289714392
 30
0.0
 10
393.3827900623146
 20
407.3760000000002
 30
0.0
 10
393.1630900678647
 20
407.5956897032665
 30
0.0
 10
392.8593900755368
 20
407.7313896998385
 30
0.0
 10
392.5233900840249
 20
407.7313896998385
 30
0.0
 10
392.1874900925104
 20
407.7313896998385
 30
0.0
 10
391.8827901002078
 20
407.5956897032665
 30
0.0
 10
391.6640901057326
 20
407.3760000000002
 30
0.0
 10
391.443390111308
 20
407.155289714392
 30
0.0
 10
391.3065901147638
 20
406.8515897220641
 30
0.0
 10
391.3065901147638
 20
406.5155897305522
 30
0.0
 10
391.3065901147638
 20
406.1796897390377
 30
0.0
 10
391.443390111308
 20
405.875
 30
0.0
 10
391.6640901057326
 20
405.6552897522852
 30
0.0
 10
391.6640901057326
 20
405.6552897522852
 30
0.0
 10
391.6679999999997
 20
405.6513897523837
 30
0.0
 10
391.6679999999997
 20
405.6513897523837
 30
0.0
 10
391.4315901116061
 20
405.7030897510776
 30
0.0
 10
391.2733901156025
 20
405.8144897482634
 30
0.0
 10
391.0663901208318
 20
406.0487897423445
 30
0.0
 10
391.0663901208318
 20
406.0487897423445
 30
0.0
 10
390.2274901420242
 20
407.0058897181661
 30
0.0
 10
390.2274901420242
 20
407.0058897181661
 30
0.0
 10
390.298790140223
 20
406.9960897184137
 30
0.0
 10
390.3710901383965
 20
406.9911897185375
 30
0.0
 10
390.4433901365701
 20
406.9911897185375
 30
0.0
 10
390.9062901248763
 20
406.9911897185375
 30
0.0
 10
391.3261901142687
 20
407.1796897137756
 30
0.0
 10
391.6327901065233
 20
407.4843897060782
 30
0.0
 10
391.6327901065233
 20
407.4843897060782
 30
0.0
 10
391.6337901064981
 20
407.485389706053
 30
0.0
 10
391.6337901064981
 20
407.485389706053
 30
0.0
 10
391.6337901064981
 20
407.485389706053
 30
0.0
 10
391.6347901064728
 20
407.4862897060302
 30
0.0
 10
391.6347901064728
 20
407.4862897060302
 30
0.0
 10
391.9394900987754
 20
407.7919999999995
 30
0.0
 10
392.1288900939908
 20
408.2128896876748
 30
0.0
 10
392.1288900939908
 20
408.6757896759809
 30
0.0
 10
392.1288900939908
 20
409.1386896642871
 30
0.0
 10
391.9394900987754
 20
409.5585896536795
 30
0.0
 10
391.6347901064728
 20
409.8642896459569
 30
0.0
 10
391.6347901064728
 20
409.8642896459569
 30
0.0
 10
391.6337901064981
 20
409.8651896459342
 30
0.0
 10
391.6337901064981
 20
409.8651896459342
 30
0.0
 10
391.6337901064981
 20
409.8651896459342
 30
0.0
 10
391.6327901065233
 20
409.8661896459089
 30
0.0
 10
391.6327901065233
 20
409.8661896459089
 30
0.0
 10
391.6327901065233
 20
409.8661896459089
 30
0.0
 10
391.6161901069427
 20
409.8827896454895
 30
0.0
 10
391.6161901069427
 20
409.8827896454895
 30
0.0
 10
391.6161901069427
 20
409.8827896454895
 30
0.0
 10
393.7948900519041
 20
409.8827896454895
 30
0.0
 10
393.7948900519041
 20
409.8827896454895
 30
0.0
 10
393.6972900543697
 20
409.7401896490919
 30
0.0
 10
393.640590055802
 20
409.568389653432
 30
0.0
 10
393.640590055802
 20
409.3837896580953
 30
0.0
 10
393.640590055802
 20
409.1347896643856
 30
0.0
 10
393.7421900532354
 20
408.9101896700595
 30
0.0
 10
393.9042900491404
 20
408.7479999999996
 30
0.0
 10
394.0683900449949
 20
408.585889678252
 30
0.0
 10
394.2919999999995
 20
408.4843896808161
 30
0.0
 10
394.5400000000009
 20
408.4843896808161
 30
0.0
 10
394.7880900268137
 20
408.4843896808161
 30
0.0
 10
395.0126900211399
 20
408.585889678252
 30
0.0
 10
395.1757900170196
 20
408.7479999999996
 30
0.0
 10
395.3378900129246
 20
408.9101896700595
 30
0.0
 10
395.4374900104085
 20
409.1347896643856
 30
0.0
 10
395.4374900104085
 20
409.3837896580953
 30
0.0
 10
395.4374900104085
 20
409.568389653432
 30
0.0
 10
395.3827900117903
 20
409.7401896490919
 30
0.0
 10
395.2860900142332
 20
409.8827896454895
 30
0.0
 10
395.2860900142332
 20
409.8827896454895
 30
0.0
 10
401.8993898471672
 20
409.8827896454895
 30
0.0
 10
401.8993898471672
 20
409.8827896454895
 30
0.0
 10
401.8046898495595
 20
409.7401896490919
 30
0.0
 10
401.7479999999996
 20
409.568389653432
 30
0.0
 10
401.7479999999996
 20
409.3837896580953
 30
0.0
 10
401.7479999999996
 20
409.1347896643856
 30
0.0
 10
401.8476898484732
 20
408.9101896700595
 30
0.0
 10
402.0106898443555
 20
408.7479999999996
 30
0.0
 10
402.1737898402353
 20
408.585889678252
 30
0.0
 10
402.3983898345614
 20
408.4843896808161
 30
0.0
 10
402.6464898282939
 20
408.4843896808161
 30
0.0
 10
402.8944898220288
 20
408.4843896808161
 30
0.0
 10
403.119089816355
 20
408.585889678252
 30
0.0
 10
403.2812898122575
 20
408.7479999999996
 30
0.0
 10
403.4433898081625
 20
408.9101896700595
 30
0.0
 10
403.5438898056236
 20
409.1347896643856
 30
0.0
 10
403.5438898056236
 20
409.3837896580953
 30
0.0
 10
403.5438898056236
 20
409.568389653432
 30
0.0
 10
403.4882898070282
 20
409.7401896490919
 30
0.0
 10
403.3925898094458
 20
409.8827896454895
 30
0.0
 10
403.3925898094458
 20
409.8827896454895
 30
0.0
 10
405.9130897457726
 20
409.8827896454895
 30
0.0
 10
405.9130897457726
 20
409.8827896454895
 30
0.0
 10
405.9130897457726
 20
409.8827896454895
 30
0.0
 10
405.8964897461919
 20
409.8661896459089
 30
0.0
 10
405.8964897461919
 20
409.8661896459089
 30
0.0
 10
405.8964897461919
 20
409.8661896459089
 30
0.0
 10
405.8944897462425
 20
409.8651896459342
 30
0.0
 10
405.8944897462425
 20
409.8651896459342
 30
0.0
 10
405.8944897462425
 20
409.8651896459342
 30
0.0
 10
405.8944897462425
 20
409.8642896459569
 30
0.0
 10
405.8944897462425
 20
409.8642896459569
 30
0.0
 10
405.5897897539398
 20
409.5585896536795
 30
0.0
 10
405.4003897587245
 20
409.1386896642871
 30
0.0
 10
405.4003897587245
 20
408.6757896759809
 30
0.0
 10
405.4003897587245
 20
408.2284896872807
 30
0.0
 10
405.5761897542834
 20
407.8222896975421
 30
0.0
 10
405.8612897470812
 20
407.5194897051915
 30
0.0
 10
405.8612897470812
 20
407.5194897051915
 30
0.0
 10
405.8612897470812
 20
407.5194897051915
 30
0.0
 10
405.8612897470812
 20
407.5194897051915
 30
0.0
  0
SPLINE
  5
9A
330
14
100
AcDbEntity
  8
Layer 1
370
     0
100
AcDbSpline
210
0.0
220
0.0
230
1.0
 70
    11
 71
     3
 72
    74
 73
    70
 74
     0
 42
0.000000001
 43
0.0000000001
 40
0.0
 40
0.0
 40
0.0
 40
0.0
 40
1.0
 40
1.0
 40
1.0
 40
2.0
 40
2.0
 40
2.0
 40
3.0
 40
3.0
 40
3.0
 40
4.0
 40
4.0
 40
4.0
 40
5.0
 40
5.0
 40
5.0
 40
6.0
 40
6.0
 40
6.0
 40
7.0
 40
7.0
 40
7.0
 40
8.0
 40
8.0
 40
8.0
 40
9.0
 40
9.0
 40
9.0
 40
10.0
 40
10.0
 40
10.0
 40
11.0
 40
11.0
 40
11.0
 40
12.0
 40
12.0
 40
12.0
 40
13.0
 40
13.0
 40
13.0
 40
14.0
 40
14.0
 40
14.0
 40
15.0
 40
15.0
 40
15.0
 40
16.0
 40
16.0
 40
16.0
 40
17.0
 40
17.0
 40
17.0
 40
18.0
 40
18.0
 40
18.0
 40
19.0
 40
19.0
 40
19.0
 40
20.0
 40
20.0
 40
20.0
 40
21.0
 40
21.0
 40
21.0
 40
22.0
 40
22.0
 40
22.0
 40
23.0
 40
23.0
 40
23.0
 40
23.0
 10
389.9198901497948
 20
410.4921896300948
 30
0.0
 10
389.9198901497948
 20
410.4921896300948
 30
0.0
 10
407.6405897021323
 20
410.4921896300948
 30
0.0
 10
407.6405897021323
 20
410.4921896300948
 30
0.0
 10
407.6405897021323
 20
410.4921896300948
 30
0.0
 10
407.6522897018367
 20
410.4921896300948
 30
0.0
 10
407.6522897018367
 20
410.4921896300948
 30
0.0
 10
407.6522897018367
 20
410.4921896300948
 30
0.0
 10
407.6796897011445
 20
410.4882896301933
 30
0.0
 10
407.6796897011445
 20
410.4882896301933
 30
0.0
 10
408.1190896900443
 20
410.4306896316484
 30
0.0
 10
408.4745896810637
 20
410.2479999999996
 30
0.0
 10
408.7274896746749
 20
409.9862896428749
 30
0.0
 10
408.8915896705294
 20
409.8173896471417
 30
0.0
 10
409.0116896674954
 20
409.6142896522724
 30
0.0
 10
409.0810896657422
 20
409.392589657873
 30
0.0
 10
409.148389664042
 20
409.1737896634004
 30
0.0
 10
409.1698896634989
 20
408.9335896694683
 30
0.0
 10
409.1366896643376
 20
408.6874896756854
 30
0.0
 10
409.078089665818
 20
408.2382896870331
 30
0.0
 10
408.8427896717621
 20
407.7636896990225
 30
0.0
 10
408.4013896829128
 20
407.3388897097539
 30
0.0
 10
408.4013896829128
 20
407.3388897097539
 30
0.0
 10
406.7304897251233
 20
405.6757897517673
 30
0.0
 10
406.7304897251233
 20
405.6757897517673
 30
0.0
 10
406.4237897328712
 20
405.3700897594899
 30
0.0
 10
406.1317897402478
 20
405.2011897637567
 30
0.0
 10
405.8036897485363
 20
405.1054897661743
 30
0.0
 10
405.4862897565545
 20
405.0136897684934
 30
0.0
 10
405.158189764843
 20
404.9979999999996
 30
0.0
 10
404.7538897750565
 20
404.9979999999996
 30
0.0
 10
404.7538897750565
 20
404.9979999999996
 30
0.0
 10
392.6395900810894
 20
404.9979999999996
 30
0.0
 10
392.6395900810894
 20
404.9979999999996
 30
0.0
 10
392.6395900810894
 20
404.9979999999996
 30
0.0
 10
392.5556900832089
 20
404.9979999999996
 30
0.0
 10
392.5556900832089
 20
404.9979999999996
 30
0.0
 10
392.5556900832089
 20
404.9979999999996
 30
0.0
 10
392.5556900832089
 20
405.0
 30
0.0
 10
392.5556900832089
 20
405.0
 30
0.0
 10
391.4530901110629
 20
405.0
 30
0.0
 10
391.1796901179696
 20
405.0
 30
0.0
 10
390.6093901323766
 20
405.650389752409
 30
0.0
 10
390.6093901323766
 20
405.650389752409
 30
0.0
 10
389.1815901684458
 20
407.27728971131
 30
0.0
 10
389.1815901684458
 20
407.27728971131
 30
0.0
 10
389.1815901684458
 20
407.27728971131
 30
0.0
 10
389.1718901686909
 20
407.2909999999993
 30
0.0
 10
389.1718901686909
 20
407.2909999999993
 30
0.0
 10
388.8876901758704
 20
407.6522897018367
 30
0.0
 10
388.7167901801877
 20
408.0341896921891
 30
0.0
 10
388.6425901820621
 20
408.4032896828649
 30
0.0
 10
388.5702901838886
 20
408.7606896738362
 30
0.0
 10
388.589790183396
 20
409.1073896650778
 30
0.0
 10
388.6874901809279
 20
409.4110896574057
 30
0.0
 10
388.7870901784117
 20
409.7265896494355
 30
0.0
 10
388.9706901737736
 20
409.9970896426021
 30
0.0
 10
389.2187901675061
 20
410.1923896376684
 30
0.0
 10
389.4003901629185
 20
410.3340000000007
 30
0.0
 10
389.6171901574417
 20
410.4354896315272
 30
0.0
 10
389.8612901512752
 20
410.4853896302666
 30
0.0
 10
389.8612901512752
 20
410.4853896302666
 30
0.0
 10
389.8964901503859
 20
410.4921896300948
 30
0.0
 10
389.8964901503859
 20
410.4921896300948
 30
0.0
 10
389.8964901503859
 20
410.4921896300948
 30
0.0
 10
389.9198901497948
 20
410.4921896300948
 30
0.0
 10
389.9198901497948
 20
410.4921896300948
 30
0.0
 10
389.9198901497948
 20
410.4921896300948
 30
0.0
 10
389.9198901497948
 20
410.4921896300948
 30
0.0
 10
389.9198901497948
 20
410.4921896300948
 30
0.0
  0
SPLINE
  5
9B
330
14
100
AcDbEntity
  8
Layer 1
370
     0
100
AcDbSpline
210
0.0
220
0.0
230
1.0
 70
    11
 71
     3
 72
   158
 73
   154
 74
     0
 42
0.000000001
 43
0.0000000001
 40
0.0
 40
0.0
 40
0.0
 40
0.0
 40
1.0
 40
1.0
 40
1.0
 40
2.0
 40
2.0
 40
2.0
 40
3.0
 40
3.0
 40
3.0
 40
4.0
 40
4.0
 40
4.0
 40
5.0
 40
5.0
 40
5.0
 40
6.0
 40
6.0
 40
6.0
 40
7.0
 40
7.0
 40
7.0
 40
8.0
 40
8.0
 40
8.0
 40
9.0
 40
9.0
 40
9.0
 40
10.0
 40
10.0
 40
10.0
 40
11.0
 40
11.0
 40
11.0
 40
12.0
 40
12.0
 40
12.0
 40
13.0
 40
13.0
 40
13.0
 40
14.0
 40
14.0
 40
14.0
 40
15.0
 40
15.0
 40
15.0
 40
16.0
 40
16.0
 40
16.0
 40
17.0
 40
17.0
 40
17.0
 40
18.0
 40
18.0
 40
18.0
 40
19.0
 40
19.0
 40
19.0
 40
20.0
 40
20.0
 40
20.0
 40
21.0
 40
21.0
 40
21.0
 40
22.0
 40
22.0
 40
22.0
 40
23.0
 40
23.0
 40
23.0
 40
24.0
 40
24.0
 40
24.0
 40
25.0
 40
25.0
 40
25.0
 40
26.0
 40
26.0
 40
26.0
 40
27.0
 40
27.0
 40
27.0
 40
28.0
 40
28.0
 40
28.0
 40
29.0
 40
29.0
 40
29.0
 40
30.0
 40
30.0
 40
30.0
 40
31.0
 40
31.0
 40
31.0
 40
32.0
 40
32.0
 40
32.0
 40
33.0
 40
33.0
 40
33.0
 40
34.0
 40
34.0
 40
34.0
 40
35.0
 40
35.0
 40
35.0
 40
36.0
 40
36.0
 40
36.0
 40
37.0
 40
37.0
 40
37.0
 40
38.0
 40
38.0
 40
38.0
 40
39.0
 40
39.0
 40
39.0
 40
40.0
 40
40.0
 40
40.0
 40
41.0
 40
41.0
 40
41.0
 40
42.0
 40
42.0
 40
42.0
 40
43.0
 40
43.0
 40
43.0
 40
44.0
 40
44.0
 40
44.0
 40
45.0
 40
45.0
 40
45.0
 40
46.0
 40
46.0
 40
46.0
 40
47.0
 40
47.0
 40
47.0
 40
48.0
 40
48.0
 40
48.0
 40
49.0
 40
49.0
 40
49.0
 40
50.0
 40
50.0
 40
50.0
 40
51.0
 40
51.0
 40
51.0
 40
51.0
 10
411.0487896160339
 20
412.139589588478
 30
0.0
 10
411.0487896160339
 20
412.139589588478
 30
0.0
 10
407.7284896999117
 20
412.139589588478
 30
0.0
 10
407.7284896999117
 20
412.139589588478
 30
0.0
 10
407.7284896999117
 20
412.139589588478
 30
0.0
 10
407.7284896999117
 20
416.9218894676669
 30
0.0
 10
407.7284896999117
 20
416.9218894676669
 30
0.0
 10
407.7284896999117
 20
416.9218894676669
 30
0.0
 10
406.8847897212254
 20
416.9218894676669
 30
0.0
 10
406.8847897212254
 20
416.9218894676669
 30
0.0
 10
406.8847897212254
 20
416.9218894676669
 30
0.0
 10
406.8847897212254
 20
422.9520893153312
 30
0.0
 10
406.8847897212254
 20
422.9520893153312
 30
0.0
 10
406.8847897212254
 20
422.9520893153312
 30
0.0
 10
407.309589710494
 20
422.9520893153312
 30
0.0
 10
407.309589710494
 20
422.9520893153312
 30
0.0
 10
407.309589710494
 20
422.9520893153312
 30
0.0
 10
407.309589710494
 20
424.9579999999996
 30
0.0
 10
407.309589710494
 20
424.9579999999996
 30
0.0
 10
407.309589710494
 20
424.9579999999996
 30
0.0
 10
399.4784899083243
 20
424.9579999999996
 30
0.0
 10
399.4784899083243
 20
424.9579999999996
 30
0.0
 10
399.4784899083243
 20
424.9579999999996
 30
0.0
 10
396.129889992917
 20
423.9926892890435
 30
0.0
 10
396.129889992917
 20
423.9926892890435
 30
0.0
 10
396.129889992917
 20
423.9926892890435
 30
0.0
 10
396.129889992917
 20
422.9520893153312
 30
0.0
 10
396.129889992917
 20
422.9520893153312
 30
0.0
 10
396.129889992917
 20
422.9520893153312
 30
0.0
 10
396.7577899770549
 20
422.9520893153312
 30
0.0
 10
396.7577899770549
 20
422.9520893153312
 30
0.0
 10
396.7577899770549
 20
422.9520893153312
 30
0.0
 10
397.242189964818
 20
417.6200894500289
 30
0.0
 10
397.242189964818
 20
417.6200894500289
 30
0.0
 10
397.242189964818
 20
417.6200894500289
 30
0.0
 10
391.7284901041057
 20
417.6200894500289
 30
0.0
 10
391.7284901041057
 20
417.6200894500289
 30
0.0
 10
391.7284901041057
 20
417.6200894500289
 30
0.0
 10
391.7284901041057
 20
419.4452894039205
 30
0.0
 10
391.7284901041057
 20
419.4452894039205
 30
0.0
 10
391.7284901041057
 20
419.4452894039205
 30
0.0
 10
391.2851901153044
 20
419.4452894039205
 30
0.0
 10
391.2851901153044
 20
419.4452894039205
 30
0.0
 10
391.2851901153044
 20
419.4452894039205
 30
0.0
 10
391.2851901153044
 20
421.5600893504961
 30
0.0
 10
391.2851901153044
 20
421.5600893504961
 30
0.0
 10
391.2851901153044
 20
421.5600893504961
 30
0.0
 10
392.5380900836535
 20
422.3642893301803
 30
0.0
 10
392.5380900836535
 20
422.3642893301803
 30
0.0
 10
392.5380900836535
 20
422.3642893301803
 30
0.0
 10
392.0458900960875
 20
423.1298893108396
 30
0.0
 10
392.0458900960875
 20
423.1298893108396
 30
0.0
 10
392.0458900960875
 20
423.1298893108396
 30
0.0
 10
390.5830000000005
 20
422.1913893345481
 30
0.0
 10
390.5830000000005
 20
422.1913893345481
 30
0.0
 10
390.5830000000005
 20
422.1913893345481
 30
0.0
 10
390.3729999999996
 20
422.0565893379535
 30
0.0
 10
390.3729999999996
 20
422.0565893379535
 30
0.0
 10
390.3729999999996
 20
422.0565893379535
 30
0.0
 10
390.3729999999996
 20
421.8080893442311
 30
0.0
 10
390.3729999999996
 20
421.8080893442311
 30
0.0
 10
390.3729999999996
 20
421.8080893442311
 30
0.0
 10
390.3729999999996
 20
419.4452894039205
 30
0.0
 10
390.3729999999996
 20
419.4452894039205
 30
0.0
 10
390.3729999999996
 20
419.4452894039205
 30
0.0
 10
389.9296901495472
 20
419.4452894039205
 30
0.0
 10
389.9296901495472
 20
419.4452894039205
 30
0.0
 10
389.9296901495472
 20
419.4452894039205
 30
0.0
 10
389.9296901495472
 20
417.6200894500289
 30
0.0
 10
389.9296901495472
 20
417.6200894500289
 30
0.0
 10
389.9296901495472
 20
417.6200894500289
 30
0.0
 10
389.0976901705653
 20
417.6200894500289
 30
0.0
 10
389.0976901705653
 20
417.6200894500289
 30
0.0
 10
389.0976901705653
 20
417.6200894500289
 30
0.0
 10
385.7694902546427
 20
417.0116894653984
 30
0.0
 10
385.7694902546427
 20
417.0116894653984
 30
0.0
 10
385.7694902546427
 20
417.0116894653984
 30
0.0
 10
385.7694902546427
 20
411.9267895938538
 30
0.0
 10
385.7694902546427
 20
411.9267895938538
 30
0.0
 10
385.7694902546427
 20
411.9267895938538
 30
0.0
 10
382.4491903385206
 20
410.6815896253102
 30
0.0
 10
382.4491903385206
 20
410.6815896253102
 30
0.0
 10
382.4491903385206
 20
410.6815896253102
 30
0.0
 10
382.4491903385206
 20
415.6308895002803
 30
0.0
 10
382.4491903385206
 20
415.6308895002803
 30
0.0
 10
382.4491903385206
 20
415.6308895002803
 30
0.0
 10
381.0
 20
415.6308895002803
 30
0.0
 10
381.0
 20
415.6308895002803
 30
0.0
 10
380.3554903914119
 20
411.8544895956802
 30
0.0
 10
380.4892903880318
 20
408.830089672083
 30
0.0
 10
378.0204904503989
 20
405.4315897579363
 30
0.0
 10
378.0204904503989
 20
405.4315897579363
 30
0.0
 10
382.4491903385206
 20
405.4315897579363
 30
0.0
 10
382.4491903385206
 20
405.4315897579363
 30
0.0
 10
382.4491903385206
 20
405.4315897579363
 30
0.0
 10
382.4491903385206
 20
408.0907896907593
 30
0.0
 10
382.4491903385206
 20
408.0907896907593
 30
0.0
 10
382.4491903385206
 20
408.0907896907593
 30
0.0
 10
385.1435902704543
 20
409.1015896652243
 30
0.0
 10
385.1435902704543
 20
409.1015896652243
 30
0.0
 10
385.1435902704543
 20
409.1015896652243
 30
0.0
 10
385.1435902704543
 20
407.9042896954707
 30
0.0
 10
385.1435902704543
 20
407.9042896954707
 30
0.0
 10
385.1435902704543
 20
407.9042896954707
 30
0.0
 10
386.4140902383588
 20
406.6864897262349
 30
0.0
 10
386.4140902383588
 20
406.6864897262349
 30
0.0
 10
386.4140902383588
 20
406.6864897262349
 30
0.0
 10
388.4853901860333
 20
406.6864897262349
 30
0.0
 10
388.4853901860333
 20
406.6864897262349
 30
0.0
 10
388.4853901860333
 20
406.6864897262349
 30
0.0
 10
388.4590000000007
 20
406.7196897253962
 30
0.0
 10
388.4590000000007
 20
406.7196897253962
 30
0.0
 10
388.4590000000007
 20
406.7196897253962
 30
0.0
 10
388.4530901868493
 20
406.7265897252219
 30
0.0
 10
388.4530901868493
 20
406.7265897252219
 30
0.0
 10
388.1083901955571
 20
407.1659999999993
 30
0.0
 10
387.8573902018979
 20
407.675789701243
 30
0.0
 10
387.7479999999996
 20
408.2235896874045
 30
0.0
 10
387.6503902071272
 20
408.7090000000007
 30
0.0
 10
387.6659999999993
 20
409.2147896623646
 30
0.0
 10
387.8173902029084
 20
409.688489650398
 30
0.0
 10
387.9706901990357
 20
410.1718896381863
 30
0.0
 10
388.2567901918082
 20
410.5976896274296
 30
0.0
 10
388.656290181716
 20
410.9110896195125
 30
0.0
 10
388.9570000000003
 20
411.1464896135658
 30
0.0
 10
389.3065901652881
 20
411.3046896095693
 30
0.0
 10
389.6806901558375
 20
411.3808896076443
 30
0.0
 10
389.6806901558375
 20
411.3808896076443
 30
0.0
 10
389.8056901526797
 20
411.405289607028
 30
0.0
 10
389.8056901526797
 20
411.405289607028
 30
0.0
 10
389.8056901526797
 20
411.405289607028
 30
0.0
 10
407.7128897003058
 20
411.405289607028
 30
0.0
 10
407.7128897003058
 20
411.405289607028
 30
0.0
 10
407.7128897003058
 20
411.405289607028
 30
0.0
 10
407.7987896981358
 20
411.3944896073008
 30
0.0
 10
407.7987896981358
 20
411.3944896073008
 30
0.0
 10
408.4003896829381
 20
411.3144896093218
 30
0.0
 10
408.9608896687787
 20
411.0595896157611
 30
0.0
 10
409.3847896580701
 20
410.6210896268385
 30
0.0
 10
409.646489651459
 20
410.3495896336972
 30
0.0
 10
409.8397896465758
 20
410.0233896419377
 30
0.0
 10
409.9511896437616
 20
409.6650000000009
 30
0.0
 10
409.9921896427259
 20
409.5400000000009
 30
0.0
 10
410.0194896420362
 20
409.4130896573552
 30
0.0
 10
410.0390896415411
 20
409.2851896605862
 30
0.0
 10
410.0390896415411
 20
409.2851896605862
 30
0.0
 10
411.0487896160339
 20
409.9394896440572
 30
0.0
 10
411.0487896160339
 20
409.9394896440572
 30
0.0
 10
411.0487896160339
 20
409.9394896440572
 30
0.0
 10
411.0487896160339
 20
412.139589588478
 30
0.0
 10
411.0487896160339
 20
412.139589588478
 30
0.0
 10
411.0487896160339
 20
412.139589588478
 30
0.0
 10
411.0487896160339
 20
412.139589588478
 30
0.0
 10
411.0487896160339
 20
412.139589588478
 30
0.0
  0
ENDSEC
  0
SECTION
  2
OBJECTS
  0
DICTIONARY
  5
5
330
0
100
AcDbDictionary
281
     1
  3
ACAD_GROUP
350
21
  3
ACAD_LAYOUT
350
18
  3
ACAD_MATERIAL
350
7
  3
ACAD_MLEADERSTYLE
350
9F
  3
ACAD_MLINESTYLE
350
12
  3
ACAD_PLOTSETTINGS
350
22
  3
ACAD_PLOTSTYLENAME
350
4
  3
ACAD_SCALELIST
350
29
  3
ACAD_TABLESTYLE
350
9E
  3
ACAD_VISUALSTYLE
350
23
  3
AcDbVariableDictionary
350
9C
  0
DICTIONARY
  5
BF
330
1F
100
AcDbDictionary
280
     1
281
     1
  3
ACAD_XREC_ROUNDTRIP
360
C0
  0
DICTIONARY
  5
21
102
{ACAD_REACTORS
330
5
102
}
330
5
100
AcDbDictionary
281
     1
  0
DICTIONARY
  5
18
102
{ACAD_REACTORS
330
5
102
}
330
5
100
AcDbDictionary
281
     1
  3
Layout1
350
1C
  3
Model
350
17
  0
DICTIONARY
  5
7
102
{ACAD_REACTORS
330
5
102
}
330
5
100
AcDbDictionary
281
     1
  3
ByBlock
350
4C
  3
ByLayer
350
E
  3
Global
350
6
  0
DICTIONARY
  5
9F
102
{ACAD_REACTORS
330
5
102
}
330
5
100
AcDbDictionary
281
     1
  3
Standard
350
A2
  0
DICTIONARY
  5
12
102
{ACAD_REACTORS
330
5
102
}
330
5
100
AcDbDictionary
281
     1
  3
Standard
350
11
  0
DICTIONARY
  5
22
102
{ACAD_REACTORS
330
5
102
}
330
5
100
AcDbDictionary
281
     1
  0
ACDBDICTIONARYWDFLT
  5
4
102
{ACAD_REACTORS
330
5
102
}
330
5
100
AcDbDictionary
281
     1
  3
Normal
350
3
100
AcDbDictionaryWithDefault
340
3
  0
DICTIONARY
  5
29
102
{ACAD_REACTORS
330
5
102
}
330
5
100
AcDbDictionary
281
     1
  3
*A1
350
4B
  0
DICTIONARY
  5
9E
102
{ACAD_REACTORS
330
5
102
}
330
5
100
AcDbDictionary
281
     1
  3
Standard
350
BA
  0
DICTIONARY
  5
23
102
{ACAD_REACTORS
330
5
102
}
330
5
100
AcDbDictionary
281
     1
  3
2dWireframe
350
26
  3
Basic
350
A9
  3
Brighten
350
AD
  3
ColorChange
350
B1
  3
Conceptual
350
AB
  3
Dim
350
AC
  3
EdgeColorOff
350
B4
  3
Facepattern
350
B0
  3
Flat
350
A3
  3
FlatWithEdges
350
A4
  3
Gouraud
350
A5
  3
GouraudWithEdges
350
A6
  3
Hidden
350
A8
  3
JitterOff
350
B2
  3
Linepattern
350
AF
  3
OverhangOff
350
B3
  3
Realistic
350
AA
  3
Shaded
350
B9
  3
Shaded with edges
350
B8
  3
Shades of Gray
350
B5
  3
Sketchy
350
B6
  3
Thicken
350
AE
  3
Wireframe
350
A7
  3
X-Ray
350
B7
  0
DICTIONARY
  5
9C
102
{ACAD_REACTORS
330
5
102
}
330
5
100
AcDbDictionary
281
     1
  3
CANNOSCALE
350
9D
  3
CMLEADERSTYLE
350
BC
  3
CTABLESTYLE
350
BB
  3
DIMASSOC
350
BD
  3
HIDETEXT
350
BE
  3
MSLTSCALE
350
C1
  0
XRECORD
  5
C0
102
{ACAD_REACTORS
330
BF
102
}
330
BF
100
AcDbXrecord
280
     1
102
VTR_0.000_0.000_1.000_1.000_VISUALSTYLE
340
26
102
VTR_0.000_0.000_1.000_1.000_GRIDDISPLAY
 70
     3
102
VTR_0.000_0.000_1.000_1.000_GRIDMAJOR
 70
     5
102
VTR_0.000_0.000_1.000_1.000_DEFAULTLIGHTING
280
     1
102
VTR_0.000_0.000_1.000_1.000_DEFAULTLIGHTINGTYPE
 70
     1
102
VTR_0.000_0.000_1.000_1.000_BRIGHTNESS
141
0.0
102
VTR_0.000_0.000_1.000_1.000_CONTRAST
142
0.0
  0
LAYOUT
  5
1C
102
{ACAD_REACTORS
330
18
102
}
330
18
100
AcDbPlotSettings
  1

  2
none_device
  4
Letter_(8.50_x_11.00_Inches)
  6

 40
6.35
 41
6.35
 42
6.35001
 43
6.35001
 44
215.9
 45
279.4
 46
0.0
 47
0.0
 48
0.0
 49
0.0
140
0.0
141
0.0
142
1.0
143
1.0
 70
   688
 72
     0
 73
     1
 74
     5
  7

 75
    16
147
1.0
148
0.0
149
0.0
100
AcDbLayout
  1
Layout1
 70
     1
 71
     1
 10
0.0
 20
0.0
 11
12.0
 21
9.0
 12
0.0
 22
0.0
 32
0.0
 14
1.000000000000000E+20
 24
1.000000000000000E+20
 34
1.000000000000000E+20
 15
-1.000000000000000E+20
 25
-1.000000000000000E+20
 35
-1.000000000000000E+20
146
0.0
 13
0.0
 23
0.0
 33
0.0
 16
1.0
 26
0.0
 36
0.0
 17
0.0
 27
1.0
 37
0.0
 76
     0
330
19
  0
LAYOUT
  5
17
102
{ACAD_REACTORS
330
18
102
}
330
18
100
AcDbPlotSettings
  1

  2
none_device
  4

  6

 40
0.0
 41
0.0
 42
0.0
 43
0.0
 44
0.0
 45
0.0
 46
0.0
 47
0.0
 48
0.0
 49
0.0
140
0.0
141
0.0
142
1.0
143
1.0
 70
  1712
 72
     0
 73
     0
 74
     0
  7

 75
     0
147
1.0
148
0.0
149
0.0
100
AcDbLayout
  1
Model
 70
     1
 71
     0
 10
0.0
 20
0.0
 11
12.0
 21
9.0
 12
0.0
 22
0.0
 32
0.0
 14
378.0211996922373
 24
404.9979999999995
 34
0.0
 15
411.048789616034
 25
424.9579999999997
 35
0.0
146
0.0
 13
0.0
 23
0.0
 33
0.0
 16
1.0
 26
0.0
 36
0.0
 17
0.0
 27
1.0
 37
0.0
 76
     0
330
14
331
25
  0
MATERIAL
  5
4C
102
{ACAD_REACTORS
330
7
102
}
102
{ACAD_XDICTIONARY
360
C6
102
}
330
7
100
AcDbMaterial
  1
ByBlock
  0
MATERIAL
  5
E
102
{ACAD_REACTORS
330
7
102
}
102
{ACAD_XDICTIONARY
360
C2
102
}
330
7
100
AcDbMaterial
  1
ByLayer
  0
MATERIAL
  5
6
102
{ACAD_REACTORS
330
7
102
}
102
{ACAD_XDICTIONARY
360
C4
102
}
330
7
100
AcDbMaterial
  1
Global
  0
MLEADERSTYLE
  5
A2
102
{ACAD_REACTORS
330
9F
102
}
102
{ACAD_XDICTIONARY
360
F9
102
}
330
9F
100
AcDbMLeaderStyle
170
     2
171
     1
172
     0
 90
        2
 40
0.0
 41
0.0
173
     1
 91
-1056964608
340
A
 92
       -2
290
     1
 42
0.09
291
     1
 43
0.36
  3
Standard
341
0
 44
0.18
300

342
C
174
     1
178
     6
175
     1
176
     0
 93
-1056964608
 45
0.18
292
     0
297
     0
 46
0.18
343
0
 94
-1056964608
 47
1.0
 49
1.0
140
1.0
293
     1
141
0.0
294
     1
177
     0
142
1.0
295
     0
296
     0
143
0.125
1001
ACAD_MLEADERVER
1070
     2
  0
MLINESTYLE
  5
11
102
{ACAD_REACTORS
330
12
102
}
330
12
100
AcDbMlineStyle
  2
Standard
 70
     0
  3

 62
   256
 51
90.0
 52
90.0
 71
     2
 49
0.5
 62
   256
  6
BYLAYER
 49
-0.5
 62
   256
  6
BYLAYER
  0
ACDBPLACEHOLDER
  5
3
102
{ACAD_REACTORS
330
4
102
}
330
4
  0
SCALE
  5
4B
102
{ACAD_REACTORS
330
29
102
}
330
29
100
AcDbScale
 70
     0
300
1:1
140
1.0
141
1.0
290
     1
  0
TABLESTYLE
  5
BA
102
{ACAD_REACTORS
330
9E
102
}
330
9E
100
AcDbTableStyle
  3
Standard
 70
     0
 71
     0
 40
0.06
 41
0.06
280
     0
281
     0
  7
Standard
140
0.18
170
     2
 62
     0
 63
   257
283
     0
274
    -2
284
     1
 64
     0
275
    -2
285
     1
 65
     0
276
    -2
286
     1
 66
     0
277
    -2
287
     1
 67
     0
278
    -2
288
     1
 68
     0
279
    -2
289
     1
 69
     0
  7
Standard
140
0.25
170
     5
 62
     0
 63
   257
283
     0
274
    -2
284
     1
 64
     0
275
    -2
285
     1
 65
     0
276
    -2
286
     1
 66
     0
277
    -2
287
     1
 67
     0
278
    -2
288
     1
 68
     0
279
    -2
289
     1
 69
     0
  7
Standard
140
0.18
170
     5
 62
     0
 63
   257
283
     0
274
    -2
284
     1
 64
     0
275
    -2
285
     1
 65
     0
276
    -2
286
     1
 66
     0
277
    -2
287
     1
 67
     0
278
    -2
288
     1
 68
     0
279
    -2
289
     1
 69
     0
  0
VISUALSTYLE
  5
26
102
{ACAD_REACTORS
330
23
102
}
102
{ACAD_XDICTIONARY
360
C8
102
}
330
23
100
AcDbVisualStyle
  2
2dWireframe
 70
     4
 71
     0
 72
     2
 73
     0
 90
        0
 40
-0.6
 41
-30.0
 62
     5
 63
     7
 74
     1
 91
        4
 64
     7
 65
   257
 75
     1
175
     1
 42
1.0
 92
        0
 66
   257
 43
1.0
 76
     1
 77
     6
 78
     2
 67
     7
 79
     5
170
     0
171
     0
290
     0
174
     0
 93
        1
 44
0.0
173
     0
291
     0
 45
0.0
1001
ACAD
1000
AcDbSavedByObjectVersion
1070
     0
  0
VISUALSTYLE
  5
A9
102
{ACAD_REACTORS
330
23
102
}
102
{ACAD_XDICTIONARY
360
D6
102
}
330
23
100
AcDbVisualStyle
  2
Basic
 70
     7
 71
     1
 72
     0
 73
     1
 90
        0
 40
0.6
 41
30.0
 62
     5
 63
     7
 74
     0
 91
        4
 64
     7
 65
   257
 75
     1
175
     1
 42
1.0
 92
        8
 66
     7
 43
1.0
 76
     1
 77
     6
 78
     2
 67
     7
 79
     5
170
     0
171
     0
290
     0
174
     0
 93
        1
 44
0.0
173
     0
291
     1
 45
0.0
1001
ACAD
1000
AcDbSavedByObjectVersion
1070
     0
  0
VISUALSTYLE
  5
AD
102
{ACAD_REACTORS
330
23
102
}
102
{ACAD_XDICTIONARY
360
DE
102
}
330
23
100
AcDbVisualStyle
  2
Brighten
 70
    12
 71
     2
 72
     2
 73
     0
 90
        0
 40
0.6
 41
30.0
 62
     5
 63
     7
 74
     1
 91
        4
 64
     7
 65
   257
 75
     1
175
     1
 42
1.0
 92
        8
 66
     7
 43
1.0
 76
     1
 77
     6
 78
     2
 67
     7
 79
     5
170
     0
171
     0
290
     0
174
     0
 93
        1
 44
50.0
173
     0
291
     1
 45
0.0
1001
ACAD
1000
AcDbSavedByObjectVersion
1070
     0
  0
VISUALSTYLE
  5
B1
102
{ACAD_REACTORS
330
23
102
}
102
{ACAD_XDICTIONARY
360
E6
102
}
330
23
100
AcDbVisualStyle
  2
ColorChange
 70
    16
 71
     2
 72
     2
 73
     3
 90
        0
 40
0.6
 41
30.0
 62
     5
 63
     8
 74
     1
 91
        4
 64
     7
 65
   257
 75
     1
175
     1
 42
1.0
 92
        8
 66
     8
 43
1.0
 76
     1
 77
     6
 78
     2
 67
     7
 79
     5
170
     0
171
     0
290
     0
174
     0
 93
        1
 44
0.0
173
     0
291
     1
 45
0.0
1001
ACAD
1000
AcDbSavedByObjectVersion
1070
     0
  0
VISUALSTYLE
  5
AB
102
{ACAD_REACTORS
330
23
102
}
102
{ACAD_XDICTIONARY
360
DA
102
}
330
23
100
AcDbVisualStyle
  2
Conceptual
 70
     9
 71
     3
 72
     2
 73
     0
 90
        0
 40
0.6
 41
30.0
 62
     5
 63
     7
 74
     2
 91
        2
 64
     7
 65
   257
 75
     1
175
     1
 42
179.0
 92
        8
 66
     7
 43
1.0
 76
     1
 77
     6
 78
     2
 67
     7
 79
     3
170
     0
171
     0
290
     0
174
     0
 93
        1
 44
0.0
173
     0
291
     0
 45
0.0
1001
ACAD
1000
AcDbSavedByObjectVersion
1070
     0
  0
VISUALSTYLE
  5
AC
102
{ACAD_REACTORS
330
23
102
}
102
{ACAD_XDICTIONARY
360
DC
102
}
330
23
100
AcDbVisualStyle
  2
Dim
 70
    11
 71
     2
 72
     2
 73
     0
 90
        0
 40
0.6
 41
30.0
 62
     5
 63
     7
 74
     1
 91
        4
 64
     7
 65
   257
 75
     1
175
     1
 42
1.0
 92
        8
 66
     7
 43
1.0
 76
     1
 77
     6
 78
     2
 67
     7
 79
     5
170
     0
171
     0
290
     0
174
     0
 93
        1
 44
-50.0
173
     0
291
     1
 45
0.0
1001
ACAD
1000
AcDbSavedByObjectVersion
1070
     0
  0
VISUALSTYLE
  5
B4
102
{ACAD_REACTORS
330
23
102
}
102
{ACAD_XDICTIONARY
360
EC
102
}
330
23
100
AcDbVisualStyle
  2
EdgeColorOff
 70
    22
 71
     2
 72
     2
 73
     0
 90
        0
 40
0.6
 41
30.0
 62
     5
 63
     7
 74
     1
 91
        4
 64
     7
 65
   257
 75
     1
175
     1
 42
1.0
 92
        8
 66
     7
 43
1.0
 76
     1
 77
     6
 78
     2
 67
     7
 79
     5
170
     0
171
     0
290
     0
174
     0
 93
        1
 44
0.0
173
     0
291
     1
 45
0.0
1001
ACAD
1000
AcDbSavedByObjectVersion
1070
     0
  0
VISUALSTYLE
  5
B0
102
{ACAD_REACTORS
330
23
102
}
102
{ACAD_XDICTIONARY
360
E4
102
}
330
23
100
AcDbVisualStyle
  2
Facepattern
 70
    15
 71
     2
 72
     2
 73
     0
 90
        0
 40
0.6
 41
30.0
 62
     5
 63
     7
 74
     1
 91
        4
 64
     7
 65
   257
 75
     1
175
     1
 42
1.0
 92
        8
 66
     7
 43
1.0
 76
     1
 77
     6
 78
     2
 67
     7
 79
     5
170
     0
171
     0
290
     0
174
     0
 93
        1
 44
0.0
173
     0
291
     1
 45
0.0
1001
ACAD
1000
AcDbSavedByObjectVersion
1070
     0
  0
VISUALSTYLE
  5
A3
102
{ACAD_REACTORS
330
23
102
}
102
{ACAD_XDICTIONARY
360
CA
102
}
330
23
100
AcDbVisualStyle
  2
Flat
 70
     0
 71
     2
 72
     1
 73
     1
 90
        2
 40
0.6
 41
30.0
 62
     5
 63
     7
 74
     0
 91
        0
 64
     7
 65
   257
 75
     1
175
     1
 42
1.0
 92
        8
 66
     7
 43
1.0
 76
     1
 77
     6
 78
     2
 67
     7
 79
     5
170
     0
171
     0
290
     0
174
     0
 93
       13
 44
0.0
173
     0
291
     1
 45
0.0
1001
ACAD
1000
AcDbSavedByObjectVersion
1070
     0
  0
VISUALSTYLE
  5
A4
102
{ACAD_REACTORS
330
23
102
}
102
{ACAD_XDICTIONARY
360
CC
102
}
330
23
100
AcDbVisualStyle
  2
FlatWithEdges
 70
     1
 71
     2
 72
     1
 73
     1
 90
        2
 40
0.6
 41
30.0
 62
     5
 63
     7
 74
     1
 91
        0
 64
     7
 65
   257
 75
     1
175
     1
 42
1.0
 92
        0
 66
   257
 43
1.0
 76
     1
 77
     6
 78
     2
 67
     7
 79
     5
170
     0
171
     0
290
     0
174
     0
 93
       13
 44
0.0
173
     0
291
     1
 45
0.0
1001
ACAD
1000
AcDbSavedByObjectVersion
1070
     0
  0
VISUALSTYLE
  5
A5
102
{ACAD_REACTORS
330
23
102
}
102
{ACAD_XDICTIONARY
360
CE
102
}
330
23
100
AcDbVisualStyle
  2
Gouraud
 70
     2
 71
     2
 72
     2
 73
     1
 90
        2
 40
0.6
 41
30.0
 62
     5
 63
     7
 74
     0
 91
        0
 64
     7
 65
   257
 75
     1
175
     1
 42
1.0
 92
        0
 66
     7
 43
1.0
 76
     1
 77
     6
 78
     2
 67
     7
 79
     5
170
     0
171
     0
290
     0
174
     0
 93
       13
 44
0.0
173
     0
291
     1
 45
0.0
1001
ACAD
1000
AcDbSavedByObjectVersion
1070
     0
  0
VISUALSTYLE
  5
A6
102
{ACAD_REACTORS
330
23
102
}
102
{ACAD_XDICTIONARY
360
D0
102
}
330
23
100
AcDbVisualStyle
  2
GouraudWithEdges
 70
     3
 71
     2
 72
     2
 73
     1
 90
        2
 40
0.6
 41
30.0
 62
     5
 63
     7
 74
     1
 91
        0
 64
     7
 65
   257
 75
     1
175
     1
 42
1.0
 92
        0
 66
   257
 43
1.0
 76
     1
 77
     6
 78
     2
 67
     7
 79
     5
170
     0
171
     0
290
     0
174
     0
 93
       13
 44
0.0
173
     0
291
     1
 45
0.0
1001
ACAD
1000
AcDbSavedByObjectVersion
1070
     0
  0
VISUALSTYLE
  5
A8
102
{ACAD_REACTORS
330
23
102
}
102
{ACAD_XDICTIONARY
360
D4
102
}
330
23
100
AcDbVisualStyle
  2
Hidden
 70
     6
 71
     1
 72
     2
 73
     2
 90
        0
 40
0.6
 41
30.0
 62
     5
 63
     7
 74
     2
 91
        2
 64
     7
 65
   257
 75
     2
175
     1
 42
40.0
 92
        0
 66
   257
 43
1.0
 76
     1
 77
     6
 78
     2
 67
     7
 79
     3
170
     0
171
     0
290
     0
174
     0
 93
        1
 44
0.0
173
     0
291
     0
 45
0.0
1001
ACAD
1000
AcDbSavedByObjectVersion
1070
     0
  0
VISUALSTYLE
  5
B2
102
{ACAD_REACTORS
330
23
102
}
102
{ACAD_XDICTIONARY
360
E8
102
}
330
23
100
AcDbVisualStyle
  2
JitterOff
 70
    20
 71
     2
 72
     2
 73
     0
 90
        0
 40
0.6
 41
30.0
 62
     5
 63
     7
 74
     1
 91
        4
 64
     7
 65
   257
 75
     1
175
     1
 42
1.0
 92
       10
 66
     7
 43
1.0
 76
     1
 77
     6
 78
     2
 67
     7
 79
     5
170
     0
171
     0
290
     0
174
     0
 93
        1
 44
0.0
173
     0
291
     1
 45
0.0
1001
ACAD
1000
AcDbSavedByObjectVersion
1070
     0
  0
VISUALSTYLE
  5
AF
102
{ACAD_REACTORS
330
23
102
}
102
{ACAD_XDICTIONARY
360
E2
102
}
330
23
100
AcDbVisualStyle
  2
Linepattern
 70
    14
 71
     2
 72
     2
 73
     0
 90
        0
 40
0.6
 41
30.0
 62
     5
 63
     7
 74
     1
 91
        4
 64
     7
 65
   257
 75
     7
175
     7
 42
1.0
 92
        8
 66
     7
 43
1.0
 76
     1
 77
     6
 78
     2
 67
     7
 79
     5
170
     0
171
     0
290
     0
174
     0
 93
        1
 44
0.0
173
     0
291
     1
 45
0.0
1001
ACAD
1000
AcDbSavedByObjectVersion
1070
     0
  0
VISUALSTYLE
  5
B3
102
{ACAD_REACTORS
330
23
102
}
102
{ACAD_XDICTIONARY
360
EA
102
}
330
23
100
AcDbVisualStyle
  2
OverhangOff
 70
    21
 71
     2
 72
     2
 73
     0
 90
        0
 40
0.6
 41
30.0
 62
     5
 63
     7
 74
     1
 91
        4
 64
     7
 65
   257
 75
     1
175
     1
 42
1.0
 92
        9
 66
     7
 43
1.0
 76
     1
 77
     6
 78
     2
 67
     7
 79
     5
170
     0
171
     0
290
     0
174
     0
 93
        1
 44
0.0
173
     0
291
     1
 45
0.0
1001
ACAD
1000
AcDbSavedByObjectVersion
1070
     0
  0
VISUALSTYLE
  5
AA
102
{ACAD_REACTORS
330
23
102
}
102
{ACAD_XDICTIONARY
360
D8
102
}
330
23
100
AcDbVisualStyle
  2
Realistic
 70
     8
 71
     2
 72
     3
 73
     0
 90
        2
 40
0.6
 41
30.0
 62
     5
 63
     7
 74
     0
 91
        0
 64
     7
 65
   257
 75
     1
175
     1
 42
1.0
 92
        8
 66
   257
 43
1.0
 76
     1
 77
     6
 78
     2
 67
     7
 79
     3
170
     0
171
     0
290
     0
174
     0
 93
       13
 44
0.0
173
     0
291
     0
 45
0.0
1001
ACAD
1000
AcDbSavedByObjectVersion
1070
     0
  0
VISUALSTYLE
  5
B9
102
{ACAD_REACTORS
330
23
102
}
102
{ACAD_XDICTIONARY
360
F6
102
}
330
23
100
AcDbVisualStyle
  2
Shaded
 70
    27
 71
     2
 72
     2
 73
     1
 90
        2
 40
0.6
 41
30.0
 62
     5
 63
     7
 74
     0
 91
        4
 64
     7
 65
   257
 75
     1
175
     1
 42
1.0
 92
        8
 66
   257
 43
1.0
 76
     1
 77
     6
 78
     2
 67
     8
 79
     3
170
     0
171
     0
290
     0
174
     0
 93
        5
 44
0.0
173
     0
291
     0
 45
0.0
1001
ACAD
1000
AcDbSavedByObjectVersion
1070
     0
  0
VISUALSTYLE
  5
B8
102
{ACAD_REACTORS
330
23
102
}
102
{ACAD_XDICTIONARY
360
F4
102
}
330
23
100
AcDbVisualStyle
  2
Shaded with edges
 70
    26
 71
     2
 72
     2
 73
     1
 90
        2
 40
0.6
 41
30.0
 62
     5
 63
     7
 74
     1
 91
       10
 64
     7
 65
   257
 75
     2
175
     1
 42
1.0
 92
        8
 66
   257
 43
1.0
 76
     1
 77
     6
 78
     2
 67
     7
 79
     3
170
     0
171
     0
290
     0
174
     0
 93
        5
 44
0.0
173
     0
291
     0
 45
0.0
1001
ACAD
1000
AcDbSavedByObjectVersion
1070
     0
  0
VISUALSTYLE
  5
B5
102
{ACAD_REACTORS
330
23
102
}
102
{ACAD_XDICTIONARY
360
EE
102
}
330
23
100
AcDbVisualStyle
  2
Shades of Gray
 70
    23
 71
     2
 72
     2
 73
     3
 90
        0
 40
0.6
 41
30.0
 62
     5
 63
     7
 74
     2
 91
        2
 64
     7
 65
     7
 75
     1
175
     1
 42
40.0
 92
        8
 66
     7
 43
1.0
 76
     1
 77
     6
 78
     2
 67
     7
 79
     3
170
     0
171
     0
290
     0
174
     0
 93
        1
 44
0.0
173
     0
291
     0
 45
0.0
1001
ACAD
1000
AcDbSavedByObjectVersion
1070
     0
  0
VISUALSTYLE
  5
B6
102
{ACAD_REACTORS
330
23
102
}
102
{ACAD_XDICTIONARY
360
F0
102
}
330
23
100
AcDbVisualStyle
  2
Sketchy
 70
    24
 71
     1
 72
     2
 73
     2
 90
        0
 40
0.6
 41
30.0
 62
     5
 63
     7
 74
     2
 91
        2
 64
     7
 65
     7
 75
     1
175
     1
 42
40.0
 92
       11
 66
     7
 43
1.0
 76
     1
 77
     6
 78
     2
 67
     7
 79
     6
170
     0
171
     0
290
     0
174
     0
 93
        1
 44
0.0
173
     0
291
     0
 45
0.0
1001
ACAD
1000
AcDbSavedByObjectVersion
1070
     0
  0
VISUALSTYLE
  5
AE
102
{ACAD_REACTORS
330
23
102
}
102
{ACAD_XDICTIONARY
360
E0
102
}
330
23
100
AcDbVisualStyle
  2
Thicken
 70
    13
 71
     2
 72
     2
 73
     0
 90
        0
 40
0.6
 41
30.0
 62
     5
 63
     7
 74
     1
 91
        4
 64
     7
 65
   257
 75
     1
175
     1
 42
1.0
 92
       12
 66
     7
 43
1.0
 76
     1
 77
     6
 78
     2
 67
     7
 79
     5
170
     0
171
     0
290
     0
174
     0
 93
        1
 44
0.0
173
     0
291
     1
 45
0.0
1001
ACAD
1000
AcDbSavedByObjectVersion
1070
     0
  0
VISUALSTYLE
  5
A7
102
{ACAD_REACTORS
330
23
102
}
102
{ACAD_XDICTIONARY
360
D2
102
}
330
23
100
AcDbVisualStyle
  2
Wireframe
 70
     5
 71
     0
 72
     2
 73
     0
 90
        0
 40
0.6
 41
30.0
 62
     5
 63
     7
 74
     1
 91
        4
 64
     7
 65
   257
 75
     1
175
     1
 42
1.0
 92
        0
 66
   257
 43
1.0
 76
     1
 77
     6
 78
     2
 67
     7
 79
     3
170
     0
171
     0
290
     0
174
     0
 93
        1
 44
0.0
173
     0
291
     0
 45
0.0
1001
ACAD
1000
AcDbSavedByObjectVersion
1070
     0
  0
VISUALSTYLE
  5
B7
102
{ACAD_REACTORS
330
23
102
}
102
{ACAD_XDICTIONARY
360
F2
102
}
330
23
100
AcDbVisualStyle
  2
X-Ray
 70
    25
 71
     2
 72
     2
 73
     1
 90
        1
 40
0.5
 41
30.0
 62
     5
 63
     7
 74
     1
 91
        0
 64
     7
 65
   257
 75
     1
175
     1
 42
1.0
 92
        8
 66
     7
 43
1.0
 76
     1
 77
     6
 78
     2
 67
     7
 79
     3
170
     0
171
     0
290
     0
174
     0
 93
       13
 44
0.0
173
     0
291
     0
 45
0.0
1001
ACAD
1000
AcDbSavedByObjectVersion
1070
     0
  0
DICTIONARYVAR
  5
9D
102
{ACAD_REACTORS
330
9C
102
}
330
9C
100
DictionaryVariables
280
     0
  1
1:1
  0
DICTIONARYVAR
  5
BC
102
{ACAD_REACTORS
330
9C
102
}
330
9C
100
DictionaryVariables
280
     0
  1
Standard
  0
DICTIONARYVAR
  5
BB
102
{ACAD_REACTORS
330
9C
102
}
330
9C
100
DictionaryVariables
280
     0
  1
Standard
  0
DICTIONARYVAR
  5
BD
102
{ACAD_REACTORS
330
9C
102
}
330
9C
100
DictionaryVariables
280
     0
  1
2
  0
DICTIONARYVAR
  5
BE
102
{ACAD_REACTORS
330
9C
102
}
330
9C
100
DictionaryVariables
280
     0
  1
1
  0
DICTIONARYVAR
  5
C1
102
{ACAD_REACTORS
330
9C
102
}
330
9C
100
DictionaryVariables
280
     0
  1
1
  0
DICTIONARY
  5
C6
330
4C
100
AcDbDictionary
280
     1
281
     1
  3
ACAD_XREC_ROUNDTRIP
360
C7
  0
DICTIONARY
  5
C2
330
E
100
AcDbDictionary
280
     1
281
     1
  3
ACAD_XREC_ROUNDTRIP
360
C3
  0
DICTIONARY
  5
C4
330
6
100
AcDbDictionary
280
     1
281
     1
  3
ACAD_XREC_ROUNDTRIP
360
C5
  0
DICTIONARY
  5
F9
330
A2
100
AcDbDictionary
280
     1
281
     1
  3
ACAD_XREC_ROUNDTRIP
360
FA
  0
DICTIONARY
  5
C8
330
26
100
AcDbDictionary
280
     1
281
     1
  3
ACAD_XREC_ROUNDTRIP
360
C9
  0
DICTIONARY
  5
D6
330
A9
100
AcDbDictionary
280
     1
281
     1
  3
ACAD_XREC_ROUNDTRIP
360
D7
  0
DICTIONARY
  5
DE
330
AD
100
AcDbDictionary
280
     1
281
     1
  3
ACAD_XREC_ROUNDTRIP
360
DF
  0
DICTIONARY
  5
E6
330
B1
100
AcDbDictionary
280
     1
281
     1
  3
ACAD_XREC_ROUNDTRIP
360
E7
  0
DICTIONARY
  5
DA
330
AB
100
AcDbDictionary
280
     1
281
     1
  3
ACAD_XREC_ROUNDTRIP
360
DB
  0
DICTIONARY
  5
DC
330
AC
100
AcDbDictionary
280
     1
281
     1
  3
ACAD_XREC_ROUNDTRIP
360
DD
  0
DICTIONARY
  5
EC
330
B4
100
AcDbDictionary
280
     1
281
     1
  3
ACAD_XREC_ROUNDTRIP
360
ED
  0
DICTIONARY
  5
E4
330
B0
100
AcDbDictionary
280
     1
281
     1
  3
ACAD_XREC_ROUNDTRIP
360
E5
  0
DICTIONARY
  5
CA
330
A3
100
AcDbDictionary
280
     1
281
     1
  3
ACAD_XREC_ROUNDTRIP
360
CB
  0
DICTIONARY
  5
CC
330
A4
100
AcDbDictionary
280
     1
281
     1
  3
ACAD_XREC_ROUNDTRIP
360
CD
  0
DICTIONARY
  5
CE
330
A5
100
AcDbDictionary
280
     1
281
     1
  3
ACAD_XREC_ROUNDTRIP
360
CF
  0
DICTIONARY
  5
D0
330
A6
100
AcDbDictionary
280
     1
281
     1
  3
ACAD_XREC_ROUNDTRIP
360
D1
  0
DICTIONARY
  5
D4
330
A8
100
AcDbDictionary
280
     1
281
     1
  3
ACAD_XREC_ROUNDTRIP
360
D5
  0
DICTIONARY
  5
E8
330
B2
100
AcDbDictionary
280
     1
281
     1
  3
ACAD_XREC_ROUNDTRIP
360
E9
  0
DICTIONARY
  5
E2
330
AF
100
AcDbDictionary
280
     1
281
     1
  3
ACAD_XREC_ROUNDTRIP
360
E3
  0
DICTIONARY
  5
EA
330
B3
100
AcDbDictionary
280
     1
281
     1
  3
ACAD_XREC_ROUNDTRIP
360
EB
  0
DICTIONARY
  5
D8
330
AA
100
AcDbDictionary
280
     1
281
     1
  3
ACAD_XREC_ROUNDTRIP
360
D9
  0
DICTIONARY
  5
F6
330
B9
100
AcDbDictionary
280
     1
281
     1
  3
ACAD_XREC_ROUNDTRIP
360
F7
  0
DICTIONARY
  5
F4
330
B8
100
AcDbDictionary
280
     1
281
     1
  3
ACAD_XREC_ROUNDTRIP
360
F5
  0
DICTIONARY
  5
EE
330
B5
100
AcDbDictionary
280
     1
281
     1
  3
ACAD_XREC_ROUNDTRIP
360
EF
  0
DICTIONARY
  5
F0
330
B6
100
AcDbDictionary
280
     1
281
     1
  3
ACAD_XREC_ROUNDTRIP
360
F1
  0
DICTIONARY
  5
E0
330
AE
100
AcDbDictionary
280
     1
281
     1
  3
ACAD_XREC_ROUNDTRIP
360
E1
  0
DICTIONARY
  5
D2
330
A7
100
AcDbDictionary
280
     1
281
     1
  3
ACAD_XREC_ROUNDTRIP
360
D3
  0
DICTIONARY
  5
F2
330
B7
100
AcDbDictionary
280
     1
281
     1
  3
ACAD_XREC_ROUNDTRIP
360
F3
  0
XRECORD
  5
C7
102
{ACAD_REACTORS
330
C6
102
}
330
C6
100
AcDbXrecord
280
     1
102
MATERIAL
148
0.0
149
0.0
149
0.0
 93
        0
 94
      127
282
     0
 72
     1
 77
     1
171
     1
175
     1
179
     1
273
     0
  0
XRECORD
  5
C3
102
{ACAD_REACTORS
330
C2
102
}
330
C2
100
AcDbXrecord
280
     1
102
MATERIAL
148
0.0
149
0.0
149
0.0
 93
        0
 94
      127
282
     0
 72
     1
 77
     1
171
     1
175
     1
179
     1
273
     0
  0
XRECORD
  5
C5
102
{ACAD_REACTORS
330
C4
102
}
330
C4
100
AcDbXrecord
280
     1
102
MATERIAL
148
0.0
149
0.0
149
0.0
 93
        0
 94
      127
282
     0
 72
     1
 77
     1
171
     1
175
     1
179
     1
273
     0
  0
XRECORD
  5
FA
102
{ACAD_REACTORS
330
F9
102
}
330
F9
100
AcDbXrecord
280
     1
102
ACAD_ROUNDTRIP_2010_MLEADER_STYLE
  0
XRECORD
  5
C9
102
{ACAD_REACTORS
330
C8
102
}
330
C8
100
AcDbXrecord
280
     1
102
RTVSPropertyOp0
 70
     1
102
RTVSPropertyOp1
 70
     1
102
RTVSPropertyOp2
 70
     1
102
RTVSPropertyOp3
 70
     1
102
RTVSPropertyOp4
 70
     1
102
RTVSPropertyOp5
 70
     1
102
RTVSPropertyOp6
 70
     1
102
RTVSPropertyOp7
 70
     1
102
RTVSPropertyOp8
 70
     1
102
RTVSPropertyOp9
 70
     1
102
RTVSPropertyOp10
 70
     1
102
RTVSPropertyOp11
 70
     1
102
RTVSPropertyOp12
 70
     1
102
RTVSPropertyOp13
 70
     1
102
RTVSPropertyOp14
 70
     1
102
RTVSPropertyOp15
 70
     1
102
RTVSPropertyOp16
 70
     1
102
RTVSPropertyOp17
 70
     1
102
RTVSPropertyOp18
 70
     1
102
RTVSPropertyOp19
 70
     1
102
RTVSPropertyOp20
 70
     1
102
RTVSPropertyOp21
 70
     1
102
RTVSPropertyOp22
 70
     1
102
RTVSPropertyOp23
 70
     1
102
RTVSPropertyOp24
 70
     1
102
RTVSPropertyOp25
 70
     1
102
RTVSPropertyOp26
 70
     1
102
RTVSPropertyOp27
 70
     1
102
RTVSPropertyOp28
 70
     1
102
RTVSPropertyOp29
 70
     1
102
RTVSPropertyOp30
 70
     1
102
RTVSPropertyOp31
 70
     1
102
RTVSPropertyOp32
 70
     1
102
RTVSPropertyOp33
 70
     1
102
RTVSPropertyOp34
 70
     1
102
RTVSPropertyOp35
 70
     1
102
RTVSPropertyOp36
 70
     1
102
RTVSPropertyOp37
 70
     1
102
RTVSPropertyOp38
 70
     1
102
RTVSPropertyOp39
 70
     1
102
RTVSPropertyOp40
 70
     1
102
RTVSPropertyOp41
 70
     1
102
RTVSPropertyOp42
 70
     1
102
RTVSPropertyOp43
 70
     1
102
RTVSPropertyOp44
 70
     1
102
RTVSPropertyOp45
 70
     1
102
RTVSPropertyOp46
 70
     1
102
RTVSPropertyOp47
 70
     1
102
RTVSPropertyOp48
 70
     1
102
RTVSPropertyOp49
 70
     1
102
RTVSPropertyOp50
 70
     1
102
RTVSPropertyOp51
 70
     0
102
RTVSPropertyOp52
 70
     0
102
RTVSPropertyOp53
 70
     1
102
RTVSPropertyOp54
 70
     1
102
RTVSPropertyOp55
 70
     1
102
RTVSPropertyOp56
 70
     1
102
RTVSPropertyOp57
 70
     1
102
RTVSPost2010Prop28
280
     1
102
RTVSPost2010PropOp28
 70
     1
102
RTVSPost2010Prop29
280
     1
102
RTVSPost2010PropOp29
 70
     1
102
RTVSPost2010Prop30
280
     0
102
RTVSPost2010PropOp30
 70
     1
102
RTVSPost2010Prop31
280
     0
102
RTVSPost2010PropOp31
 70
     1
102
RTVSPost2010Prop32
280
     0
102
RTVSPost2010PropOp32
 70
     1
102
RTVSPost2010Prop33
280
     0
102
RTVSPost2010PropOp33
 70
     1
102
RTVSPost2010Prop34
280
     0
102
RTVSPost2010PropOp34
 70
     1
102
RTVSPost2010Prop35
280
     0
102
RTVSPost2010PropOp35
 70
     1
102
RTVSPost2010Prop36
280
     0
102
RTVSPost2010PropOp36
 70
     1
102
RTVSPost2010Prop37
 90
       50
102
RTVSPost2010PropOp37
 70
     1
102
RTVSPost2010Prop38
140
0.0
102
RTVSPost2010PropOp38
 70
     1
102
RTVSPost2010Prop39
140
1.0
102
RTVSPost2010PropOp39
 70
     1
102
RTVSPost2010Prop40
 90
        0
102
RTVSPost2010PropOp40
 70
     1
102
RTVSPost2010Prop41ColorIndex
 90
       18
102
RTVSPost2010Prop41ColorRGB
 90
        0
102
RTVSPost2010PropOp41
 70
     1
102
RTVSPost2010Prop42
 90
       50
102
RTVSPost2010PropOp42
 70
     1
102
RTVSPost2010Prop43
 90
        3
102
RTVSPost2010PropOp43
 70
     1
102
RTVSPost2010Prop44ColorIndex
 90
        5
102
RTVSPost2010Prop44ColorRGB
 90
      255
102
RTVSPost2010PropOp44
 70
     1
102
RTVSPost2010Prop45
280
     0
102
RTVSPost2010PropOp45
 70
     1
102
RTVSPost2010Prop46
 90
       50
102
RTVSPost2010PropOp46
 70
     1
102
RTVSPost2010Prop47
 90
       50
102
RTVSPost2010PropOp47
 70
     1
102
RTVSPost2010Prop48
 90
       50
102
RTVSPost2010PropOp48
 70
     1
102
RTVSPost2010Prop49
280
     0
102
RTVSPost2010PropOp49
 70
     1
102
RTVSPost2010Prop50
 90
       50
102
RTVSPost2010PropOp50
 70
     1
102
RTVSPost2010Prop51ColorIndex
 90
      256
102
RTVSPost2010Prop51ColorRGB
 90
-16777216
102
RTVSPost2010PropOp51
 70
     0
102
RTVSPost2010Prop52
140
1.0
102
RTVSPost2010PropOp52
 70
     0
102
RTVSPost2010Prop53
 90
        2
102
RTVSPost2010PropOp53
 70
     1
102
RTVSPost2010Prop54
  1
strokes_ogs.tif
102
RTVSPost2010PropOp54
 70
     1
102
RTVSPost2010Prop55
280
     0
102
RTVSPost2010PropOp55
 70
     1
102
RTVSPost2010Prop56
140
1.0
102
RTVSPost2010PropOp56
 70
     1
102
RTVSPost2010Prop57
140
1.0
102
RTVSPost2010PropOp57
 70
     1
  0
XRECORD
  5
D7
102
{ACAD_REACTORS
330
D6
102
}
330
D6
100
AcDbXrecord
280
     1
102
RTVSPropertyOp0
 70
     1
102
RTVSPropertyOp1
 70
     1
102
RTVSPropertyOp2
 70
     1
102
RTVSPropertyOp3
 70
     1
102
RTVSPropertyOp4
 70
     1
102
RTVSPropertyOp5
 70
     1
102
RTVSPropertyOp6
 70
     1
102
RTVSPropertyOp7
 70
     1
102
RTVSPropertyOp8
 70
     1
102
RTVSPropertyOp9
 70
     1
102
RTVSPropertyOp10
 70
     1
102
RTVSPropertyOp11
 70
     1
102
RTVSPropertyOp12
 70
     1
102
RTVSPropertyOp13
 70
     1
102
RTVSPropertyOp14
 70
     1
102
RTVSPropertyOp15
 70
     1
102
RTVSPropertyOp16
 70
     1
102
RTVSPropertyOp17
 70
     1
102
RTVSPropertyOp18
 70
     1
102
RTVSPropertyOp19
 70
     1
102
RTVSPropertyOp20
 70
     1
102
RTVSPropertyOp21
 70
     1
102
RTVSPropertyOp22
 70
     1
102
RTVSPropertyOp23
 70
     1
102
RTVSPropertyOp24
 70
     1
102
RTVSPropertyOp25
 70
     1
102
RTVSPropertyOp26
 70
     1
102
RTVSPropertyOp27
 70
     1
102
RTVSPropertyOp28
 70
     1
102
RTVSPropertyOp29
 70
     1
102
RTVSPropertyOp30
 70
     1
102
RTVSPropertyOp31
 70
     1
102
RTVSPropertyOp32
 70
     1
102
RTVSPropertyOp33
 70
     1
102
RTVSPropertyOp34
 70
     1
102
RTVSPropertyOp35
 70
     1
102
RTVSPropertyOp36
 70
     1
102
RTVSPropertyOp37
 70
     1
102
RTVSPropertyOp38
 70
     1
102
RTVSPropertyOp39
 70
     1
102
RTVSPropertyOp40
 70
     1
102
RTVSPropertyOp41
 70
     1
102
RTVSPropertyOp42
 70
     1
102
RTVSPropertyOp43
 70
     1
102
RTVSPropertyOp44
 70
     1
102
RTVSPropertyOp45
 70
     1
102
RTVSPropertyOp46
 70
     1
102
RTVSPropertyOp47
 70
     1
102
RTVSPropertyOp48
 70
     1
102
RTVSPropertyOp49
 70
     1
102
RTVSPropertyOp50
 70
     1
102
RTVSPropertyOp51
 70
     0
102
RTVSPropertyOp52
 70
     0
102
RTVSPropertyOp53
 70
     1
102
RTVSPropertyOp54
 70
     1
102
RTVSPropertyOp55
 70
     1
102
RTVSPropertyOp56
 70
     1
102
RTVSPropertyOp57
 70
     1
102
RTVSPost2010Prop28
280
     0
102
RTVSPost2010PropOp28
 70
     1
102
RTVSPost2010Prop29
280
     1
102
RTVSPost2010PropOp29
 70
     1
102
RTVSPost2010Prop30
280
     1
102
RTVSPost2010PropOp30
 70
     1
102
RTVSPost2010Prop31
280
     0
102
RTVSPost2010PropOp31
 70
     1
102
RTVSPost2010Prop32
280
     0
102
RTVSPost2010PropOp32
 70
     1
102
RTVSPost2010Prop33
280
     0
102
RTVSPost2010PropOp33
 70
     1
102
RTVSPost2010Prop34
280
     0
102
RTVSPost2010PropOp34
 70
     1
102
RTVSPost2010Prop35
280
     0
102
RTVSPost2010PropOp35
 70
     1
102
RTVSPost2010Prop36
280
     0
102
RTVSPost2010PropOp36
 70
     1
102
RTVSPost2010Prop37
 90
       50
102
RTVSPost2010PropOp37
 70
     1
102
RTVSPost2010Prop38
140
0.0
102
RTVSPost2010PropOp38
 70
     1
102
RTVSPost2010Prop39
140
1.0
102
RTVSPost2010PropOp39
 70
     1
102
RTVSPost2010Prop40
 90
        0
102
RTVSPost2010PropOp40
 70
     1
102
RTVSPost2010Prop41ColorIndex
 90
       18
102
RTVSPost2010Prop41ColorRGB
 90
        0
102
RTVSPost2010PropOp41
 70
     1
102
RTVSPost2010Prop42
 90
       50
102
RTVSPost2010PropOp42
 70
     1
102
RTVSPost2010Prop43
 90
        3
102
RTVSPost2010PropOp43
 70
     1
102
RTVSPost2010Prop44ColorIndex
 90
        5
102
RTVSPost2010Prop44ColorRGB
 90
      255
102
RTVSPost2010PropOp44
 70
     1
102
RTVSPost2010Prop45
280
     0
102
RTVSPost2010PropOp45
 70
     1
102
RTVSPost2010Prop46
 90
       50
102
RTVSPost2010PropOp46
 70
     1
102
RTVSPost2010Prop47
 90
       50
102
RTVSPost2010PropOp47
 70
     1
102
RTVSPost2010Prop48
 90
       50
102
RTVSPost2010PropOp48
 70
     1
102
RTVSPost2010Prop49
280
     0
102
RTVSPost2010PropOp49
 70
     1
102
RTVSPost2010Prop50
 90
       50
102
RTVSPost2010PropOp50
 70
     1
102
RTVSPost2010Prop51ColorIndex
 90
      256
102
RTVSPost2010Prop51ColorRGB
 90
-16777216
102
RTVSPost2010PropOp51
 70
     0
102
RTVSPost2010Prop52
140
1.0
102
RTVSPost2010PropOp52
 70
     0
102
RTVSPost2010Prop53
 90
        2
102
RTVSPost2010PropOp53
 70
     1
102
RTVSPost2010Prop54
  1
strokes_ogs.tif
102
RTVSPost2010PropOp54
 70
     1
102
RTVSPost2010Prop55
280
     0
102
RTVSPost2010PropOp55
 70
     1
102
RTVSPost2010Prop56
140
1.0
102
RTVSPost2010PropOp56
 70
     1
102
RTVSPost2010Prop57
140
1.0
102
RTVSPost2010PropOp57
 70
     1
  0
XRECORD
  5
DF
102
{ACAD_REACTORS
330
DE
102
}
330
DE
100
AcDbXrecord
280
     1
102
RTVSPropertyOp0
 70
     1
102
RTVSPropertyOp1
 70
     1
102
RTVSPropertyOp2
 70
     1
102
RTVSPropertyOp3
 70
     1
102
RTVSPropertyOp4
 70
     1
102
RTVSPropertyOp5
 70
     1
102
RTVSPropertyOp6
 70
     1
102
RTVSPropertyOp7
 70
     1
102
RTVSPropertyOp8
 70
     1
102
RTVSPropertyOp9
 70
     1
102
RTVSPropertyOp10
 70
     1
102
RTVSPropertyOp11
 70
     1
102
RTVSPropertyOp12
 70
     1
102
RTVSPropertyOp13
 70
     1
102
RTVSPropertyOp14
 70
     1
102
RTVSPropertyOp15
 70
     1
102
RTVSPropertyOp16
 70
     1
102
RTVSPropertyOp17
 70
     1
102
RTVSPropertyOp18
 70
     1
102
RTVSPropertyOp19
 70
     1
102
RTVSPropertyOp20
 70
     1
102
RTVSPropertyOp21
 70
     1
102
RTVSPropertyOp22
 70
     1
102
RTVSPropertyOp23
 70
     1
102
RTVSPropertyOp24
 70
     1
102
RTVSPropertyOp25
 70
     1
102
RTVSPropertyOp26
 70
     1
102
RTVSPropertyOp27
 70
     1
102
RTVSPropertyOp28
 70
     1
102
RTVSPropertyOp29
 70
     1
102
RTVSPropertyOp30
 70
     1
102
RTVSPropertyOp31
 70
     1
102
RTVSPropertyOp32
 70
     1
102
RTVSPropertyOp33
 70
     1
102
RTVSPropertyOp34
 70
     1
102
RTVSPropertyOp35
 70
     1
102
RTVSPropertyOp36
 70
     1
102
RTVSPropertyOp37
 70
     1
102
RTVSPropertyOp38
 70
     1
102
RTVSPropertyOp39
 70
     1
102
RTVSPropertyOp40
 70
     1
102
RTVSPropertyOp41
 70
     1
102
RTVSPropertyOp42
 70
     1
102
RTVSPropertyOp43
 70
     1
102
RTVSPropertyOp44
 70
     1
102
RTVSPropertyOp45
 70
     1
102
RTVSPropertyOp46
 70
     1
102
RTVSPropertyOp47
 70
     1
102
RTVSPropertyOp48
 70
     1
102
RTVSPropertyOp49
 70
     1
102
RTVSPropertyOp50
 70
     1
102
RTVSPropertyOp51
 70
     0
102
RTVSPropertyOp52
 70
     0
102
RTVSPropertyOp53
 70
     1
102
RTVSPropertyOp54
 70
     1
102
RTVSPropertyOp55
 70
     1
102
RTVSPropertyOp56
 70
     1
102
RTVSPropertyOp57
 70
     1
102
RTVSPost2010Prop28
280
     0
102
RTVSPost2010PropOp28
 70
     1
102
RTVSPost2010Prop29
280
     1
102
RTVSPost2010PropOp29
 70
     1
102
RTVSPost2010Prop30
280
     1
102
RTVSPost2010PropOp30
 70
     1
102
RTVSPost2010Prop31
280
     0
102
RTVSPost2010PropOp31
 70
     1
102
RTVSPost2010Prop32
280
     0
102
RTVSPost2010PropOp32
 70
     1
102
RTVSPost2010Prop33
280
     0
102
RTVSPost2010PropOp33
 70
     1
102
RTVSPost2010Prop34
280
     0
102
RTVSPost2010PropOp34
 70
     1
102
RTVSPost2010Prop35
280
     0
102
RTVSPost2010PropOp35
 70
     1
102
RTVSPost2010Prop36
280
     0
102
RTVSPost2010PropOp36
 70
     1
102
RTVSPost2010Prop37
 90
       50
102
RTVSPost2010PropOp37
 70
     1
102
RTVSPost2010Prop38
140
0.0
102
RTVSPost2010PropOp38
 70
     1
102
RTVSPost2010Prop39
140
1.0
102
RTVSPost2010PropOp39
 70
     1
102
RTVSPost2010Prop40
 90
        0
102
RTVSPost2010PropOp40
 70
     1
102
RTVSPost2010Prop41ColorIndex
 90
       18
102
RTVSPost2010Prop41ColorRGB
 90
        0
102
RTVSPost2010PropOp41
 70
     1
102
RTVSPost2010Prop42
 90
       50
102
RTVSPost2010PropOp42
 70
     1
102
RTVSPost2010Prop43
 90
        3
102
RTVSPost2010PropOp43
 70
     1
102
RTVSPost2010Prop44ColorIndex
 90
        5
102
RTVSPost2010Prop44ColorRGB
 90
      255
102
RTVSPost2010PropOp44
 70
     1
102
RTVSPost2010Prop45
280
     0
102
RTVSPost2010PropOp45
 70
     1
102
RTVSPost2010Prop46
 90
       50
102
RTVSPost2010PropOp46
 70
     1
102
RTVSPost2010Prop47
 90
       50
102
RTVSPost2010PropOp47
 70
     1
102
RTVSPost2010Prop48
 90
       50
102
RTVSPost2010PropOp48
 70
     1
102
RTVSPost2010Prop49
280
     0
102
RTVSPost2010PropOp49
 70
     1
102
RTVSPost2010Prop50
 90
       50
102
RTVSPost2010PropOp50
 70
     1
102
RTVSPost2010Prop51ColorIndex
 90
      256
102
RTVSPost2010Prop51ColorRGB
 90
-16777216
102
RTVSPost2010PropOp51
 70
     0
102
RTVSPost2010Prop52
140
1.0
102
RTVSPost2010PropOp52
 70
     0
102
RTVSPost2010Prop53
 90
        2
102
RTVSPost2010PropOp53
 70
     1
102
RTVSPost2010Prop54
  1
strokes_ogs.tif
102
RTVSPost2010PropOp54
 70
     1
102
RTVSPost2010Prop55
280
     0
102
RTVSPost2010PropOp55
 70
     1
102
RTVSPost2010Prop56
140
1.0
102
RTVSPost2010PropOp56
 70
     1
102
RTVSPost2010Prop57
140
1.0
102
RTVSPost2010PropOp57
 70
     1
  0
XRECORD
  5
E7
102
{ACAD_REACTORS
330
E6
102
}
330
E6
100
AcDbXrecord
280
     1
102
RTVSPropertyOp0
 70
     1
102
RTVSPropertyOp1
 70
     1
102
RTVSPropertyOp2
 70
     1
102
RTVSPropertyOp3
 70
     1
102
RTVSPropertyOp4
 70
     1
102
RTVSPropertyOp5
 70
     1
102
RTVSPropertyOp6
 70
     1
102
RTVSPropertyOp7
 70
     1
102
RTVSPropertyOp8
 70
     1
102
RTVSPropertyOp9
 70
     1
102
RTVSPropertyOp10
 70
     1
102
RTVSPropertyOp11
 70
     1
102
RTVSPropertyOp12
 70
     1
102
RTVSPropertyOp13
 70
     1
102
RTVSPropertyOp14
 70
     1
102
RTVSPropertyOp15
 70
     1
102
RTVSPropertyOp16
 70
     1
102
RTVSPropertyOp17
 70
     1
102
RTVSPropertyOp18
 70
     1
102
RTVSPropertyOp19
 70
     1
102
RTVSPropertyOp20
 70
     1
102
RTVSPropertyOp21
 70
     1
102
RTVSPropertyOp22
 70
     1
102
RTVSPropertyOp23
 70
     1
102
RTVSPropertyOp24
 70
     1
102
RTVSPropertyOp25
 70
     1
102
RTVSPropertyOp26
 70
     1
102
RTVSPropertyOp27
 70
     1
102
RTVSPropertyOp28
 70
     1
102
RTVSPropertyOp29
 70
     1
102
RTVSPropertyOp30
 70
     1
102
RTVSPropertyOp31
 70
     1
102
RTVSPropertyOp32
 70
     1
102
RTVSPropertyOp33
 70
     1
102
RTVSPropertyOp34
 70
     1
102
RTVSPropertyOp35
 70
     1
102
RTVSPropertyOp36
 70
     1
102
RTVSPropertyOp37
 70
     1
102
RTVSPropertyOp38
 70
     1
102
RTVSPropertyOp39
 70
     1
102
RTVSPropertyOp40
 70
     1
102
RTVSPropertyOp41
 70
     1
102
RTVSPropertyOp42
 70
     1
102
RTVSPropertyOp43
 70
     1
102
RTVSPropertyOp44
 70
     1
102
RTVSPropertyOp45
 70
     1
102
RTVSPropertyOp46
 70
     1
102
RTVSPropertyOp47
 70
     1
102
RTVSPropertyOp48
 70
     1
102
RTVSPropertyOp49
 70
     1
102
RTVSPropertyOp50
 70
     1
102
RTVSPropertyOp51
 70
     0
102
RTVSPropertyOp52
 70
     0
102
RTVSPropertyOp53
 70
     1
102
RTVSPropertyOp54
 70
     1
102
RTVSPropertyOp55
 70
     1
102
RTVSPropertyOp56
 70
     1
102
RTVSPropertyOp57
 70
     1
102
RTVSPost2010Prop28
280
     0
102
RTVSPost2010PropOp28
 70
     1
102
RTVSPost2010Prop29
280
     1
102
RTVSPost2010PropOp29
 70
     1
102
RTVSPost2010Prop30
280
     1
102
RTVSPost2010PropOp30
 70
     1
102
RTVSPost2010Prop31
280
     0
102
RTVSPost2010PropOp31
 70
     1
102
RTVSPost2010Prop32
280
     0
102
RTVSPost2010PropOp32
 70
     1
102
RTVSPost2010Prop33
280
     0
102
RTVSPost2010PropOp33
 70
     1
102
RTVSPost2010Prop34
280
     0
102
RTVSPost2010PropOp34
 70
     1
102
RTVSPost2010Prop35
280
     0
102
RTVSPost2010PropOp35
 70
     1
102
RTVSPost2010Prop36
280
     0
102
RTVSPost2010PropOp36
 70
     1
102
RTVSPost2010Prop37
 90
       50
102
RTVSPost2010PropOp37
 70
     1
102
RTVSPost2010Prop38
140
0.0
102
RTVSPost2010PropOp38
 70
     1
102
RTVSPost2010Prop39
140
1.0
102
RTVSPost2010PropOp39
 70
     1
102
RTVSPost2010Prop40
 90
        0
102
RTVSPost2010PropOp40
 70
     1
102
RTVSPost2010Prop41ColorIndex
 90
       18
102
RTVSPost2010Prop41ColorRGB
 90
        0
102
RTVSPost2010PropOp41
 70
     1
102
RTVSPost2010Prop42
 90
       50
102
RTVSPost2010PropOp42
 70
     1
102
RTVSPost2010Prop43
 90
        3
102
RTVSPost2010PropOp43
 70
     1
102
RTVSPost2010Prop44ColorIndex
 90
        5
102
RTVSPost2010Prop44ColorRGB
 90
      255
102
RTVSPost2010PropOp44
 70
     1
102
RTVSPost2010Prop45
280
     0
102
RTVSPost2010PropOp45
 70
     1
102
RTVSPost2010Prop46
 90
       50
102
RTVSPost2010PropOp46
 70
     1
102
RTVSPost2010Prop47
 90
       50
102
RTVSPost2010PropOp47
 70
     1
102
RTVSPost2010Prop48
 90
       50
102
RTVSPost2010PropOp48
 70
     1
102
RTVSPost2010Prop49
280
     0
102
RTVSPost2010PropOp49
 70
     1
102
RTVSPost2010Prop50
 90
       50
102
RTVSPost2010PropOp50
 70
     1
102
RTVSPost2010Prop51ColorIndex
 90
      256
102
RTVSPost2010Prop51ColorRGB
 90
-16777216
102
RTVSPost2010PropOp51
 70
     0
102
RTVSPost2010Prop52
140
1.0
102
RTVSPost2010PropOp52
 70
     0
102
RTVSPost2010Prop53
 90
        2
102
RTVSPost2010PropOp53
 70
     1
102
RTVSPost2010Prop54
  1
strokes_ogs.tif
102
RTVSPost2010PropOp54
 70
     1
102
RTVSPost2010Prop55
280
     0
102
RTVSPost2010PropOp55
 70
     1
102
RTVSPost2010Prop56
140
1.0
102
RTVSPost2010PropOp56
 70
     1
102
RTVSPost2010Prop57
140
1.0
102
RTVSPost2010PropOp57
 70
     1
  0
XRECORD
  5
DB
102
{ACAD_REACTORS
330
DA
102
}
330
DA
100
AcDbXrecord
280
     1
102
RTVSPropertyOp0
 70
     1
102
RTVSPropertyOp1
 70
     1
102
RTVSPropertyOp2
 70
     1
102
RTVSPropertyOp3
 70
     1
102
RTVSPropertyOp4
 70
     1
102
RTVSPropertyOp5
 70
     1
102
RTVSPropertyOp6
 70
     1
102
RTVSPropertyOp7
 70
     1
102
RTVSPropertyOp8
 70
     1
102
RTVSPropertyOp9
 70
     1
102
RTVSPropertyOp10
 70
     1
102
RTVSPropertyOp11
 70
     1
102
RTVSPropertyOp12
 70
     1
102
RTVSPropertyOp13
 70
     1
102
RTVSPropertyOp14
 70
     1
102
RTVSPropertyOp15
 70
     1
102
RTVSPropertyOp16
 70
     1
102
RTVSPropertyOp17
 70
     1
102
RTVSPropertyOp18
 70
     1
102
RTVSPropertyOp19
 70
     1
102
RTVSPropertyOp20
 70
     1
102
RTVSPropertyOp21
 70
     1
102
RTVSPropertyOp22
 70
     1
102
RTVSPropertyOp23
 70
     1
102
RTVSPropertyOp24
 70
     1
102
RTVSPropertyOp25
 70
     1
102
RTVSPropertyOp26
 70
     1
102
RTVSPropertyOp27
 70
     1
102
RTVSPropertyOp28
 70
     1
102
RTVSPropertyOp29
 70
     1
102
RTVSPropertyOp30
 70
     1
102
RTVSPropertyOp31
 70
     1
102
RTVSPropertyOp32
 70
     1
102
RTVSPropertyOp33
 70
     1
102
RTVSPropertyOp34
 70
     1
102
RTVSPropertyOp35
 70
     1
102
RTVSPropertyOp36
 70
     1
102
RTVSPropertyOp37
 70
     1
102
RTVSPropertyOp38
 70
     1
102
RTVSPropertyOp39
 70
     1
102
RTVSPropertyOp40
 70
     1
102
RTVSPropertyOp41
 70
     1
102
RTVSPropertyOp42
 70
     1
102
RTVSPropertyOp43
 70
     1
102
RTVSPropertyOp44
 70
     1
102
RTVSPropertyOp45
 70
     1
102
RTVSPropertyOp46
 70
     1
102
RTVSPropertyOp47
 70
     1
102
RTVSPropertyOp48
 70
     1
102
RTVSPropertyOp49
 70
     1
102
RTVSPropertyOp50
 70
     1
102
RTVSPropertyOp51
 70
     0
102
RTVSPropertyOp52
 70
     0
102
RTVSPropertyOp53
 70
     1
102
RTVSPropertyOp54
 70
     1
102
RTVSPropertyOp55
 70
     1
102
RTVSPropertyOp56
 70
     1
102
RTVSPropertyOp57
 70
     1
102
RTVSPost2010Prop28
280
     0
102
RTVSPost2010PropOp28
 70
     1
102
RTVSPost2010Prop29
280
     1
102
RTVSPost2010PropOp29
 70
     1
102
RTVSPost2010Prop30
280
     1
102
RTVSPost2010PropOp30
 70
     1
102
RTVSPost2010Prop31
280
     0
102
RTVSPost2010PropOp31
 70
     1
102
RTVSPost2010Prop32
280
     0
102
RTVSPost2010PropOp32
 70
     1
102
RTVSPost2010Prop33
280
     0
102
RTVSPost2010PropOp33
 70
     1
102
RTVSPost2010Prop34
280
     0
102
RTVSPost2010PropOp34
 70
     1
102
RTVSPost2010Prop35
280
     0
102
RTVSPost2010PropOp35
 70
     1
102
RTVSPost2010Prop36
280
     0
102
RTVSPost2010PropOp36
 70
     1
102
RTVSPost2010Prop37
 90
       50
102
RTVSPost2010PropOp37
 70
     1
102
RTVSPost2010Prop38
140
0.0
102
RTVSPost2010PropOp38
 70
     1
102
RTVSPost2010Prop39
140
1.0
102
RTVSPost2010PropOp39
 70
     1
102
RTVSPost2010Prop40
 90
        0
102
RTVSPost2010PropOp40
 70
     1
102
RTVSPost2010Prop41ColorIndex
 90
       18
102
RTVSPost2010Prop41ColorRGB
 90
        0
102
RTVSPost2010PropOp41
 70
     1
102
RTVSPost2010Prop42
 90
       50
102
RTVSPost2010PropOp42
 70
     1
102
RTVSPost2010Prop43
 90
        3
102
RTVSPost2010PropOp43
 70
     1
102
RTVSPost2010Prop44ColorIndex
 90
        5
102
RTVSPost2010Prop44ColorRGB
 90
      255
102
RTVSPost2010PropOp44
 70
     1
102
RTVSPost2010Prop45
280
     0
102
RTVSPost2010PropOp45
 70
     1
102
RTVSPost2010Prop46
 90
       50
102
RTVSPost2010PropOp46
 70
     1
102
RTVSPost2010Prop47
 90
       50
102
RTVSPost2010PropOp47
 70
     1
102
RTVSPost2010Prop48
 90
       50
102
RTVSPost2010PropOp48
 70
     1
102
RTVSPost2010Prop49
280
     0
102
RTVSPost2010PropOp49
 70
     1
102
RTVSPost2010Prop50
 90
       50
102
RTVSPost2010PropOp50
 70
     1
102
RTVSPost2010Prop51ColorIndex
 90
      256
102
RTVSPost2010Prop51ColorRGB
 90
-16777216
102
RTVSPost2010PropOp51
 70
     0
102
RTVSPost2010Prop52
140
1.0
102
RTVSPost2010PropOp52
 70
     0
102
RTVSPost2010Prop53
 90
        2
102
RTVSPost2010PropOp53
 70
     1
102
RTVSPost2010Prop54
  1
strokes_ogs.tif
102
RTVSPost2010PropOp54
 70
     1
102
RTVSPost2010Prop55
280
     0
102
RTVSPost2010PropOp55
 70
     1
102
RTVSPost2010Prop56
140
1.0
102
RTVSPost2010PropOp56
 70
     1
102
RTVSPost2010Prop57
140
1.0
102
RTVSPost2010PropOp57
 70
     1
  0
XRECORD
  5
DD
102
{ACAD_REACTORS
330
DC
102
}
330
DC
100
AcDbXrecord
280
     1
102
RTVSPropertyOp0
 70
     1
102
RTVSPropertyOp1
 70
     1
102
RTVSPropertyOp2
 70
     1
102
RTVSPropertyOp3
 70
     1
102
RTVSPropertyOp4
 70
     1
102
RTVSPropertyOp5
 70
     1
102
RTVSPropertyOp6
 70
     1
102
RTVSPropertyOp7
 70
     1
102
RTVSPropertyOp8
 70
     1
102
RTVSPropertyOp9
 70
     1
102
RTVSPropertyOp10
 70
     1
102
RTVSPropertyOp11
 70
     1
102
RTVSPropertyOp12
 70
     1
102
RTVSPropertyOp13
 70
     1
102
RTVSPropertyOp14
 70
     1
102
RTVSPropertyOp15
 70
     1
102
RTVSPropertyOp16
 70
     1
102
RTVSPropertyOp17
 70
     1
102
RTVSPropertyOp18
 70
     1
102
RTVSPropertyOp19
 70
     1
102
RTVSPropertyOp20
 70
     1
102
RTVSPropertyOp21
 70
     1
102
RTVSPropertyOp22
 70
     1
102
RTVSPropertyOp23
 70
     1
102
RTVSPropertyOp24
 70
     1
102
RTVSPropertyOp25
 70
     1
102
RTVSPropertyOp26
 70
     1
102
RTVSPropertyOp27
 70
     1
102
RTVSPropertyOp28
 70
     1
102
RTVSPropertyOp29
 70
     1
102
RTVSPropertyOp30
 70
     1
102
RTVSPropertyOp31
 70
     1
102
RTVSPropertyOp32
 70
     1
102
RTVSPropertyOp33
 70
     1
102
RTVSPropertyOp34
 70
     1
102
RTVSPropertyOp35
 70
     1
102
RTVSPropertyOp36
 70
     1
102
RTVSPropertyOp37
 70
     1
102
RTVSPropertyOp38
 70
     1
102
RTVSPropertyOp39
 70
     1
102
RTVSPropertyOp40
 70
     1
102
RTVSPropertyOp41
 70
     1
102
RTVSPropertyOp42
 70
     1
102
RTVSPropertyOp43
 70
     1
102
RTVSPropertyOp44
 70
     1
102
RTVSPropertyOp45
 70
     1
102
RTVSPropertyOp46
 70
     1
102
RTVSPropertyOp47
 70
     1
102
RTVSPropertyOp48
 70
     1
102
RTVSPropertyOp49
 70
     1
102
RTVSPropertyOp50
 70
     1
102
RTVSPropertyOp51
 70
     0
102
RTVSPropertyOp52
 70
     0
102
RTVSPropertyOp53
 70
     1
102
RTVSPropertyOp54
 70
     1
102
RTVSPropertyOp55
 70
     1
102
RTVSPropertyOp56
 70
     1
102
RTVSPropertyOp57
 70
     1
102
RTVSPost2010Prop28
280
     0
102
RTVSPost2010PropOp28
 70
     1
102
RTVSPost2010Prop29
280
     1
102
RTVSPost2010PropOp29
 70
     1
102
RTVSPost2010Prop30
280
     1
102
RTVSPost2010PropOp30
 70
     1
102
RTVSPost2010Prop31
280
     0
102
RTVSPost2010PropOp31
 70
     1
102
RTVSPost2010Prop32
280
     0
102
RTVSPost2010PropOp32
 70
     1
102
RTVSPost2010Prop33
280
     0
102
RTVSPost2010PropOp33
 70
     1
102
RTVSPost2010Prop34
280
     0
102
RTVSPost2010PropOp34
 70
     1
102
RTVSPost2010Prop35
280
     0
102
RTVSPost2010PropOp35
 70
     1
102
RTVSPost2010Prop36
280
     0
102
RTVSPost2010PropOp36
 70
     1
102
RTVSPost2010Prop37
 90
       50
102
RTVSPost2010PropOp37
 70
     1
102
RTVSPost2010Prop38
140
0.0
102
RTVSPost2010PropOp38
 70
     1
102
RTVSPost2010Prop39
140
1.0
102
RTVSPost2010PropOp39
 70
     1
102
RTVSPost2010Prop40
 90
        0
102
RTVSPost2010PropOp40
 70
     1
102
RTVSPost2010Prop41ColorIndex
 90
       18
102
RTVSPost2010Prop41ColorRGB
 90
        0
102
RTVSPost2010PropOp41
 70
     1
102
RTVSPost2010Prop42
 90
       50
102
RTVSPost2010PropOp42
 70
     1
102
RTVSPost2010Prop43
 90
        3
102
RTVSPost2010PropOp43
 70
     1
102
RTVSPost2010Prop44ColorIndex
 90
        5
102
RTVSPost2010Prop44ColorRGB
 90
      255
102
RTVSPost2010PropOp44
 70
     1
102
RTVSPost2010Prop45
280
     0
102
RTVSPost2010PropOp45
 70
     1
102
RTVSPost2010Prop46
 90
       50
102
RTVSPost2010PropOp46
 70
     1
102
RTVSPost2010Prop47
 90
       50
102
RTVSPost2010PropOp47
 70
     1
102
RTVSPost2010Prop48
 90
       50
102
RTVSPost2010PropOp48
 70
     1
102
RTVSPost2010Prop49
280
     0
102
RTVSPost2010PropOp49
 70
     1
102
RTVSPost2010Prop50
 90
       50
102
RTVSPost2010PropOp50
 70
     1
102
RTVSPost2010Prop51ColorIndex
 90
      256
102
RTVSPost2010Prop51ColorRGB
 90
-16777216
102
RTVSPost2010PropOp51
 70
     0
102
RTVSPost2010Prop52
140
1.0
102
RTVSPost2010PropOp52
 70
     0
102
RTVSPost2010Prop53
 90
        2
102
RTVSPost2010PropOp53
 70
     1
102
RTVSPost2010Prop54
  1
strokes_ogs.tif
102
RTVSPost2010PropOp54
 70
     1
102
RTVSPost2010Prop55
280
     0
102
RTVSPost2010PropOp55
 70
     1
102
RTVSPost2010Prop56
140
1.0
102
RTVSPost2010PropOp56
 70
     1
102
RTVSPost2010Prop57
140
1.0
102
RTVSPost2010PropOp57
 70
     1
  0
XRECORD
  5
ED
102
{ACAD_REACTORS
330
EC
102
}
330
EC
100
AcDbXrecord
280
     1
102
RTVSPropertyOp0
 70
     0
102
RTVSPropertyOp1
 70
     0
102
RTVSPropertyOp2
 70
     0
102
RTVSPropertyOp3
 70
     0
102
RTVSPropertyOp4
 70
     0
102
RTVSPropertyOp5
 70
     0
102
RTVSPropertyOp6
 70
     0
102
RTVSPropertyOp7
 70
     0
102
RTVSPropertyOp8
 70
     0
102
RTVSPropertyOp9
 70
     0
102
RTVSPropertyOp10
 70
     0
102
RTVSPropertyOp11
 70
     0
102
RTVSPropertyOp12
 70
     0
102
RTVSPropertyOp13
 70
     0
102
RTVSPropertyOp14
 70
     2
102
RTVSPropertyOp15
 70
     0
102
RTVSPropertyOp16
 70
     0
102
RTVSPropertyOp17
 70
     0
102
RTVSPropertyOp18
 70
     0
102
RTVSPropertyOp19
 70
     0
102
RTVSPropertyOp20
 70
     0
102
RTVSPropertyOp21
 70
     0
102
RTVSPropertyOp22
 70
     0
102
RTVSPropertyOp23
 70
     0
102
RTVSPropertyOp24
 70
     0
102
RTVSPropertyOp25
 70
     0
102
RTVSPropertyOp26
 70
     0
102
RTVSPropertyOp27
 70
     0
102
RTVSPropertyOp28
 70
     0
102
RTVSPropertyOp29
 70
     0
102
RTVSPropertyOp30
 70
     0
102
RTVSPropertyOp31
 70
     0
102
RTVSPropertyOp32
 70
     0
102
RTVSPropertyOp33
 70
     0
102
RTVSPropertyOp34
 70
     0
102
RTVSPropertyOp35
 70
     0
102
RTVSPropertyOp36
 70
     0
102
RTVSPropertyOp37
 70
     0
102
RTVSPropertyOp38
 70
     0
102
RTVSPropertyOp39
 70
     0
102
RTVSPropertyOp40
 70
     0
102
RTVSPropertyOp41
 70
     0
102
RTVSPropertyOp42
 70
     0
102
RTVSPropertyOp43
 70
     0
102
RTVSPropertyOp44
 70
     0
102
RTVSPropertyOp45
 70
     0
102
RTVSPropertyOp46
 70
     0
102
RTVSPropertyOp47
 70
     0
102
RTVSPropertyOp48
 70
     0
102
RTVSPropertyOp49
 70
     0
102
RTVSPropertyOp50
 70
     0
102
RTVSPropertyOp51
 70
     0
102
RTVSPropertyOp52
 70
     0
102
RTVSPropertyOp53
 70
     0
102
RTVSPropertyOp54
 70
     0
102
RTVSPropertyOp55
 70
     0
102
RTVSPropertyOp56
 70
     0
102
RTVSPropertyOp57
 70
     0
102
RTVSPost2010Prop28
280
     0
102
RTVSPost2010PropOp28
 70
     0
102
RTVSPost2010Prop29
280
     1
102
RTVSPost2010PropOp29
 70
     0
102
RTVSPost2010Prop30
280
     1
102
RTVSPost2010PropOp30
 70
     0
102
RTVSPost2010Prop31
280
     0
102
RTVSPost2010PropOp31
 70
     0
102
RTVSPost2010Prop32
280
     0
102
RTVSPost2010PropOp32
 70
     0
102
RTVSPost2010Prop33
280
     0
102
RTVSPost2010PropOp33
 70
     0
102
RTVSPost2010Prop34
280
     0
102
RTVSPost2010PropOp34
 70
     0
102
RTVSPost2010Prop35
280
     0
102
RTVSPost2010PropOp35
 70
     0
102
RTVSPost2010Prop36
280
     0
102
RTVSPost2010PropOp36
 70
     0
102
RTVSPost2010Prop37
 90
       50
102
RTVSPost2010PropOp37
 70
     0
102
RTVSPost2010Prop38
140
0.0
102
RTVSPost2010PropOp38
 70
     0
102
RTVSPost2010Prop39
140
1.0
102
RTVSPost2010PropOp39
 70
     0
102
RTVSPost2010Prop40
 90
        0
102
RTVSPost2010PropOp40
 70
     0
102
RTVSPost2010Prop41ColorIndex
 90
       18
102
RTVSPost2010Prop41ColorRGB
 90
        0
102
RTVSPost2010PropOp41
 70
     0
102
RTVSPost2010Prop42
 90
       50
102
RTVSPost2010PropOp42
 70
     0
102
RTVSPost2010Prop43
 90
        3
102
RTVSPost2010PropOp43
 70
     0
102
RTVSPost2010Prop44ColorIndex
 90
        5
102
RTVSPost2010Prop44ColorRGB
 90
      255
102
RTVSPost2010PropOp44
 70
     0
102
RTVSPost2010Prop45
280
     0
102
RTVSPost2010PropOp45
 70
     0
102
RTVSPost2010Prop46
 90
       50
102
RTVSPost2010PropOp46
 70
     0
102
RTVSPost2010Prop47
 90
       50
102
RTVSPost2010PropOp47
 70
     0
102
RTVSPost2010Prop48
 90
       50
102
RTVSPost2010PropOp48
 70
     0
102
RTVSPost2010Prop49
280
     0
102
RTVSPost2010PropOp49
 70
     0
102
RTVSPost2010Prop50
 90
       50
102
RTVSPost2010PropOp50
 70
     0
102
RTVSPost2010Prop51ColorIndex
 90
      256
102
RTVSPost2010Prop51ColorRGB
 90
-16777216
102
RTVSPost2010PropOp51
 70
     0
102
RTVSPost2010Prop52
140
1.0
102
RTVSPost2010PropOp52
 70
     0
102
RTVSPost2010Prop53
 90
        2
102
RTVSPost2010PropOp53
 70
     0
102
RTVSPost2010Prop54
  1
strokes_ogs.tif
102
RTVSPost2010PropOp54
 70
     0
102
RTVSPost2010Prop55
280
     0
102
RTVSPost2010PropOp55
 70
     0
102
RTVSPost2010Prop56
140
1.0
102
RTVSPost2010PropOp56
 70
     0
102
RTVSPost2010Prop57
140
1.0
102
RTVSPost2010PropOp57
 70
     0
  0
XRECORD
  5
E5
102
{ACAD_REACTORS
330
E4
102
}
330
E4
100
AcDbXrecord
280
     1
102
RTVSPropertyOp0
 70
     1
102
RTVSPropertyOp1
 70
     1
102
RTVSPropertyOp2
 70
     1
102
RTVSPropertyOp3
 70
     1
102
RTVSPropertyOp4
 70
     1
102
RTVSPropertyOp5
 70
     1
102
RTVSPropertyOp6
 70
     1
102
RTVSPropertyOp7
 70
     1
102
RTVSPropertyOp8
 70
     1
102
RTVSPropertyOp9
 70
     1
102
RTVSPropertyOp10
 70
     1
102
RTVSPropertyOp11
 70
     1
102
RTVSPropertyOp12
 70
     1
102
RTVSPropertyOp13
 70
     1
102
RTVSPropertyOp14
 70
     1
102
RTVSPropertyOp15
 70
     1
102
RTVSPropertyOp16
 70
     1
102
RTVSPropertyOp17
 70
     1
102
RTVSPropertyOp18
 70
     1
102
RTVSPropertyOp19
 70
     1
102
RTVSPropertyOp20
 70
     1
102
RTVSPropertyOp21
 70
     1
102
RTVSPropertyOp22
 70
     1
102
RTVSPropertyOp23
 70
     1
102
RTVSPropertyOp24
 70
     1
102
RTVSPropertyOp25
 70
     1
102
RTVSPropertyOp26
 70
     1
102
RTVSPropertyOp27
 70
     1
102
RTVSPropertyOp28
 70
     1
102
RTVSPropertyOp29
 70
     1
102
RTVSPropertyOp30
 70
     1
102
RTVSPropertyOp31
 70
     1
102
RTVSPropertyOp32
 70
     1
102
RTVSPropertyOp33
 70
     1
102
RTVSPropertyOp34
 70
     1
102
RTVSPropertyOp35
 70
     1
102
RTVSPropertyOp36
 70
     1
102
RTVSPropertyOp37
 70
     1
102
RTVSPropertyOp38
 70
     1
102
RTVSPropertyOp39
 70
     1
102
RTVSPropertyOp40
 70
     1
102
RTVSPropertyOp41
 70
     1
102
RTVSPropertyOp42
 70
     1
102
RTVSPropertyOp43
 70
     1
102
RTVSPropertyOp44
 70
     1
102
RTVSPropertyOp45
 70
     1
102
RTVSPropertyOp46
 70
     1
102
RTVSPropertyOp47
 70
     1
102
RTVSPropertyOp48
 70
     1
102
RTVSPropertyOp49
 70
     1
102
RTVSPropertyOp50
 70
     1
102
RTVSPropertyOp51
 70
     0
102
RTVSPropertyOp52
 70
     0
102
RTVSPropertyOp53
 70
     1
102
RTVSPropertyOp54
 70
     1
102
RTVSPropertyOp55
 70
     1
102
RTVSPropertyOp56
 70
     1
102
RTVSPropertyOp57
 70
     1
102
RTVSPost2010Prop28
280
     0
102
RTVSPost2010PropOp28
 70
     1
102
RTVSPost2010Prop29
280
     1
102
RTVSPost2010PropOp29
 70
     1
102
RTVSPost2010Prop30
280
     1
102
RTVSPost2010PropOp30
 70
     1
102
RTVSPost2010Prop31
280
     0
102
RTVSPost2010PropOp31
 70
     1
102
RTVSPost2010Prop32
280
     0
102
RTVSPost2010PropOp32
 70
     1
102
RTVSPost2010Prop33
280
     0
102
RTVSPost2010PropOp33
 70
     1
102
RTVSPost2010Prop34
280
     0
102
RTVSPost2010PropOp34
 70
     1
102
RTVSPost2010Prop35
280
     0
102
RTVSPost2010PropOp35
 70
     1
102
RTVSPost2010Prop36
280
     0
102
RTVSPost2010PropOp36
 70
     1
102
RTVSPost2010Prop37
 90
       50
102
RTVSPost2010PropOp37
 70
     1
102
RTVSPost2010Prop38
140
0.0
102
RTVSPost2010PropOp38
 70
     1
102
RTVSPost2010Prop39
140
1.0
102
RTVSPost2010PropOp39
 70
     1
102
RTVSPost2010Prop40
 90
        0
102
RTVSPost2010PropOp40
 70
     1
102
RTVSPost2010Prop41ColorIndex
 90
       18
102
RTVSPost2010Prop41ColorRGB
 90
        0
102
RTVSPost2010PropOp41
 70
     1
102
RTVSPost2010Prop42
 90
       50
102
RTVSPost2010PropOp42
 70
     1
102
RTVSPost2010Prop43
 90
        3
102
RTVSPost2010PropOp43
 70
     1
102
RTVSPost2010Prop44ColorIndex
 90
        5
102
RTVSPost2010Prop44ColorRGB
 90
      255
102
RTVSPost2010PropOp44
 70
     1
102
RTVSPost2010Prop45
280
     0
102
RTVSPost2010PropOp45
 70
     1
102
RTVSPost2010Prop46
 90
       50
102
RTVSPost2010PropOp46
 70
     1
102
RTVSPost2010Prop47
 90
       50
102
RTVSPost2010PropOp47
 70
     1
102
RTVSPost2010Prop48
 90
       50
102
RTVSPost2010PropOp48
 70
     1
102
RTVSPost2010Prop49
280
     0
102
RTVSPost2010PropOp49
 70
     1
102
RTVSPost2010Prop50
 90
       50
102
RTVSPost2010PropOp50
 70
     1
102
RTVSPost2010Prop51ColorIndex
 90
      256
102
RTVSPost2010Prop51ColorRGB
 90
-16777216
102
RTVSPost2010PropOp51
 70
     0
102
RTVSPost2010Prop52
140
1.0
102
RTVSPost2010PropOp52
 70
     0
102
RTVSPost2010Prop53
 90
        2
102
RTVSPost2010PropOp53
 70
     1
102
RTVSPost2010Prop54
  1
strokes_ogs.tif
102
RTVSPost2010PropOp54
 70
     1
102
RTVSPost2010Prop55
280
     0
102
RTVSPost2010PropOp55
 70
     1
102
RTVSPost2010Prop56
140
1.0
102
RTVSPost2010PropOp56
 70
     1
102
RTVSPost2010Prop57
140
1.0
102
RTVSPost2010PropOp57
 70
     1
  0
XRECORD
  5
CB
102
{ACAD_REACTORS
330
CA
102
}
330
CA
100
AcDbXrecord
280
     1
102
RTVSPropertyOp0
 70
     1
102
RTVSPropertyOp1
 70
     1
102
RTVSPropertyOp2
 70
     1
102
RTVSPropertyOp3
 70
     1
102
RTVSPropertyOp4
 70
     1
102
RTVSPropertyOp5
 70
     1
102
RTVSPropertyOp6
 70
     1
102
RTVSPropertyOp7
 70
     1
102
RTVSPropertyOp8
 70
     1
102
RTVSPropertyOp9
 70
     1
102
RTVSPropertyOp10
 70
     1
102
RTVSPropertyOp11
 70
     1
102
RTVSPropertyOp12
 70
     1
102
RTVSPropertyOp13
 70
     1
102
RTVSPropertyOp14
 70
     1
102
RTVSPropertyOp15
 70
     1
102
RTVSPropertyOp16
 70
     1
102
RTVSPropertyOp17
 70
     1
102
RTVSPropertyOp18
 70
     1
102
RTVSPropertyOp19
 70
     1
102
RTVSPropertyOp20
 70
     1
102
RTVSPropertyOp21
 70
     1
102
RTVSPropertyOp22
 70
     1
102
RTVSPropertyOp23
 70
     1
102
RTVSPropertyOp24
 70
     1
102
RTVSPropertyOp25
 70
     1
102
RTVSPropertyOp26
 70
     1
102
RTVSPropertyOp27
 70
     1
102
RTVSPropertyOp28
 70
     1
102
RTVSPropertyOp29
 70
     1
102
RTVSPropertyOp30
 70
     1
102
RTVSPropertyOp31
 70
     1
102
RTVSPropertyOp32
 70
     1
102
RTVSPropertyOp33
 70
     1
102
RTVSPropertyOp34
 70
     1
102
RTVSPropertyOp35
 70
     1
102
RTVSPropertyOp36
 70
     1
102
RTVSPropertyOp37
 70
     1
102
RTVSPropertyOp38
 70
     1
102
RTVSPropertyOp39
 70
     1
102
RTVSPropertyOp40
 70
     1
102
RTVSPropertyOp41
 70
     1
102
RTVSPropertyOp42
 70
     1
102
RTVSPropertyOp43
 70
     1
102
RTVSPropertyOp44
 70
     1
102
RTVSPropertyOp45
 70
     1
102
RTVSPropertyOp46
 70
     1
102
RTVSPropertyOp47
 70
     1
102
RTVSPropertyOp48
 70
     1
102
RTVSPropertyOp49
 70
     1
102
RTVSPropertyOp50
 70
     1
102
RTVSPropertyOp51
 70
     0
102
RTVSPropertyOp52
 70
     0
102
RTVSPropertyOp53
 70
     1
102
RTVSPropertyOp54
 70
     1
102
RTVSPropertyOp55
 70
     1
102
RTVSPropertyOp56
 70
     1
102
RTVSPropertyOp57
 70
     1
102
RTVSPost2010Prop28
280
     0
102
RTVSPost2010PropOp28
 70
     1
102
RTVSPost2010Prop29
280
     1
102
RTVSPost2010PropOp29
 70
     1
102
RTVSPost2010Prop30
280
     1
102
RTVSPost2010PropOp30
 70
     1
102
RTVSPost2010Prop31
280
     0
102
RTVSPost2010PropOp31
 70
     1
102
RTVSPost2010Prop32
280
     0
102
RTVSPost2010PropOp32
 70
     1
102
RTVSPost2010Prop33
280
     0
102
RTVSPost2010PropOp33
 70
     1
102
RTVSPost2010Prop34
280
     0
102
RTVSPost2010PropOp34
 70
     1
102
RTVSPost2010Prop35
280
     0
102
RTVSPost2010PropOp35
 70
     1
102
RTVSPost2010Prop36
280
     0
102
RTVSPost2010PropOp36
 70
     1
102
RTVSPost2010Prop37
 90
       50
102
RTVSPost2010PropOp37
 70
     1
102
RTVSPost2010Prop38
140
0.0
102
RTVSPost2010PropOp38
 70
     1
102
RTVSPost2010Prop39
140
1.0
102
RTVSPost2010PropOp39
 70
     1
102
RTVSPost2010Prop40
 90
        0
102
RTVSPost2010PropOp40
 70
     1
102
RTVSPost2010Prop41ColorIndex
 90
       18
102
RTVSPost2010Prop41ColorRGB
 90
        0
102
RTVSPost2010PropOp41
 70
     1
102
RTVSPost2010Prop42
 90
       50
102
RTVSPost2010PropOp42
 70
     1
102
RTVSPost2010Prop43
 90
        3
102
RTVSPost2010PropOp43
 70
     1
102
RTVSPost2010Prop44ColorIndex
 90
        5
102
RTVSPost2010Prop44ColorRGB
 90
      255
102
RTVSPost2010PropOp44
 70
     1
102
RTVSPost2010Prop45
280
     0
102
RTVSPost2010PropOp45
 70
     1
102
RTVSPost2010Prop46
 90
       50
102
RTVSPost2010PropOp46
 70
     1
102
RTVSPost2010Prop47
 90
       50
102
RTVSPost2010PropOp47
 70
     1
102
RTVSPost2010Prop48
 90
       50
102
RTVSPost2010PropOp48
 70
     1
102
RTVSPost2010Prop49
280
     0
102
RTVSPost2010PropOp49
 70
     1
102
RTVSPost2010Prop50
 90
       50
102
RTVSPost2010PropOp50
 70
     1
102
RTVSPost2010Prop51ColorIndex
 90
      256
102
RTVSPost2010Prop51ColorRGB
 90
-16777216
102
RTVSPost2010PropOp51
 70
     0
102
RTVSPost2010Prop52
140
1.0
102
RTVSPost2010PropOp52
 70
     0
102
RTVSPost2010Prop53
 90
        2
102
RTVSPost2010PropOp53
 70
     1
102
RTVSPost2010Prop54
  1
strokes_ogs.tif
102
RTVSPost2010PropOp54
 70
     1
102
RTVSPost2010Prop55
280
     0
102
RTVSPost2010PropOp55
 70
     1
102
RTVSPost2010Prop56
140
1.0
102
RTVSPost2010PropOp56
 70
     1
102
RTVSPost2010Prop57
140
1.0
102
RTVSPost2010PropOp57
 70
     1
  0
XRECORD
  5
CD
102
{ACAD_REACTORS
330
CC
102
}
330
CC
100
AcDbXrecord
280
     1
102
RTVSPropertyOp0
 70
     1
102
RTVSPropertyOp1
 70
     1
102
RTVSPropertyOp2
 70
     1
102
RTVSPropertyOp3
 70
     1
102
RTVSPropertyOp4
 70
     1
102
RTVSPropertyOp5
 70
     1
102
RTVSPropertyOp6
 70
     1
102
RTVSPropertyOp7
 70
     1
102
RTVSPropertyOp8
 70
     1
102
RTVSPropertyOp9
 70
     1
102
RTVSPropertyOp10
 70
     1
102
RTVSPropertyOp11
 70
     1
102
RTVSPropertyOp12
 70
     1
102
RTVSPropertyOp13
 70
     1
102
RTVSPropertyOp14
 70
     1
102
RTVSPropertyOp15
 70
     1
102
RTVSPropertyOp16
 70
     1
102
RTVSPropertyOp17
 70
     1
102
RTVSPropertyOp18
 70
     1
102
RTVSPropertyOp19
 70
     1
102
RTVSPropertyOp20
 70
     1
102
RTVSPropertyOp21
 70
     1
102
RTVSPropertyOp22
 70
     1
102
RTVSPropertyOp23
 70
     1
102
RTVSPropertyOp24
 70
     1
102
RTVSPropertyOp25
 70
     1
102
RTVSPropertyOp26
 70
     1
102
RTVSPropertyOp27
 70
     1
102
RTVSPropertyOp28
 70
     1
102
RTVSPropertyOp29
 70
     1
102
RTVSPropertyOp30
 70
     1
102
RTVSPropertyOp31
 70
     1
102
RTVSPropertyOp32
 70
     1
102
RTVSPropertyOp33
 70
     1
102
RTVSPropertyOp34
 70
     1
102
RTVSPropertyOp35
 70
     1
102
RTVSPropertyOp36
 70
     1
102
RTVSPropertyOp37
 70
     1
102
RTVSPropertyOp38
 70
     1
102
RTVSPropertyOp39
 70
     1
102
RTVSPropertyOp40
 70
     1
102
RTVSPropertyOp41
 70
     1
102
RTVSPropertyOp42
 70
     1
102
RTVSPropertyOp43
 70
     1
102
RTVSPropertyOp44
 70
     1
102
RTVSPropertyOp45
 70
     1
102
RTVSPropertyOp46
 70
     1
102
RTVSPropertyOp47
 70
     1
102
RTVSPropertyOp48
 70
     1
102
RTVSPropertyOp49
 70
     1
102
RTVSPropertyOp50
 70
     1
102
RTVSPropertyOp51
 70
     0
102
RTVSPropertyOp52
 70
     0
102
RTVSPropertyOp53
 70
     1
102
RTVSPropertyOp54
 70
     1
102
RTVSPropertyOp55
 70
     1
102
RTVSPropertyOp56
 70
     1
102
RTVSPropertyOp57
 70
     1
102
RTVSPost2010Prop28
280
     0
102
RTVSPost2010PropOp28
 70
     1
102
RTVSPost2010Prop29
280
     1
102
RTVSPost2010PropOp29
 70
     1
102
RTVSPost2010Prop30
280
     1
102
RTVSPost2010PropOp30
 70
     1
102
RTVSPost2010Prop31
280
     0
102
RTVSPost2010PropOp31
 70
     1
102
RTVSPost2010Prop32
280
     0
102
RTVSPost2010PropOp32
 70
     1
102
RTVSPost2010Prop33
280
     0
102
RTVSPost2010PropOp33
 70
     1
102
RTVSPost2010Prop34
280
     0
102
RTVSPost2010PropOp34
 70
     1
102
RTVSPost2010Prop35
280
     0
102
RTVSPost2010PropOp35
 70
     1
102
RTVSPost2010Prop36
280
     0
102
RTVSPost2010PropOp36
 70
     1
102
RTVSPost2010Prop37
 90
       50
102
RTVSPost2010PropOp37
 70
     1
102
RTVSPost2010Prop38
140
0.0
102
RTVSPost2010PropOp38
 70
     1
102
RTVSPost2010Prop39
140
1.0
102
RTVSPost2010PropOp39
 70
     1
102
RTVSPost2010Prop40
 90
        0
102
RTVSPost2010PropOp40
 70
     1
102
RTVSPost2010Prop41ColorIndex
 90
       18
102
RTVSPost2010Prop41ColorRGB
 90
        0
102
RTVSPost2010PropOp41
 70
     1
102
RTVSPost2010Prop42
 90
       50
102
RTVSPost2010PropOp42
 70
     1
102
RTVSPost2010Prop43
 90
        3
102
RTVSPost2010PropOp43
 70
     1
102
RTVSPost2010Prop44ColorIndex
 90
        5
102
RTVSPost2010Prop44ColorRGB
 90
      255
102
RTVSPost2010PropOp44
 70
     1
102
RTVSPost2010Prop45
280
     0
102
RTVSPost2010PropOp45
 70
     1
102
RTVSPost2010Prop46
 90
       50
102
RTVSPost2010PropOp46
 70
     1
102
RTVSPost2010Prop47
 90
       50
102
RTVSPost2010PropOp47
 70
     1
102
RTVSPost2010Prop48
 90
       50
102
RTVSPost2010PropOp48
 70
     1
102
RTVSPost2010Prop49
280
     0
102
RTVSPost2010PropOp49
 70
     1
102
RTVSPost2010Prop50
 90
       50
102
RTVSPost2010PropOp50
 70
     1
102
RTVSPost2010Prop51ColorIndex
 90
      256
102
RTVSPost2010Prop51ColorRGB
 90
-16777216
102
RTVSPost2010PropOp51
 70
     0
102
RTVSPost2010Prop52
140
1.0
102
RTVSPost2010PropOp52
 70
     0
102
RTVSPost2010Prop53
 90
        2
102
RTVSPost2010PropOp53
 70
     1
102
RTVSPost2010Prop54
  1
strokes_ogs.tif
102
RTVSPost2010PropOp54
 70
     1
102
RTVSPost2010Prop55
280
     0
102
RTVSPost2010PropOp55
 70
     1
102
RTVSPost2010Prop56
140
1.0
102
RTVSPost2010PropOp56
 70
     1
102
RTVSPost2010Prop57
140
1.0
102
RTVSPost2010PropOp57
 70
     1
  0
XRECORD
  5
CF
102
{ACAD_REACTORS
330
CE
102
}
330
CE
100
AcDbXrecord
280
     1
102
RTVSPropertyOp0
 70
     1
102
RTVSPropertyOp1
 70
     1
102
RTVSPropertyOp2
 70
     1
102
RTVSPropertyOp3
 70
     1
102
RTVSPropertyOp4
 70
     1
102
RTVSPropertyOp5
 70
     1
102
RTVSPropertyOp6
 70
     1
102
RTVSPropertyOp7
 70
     1
102
RTVSPropertyOp8
 70
     1
102
RTVSPropertyOp9
 70
     1
102
RTVSPropertyOp10
 70
     1
102
RTVSPropertyOp11
 70
     1
102
RTVSPropertyOp12
 70
     1
102
RTVSPropertyOp13
 70
     1
102
RTVSPropertyOp14
 70
     1
102
RTVSPropertyOp15
 70
     1
102
RTVSPropertyOp16
 70
     1
102
RTVSPropertyOp17
 70
     1
102
RTVSPropertyOp18
 70
     1
102
RTVSPropertyOp19
 70
     1
102
RTVSPropertyOp20
 70
     1
102
RTVSPropertyOp21
 70
     1
102
RTVSPropertyOp22
 70
     1
102
RTVSPropertyOp23
 70
     1
102
RTVSPropertyOp24
 70
     1
102
RTVSPropertyOp25
 70
     1
102
RTVSPropertyOp26
 70
     1
102
RTVSPropertyOp27
 70
     1
102
RTVSPropertyOp28
 70
     1
102
RTVSPropertyOp29
 70
     1
102
RTVSPropertyOp30
 70
     1
102
RTVSPropertyOp31
 70
     1
102
RTVSPropertyOp32
 70
     1
102
RTVSPropertyOp33
 70
     1
102
RTVSPropertyOp34
 70
     1
102
RTVSPropertyOp35
 70
     1
102
RTVSPropertyOp36
 70
     1
102
RTVSPropertyOp37
 70
     1
102
RTVSPropertyOp38
 70
     1
102
RTVSPropertyOp39
 70
     1
102
RTVSPropertyOp40
 70
     1
102
RTVSPropertyOp41
 70
     1
102
RTVSPropertyOp42
 70
     1
102
RTVSPropertyOp43
 70
     1
102
RTVSPropertyOp44
 70
     1
102
RTVSPropertyOp45
 70
     1
102
RTVSPropertyOp46
 70
     1
102
RTVSPropertyOp47
 70
     1
102
RTVSPropertyOp48
 70
     1
102
RTVSPropertyOp49
 70
     1
102
RTVSPropertyOp50
 70
     1
102
RTVSPropertyOp51
 70
     0
102
RTVSPropertyOp52
 70
     0
102
RTVSPropertyOp53
 70
     1
102
RTVSPropertyOp54
 70
     1
102
RTVSPropertyOp55
 70
     1
102
RTVSPropertyOp56
 70
     1
102
RTVSPropertyOp57
 70
     1
102
RTVSPost2010Prop28
280
     0
102
RTVSPost2010PropOp28
 70
     1
102
RTVSPost2010Prop29
280
     1
102
RTVSPost2010PropOp29
 70
     1
102
RTVSPost2010Prop30
280
     1
102
RTVSPost2010PropOp30
 70
     1
102
RTVSPost2010Prop31
280
     0
102
RTVSPost2010PropOp31
 70
     1
102
RTVSPost2010Prop32
280
     0
102
RTVSPost2010PropOp32
 70
     1
102
RTVSPost2010Prop33
280
     0
102
RTVSPost2010PropOp33
 70
     1
102
RTVSPost2010Prop34
280
     0
102
RTVSPost2010PropOp34
 70
     1
102
RTVSPost2010Prop35
280
     0
102
RTVSPost2010PropOp35
 70
     1
102
RTVSPost2010Prop36
280
     0
102
RTVSPost2010PropOp36
 70
     1
102
RTVSPost2010Prop37
 90
       50
102
RTVSPost2010PropOp37
 70
     1
102
RTVSPost2010Prop38
140
0.0
102
RTVSPost2010PropOp38
 70
     1
102
RTVSPost2010Prop39
140
1.0
102
RTVSPost2010PropOp39
 70
     1
102
RTVSPost2010Prop40
 90
        0
102
RTVSPost2010PropOp40
 70
     1
102
RTVSPost2010Prop41ColorIndex
 90
       18
102
RTVSPost2010Prop41ColorRGB
 90
        0
102
RTVSPost2010PropOp41
 70
     1
102
RTVSPost2010Prop42
 90
       50
102
RTVSPost2010PropOp42
 70
     1
102
RTVSPost2010Prop43
 90
        3
102
RTVSPost2010PropOp43
 70
     1
102
RTVSPost2010Prop44ColorIndex
 90
        5
102
RTVSPost2010Prop44ColorRGB
 90
      255
102
RTVSPost2010PropOp44
 70
     1
102
RTVSPost2010Prop45
280
     0
102
RTVSPost2010PropOp45
 70
     1
102
RTVSPost2010Prop46
 90
       50
102
RTVSPost2010PropOp46
 70
     1
102
RTVSPost2010Prop47
 90
       50
102
RTVSPost2010PropOp47
 70
     1
102
RTVSPost2010Prop48
 90
       50
102
RTVSPost2010PropOp48
 70
     1
102
RTVSPost2010Prop49
280
     0
102
RTVSPost2010PropOp49
 70
     1
102
RTVSPost2010Prop50
 90
       50
102
RTVSPost2010PropOp50
 70
     1
102
RTVSPost2010Prop51ColorIndex
 90
      256
102
RTVSPost2010Prop51ColorRGB
 90
-16777216
102
RTVSPost2010PropOp51
 70
     0
102
RTVSPost2010Prop52
140
1.0
102
RTVSPost2010PropOp52
 70
     0
102
RTVSPost2010Prop53
 90
        2
102
RTVSPost2010PropOp53
 70
     1
102
RTVSPost2010Prop54
  1
strokes_ogs.tif
102
RTVSPost2010PropOp54
 70
     1
102
RTVSPost2010Prop55
280
     0
102
RTVSPost2010PropOp55
 70
     1
102
RTVSPost2010Prop56
140
1.0
102
RTVSPost2010PropOp56
 70
     1
102
RTVSPost2010Prop57
140
1.0
102
RTVSPost2010PropOp57
 70
     1
  0
XRECORD
  5
D1
102
{ACAD_REACTORS
330
D0
102
}
330
D0
100
AcDbXrecord
280
     1
102
RTVSPropertyOp0
 70
     1
102
RTVSPropertyOp1
 70
     1
102
RTVSPropertyOp2
 70
     1
102
RTVSPropertyOp3
 70
     1
102
RTVSPropertyOp4
 70
     1
102
RTVSPropertyOp5
 70
     1
102
RTVSPropertyOp6
 70
     1
102
RTVSPropertyOp7
 70
     1
102
RTVSPropertyOp8
 70
     1
102
RTVSPropertyOp9
 70
     1
102
RTVSPropertyOp10
 70
     1
102
RTVSPropertyOp11
 70
     1
102
RTVSPropertyOp12
 70
     1
102
RTVSPropertyOp13
 70
     1
102
RTVSPropertyOp14
 70
     1
102
RTVSPropertyOp15
 70
     1
102
RTVSPropertyOp16
 70
     1
102
RTVSPropertyOp17
 70
     1
102
RTVSPropertyOp18
 70
     1
102
RTVSPropertyOp19
 70
     1
102
RTVSPropertyOp20
 70
     1
102
RTVSPropertyOp21
 70
     1
102
RTVSPropertyOp22
 70
     1
102
RTVSPropertyOp23
 70
     1
102
RTVSPropertyOp24
 70
     1
102
RTVSPropertyOp25
 70
     1
102
RTVSPropertyOp26
 70
     1
102
RTVSPropertyOp27
 70
     1
102
RTVSPropertyOp28
 70
     1
102
RTVSPropertyOp29
 70
     1
102
RTVSPropertyOp30
 70
     1
102
RTVSPropertyOp31
 70
     1
102
RTVSPropertyOp32
 70
     1
102
RTVSPropertyOp33
 70
     1
102
RTVSPropertyOp34
 70
     1
102
RTVSPropertyOp35
 70
     1
102
RTVSPropertyOp36
 70
     1
102
RTVSPropertyOp37
 70
     1
102
RTVSPropertyOp38
 70
     1
102
RTVSPropertyOp39
 70
     1
102
RTVSPropertyOp40
 70
     1
102
RTVSPropertyOp41
 70
     1
102
RTVSPropertyOp42
 70
     1
102
RTVSPropertyOp43
 70
     1
102
RTVSPropertyOp44
 70
     1
102
RTVSPropertyOp45
 70
     1
102
RTVSPropertyOp46
 70
     1
102
RTVSPropertyOp47
 70
     1
102
RTVSPropertyOp48
 70
     1
102
RTVSPropertyOp49
 70
     1
102
RTVSPropertyOp50
 70
     1
102
RTVSPropertyOp51
 70
     0
102
RTVSPropertyOp52
 70
     0
102
RTVSPropertyOp53
 70
     1
102
RTVSPropertyOp54
 70
     1
102
RTVSPropertyOp55
 70
     1
102
RTVSPropertyOp56
 70
     1
102
RTVSPropertyOp57
 70
     1
102
RTVSPost2010Prop28
280
     0
102
RTVSPost2010PropOp28
 70
     1
102
RTVSPost2010Prop29
280
     1
102
RTVSPost2010PropOp29
 70
     1
102
RTVSPost2010Prop30
280
     1
102
RTVSPost2010PropOp30
 70
     1
102
RTVSPost2010Prop31
280
     0
102
RTVSPost2010PropOp31
 70
     1
102
RTVSPost2010Prop32
280
     0
102
RTVSPost2010PropOp32
 70
     1
102
RTVSPost2010Prop33
280
     0
102
RTVSPost2010PropOp33
 70
     1
102
RTVSPost2010Prop34
280
     0
102
RTVSPost2010PropOp34
 70
     1
102
RTVSPost2010Prop35
280
     0
102
RTVSPost2010PropOp35
 70
     1
102
RTVSPost2010Prop36
280
     0
102
RTVSPost2010PropOp36
 70
     1
102
RTVSPost2010Prop37
 90
       50
102
RTVSPost2010PropOp37
 70
     1
102
RTVSPost2010Prop38
140
0.0
102
RTVSPost2010PropOp38
 70
     1
102
RTVSPost2010Prop39
140
1.0
102
RTVSPost2010PropOp39
 70
     1
102
RTVSPost2010Prop40
 90
        0
102
RTVSPost2010PropOp40
 70
     1
102
RTVSPost2010Prop41ColorIndex
 90
       18
102
RTVSPost2010Prop41ColorRGB
 90
        0
102
RTVSPost2010PropOp41
 70
     1
102
RTVSPost2010Prop42
 90
       50
102
RTVSPost2010PropOp42
 70
     1
102
RTVSPost2010Prop43
 90
        3
102
RTVSPost2010PropOp43
 70
     1
102
RTVSPost2010Prop44ColorIndex
 90
        5
102
RTVSPost2010Prop44ColorRGB
 90
      255
102
RTVSPost2010PropOp44
 70
     1
102
RTVSPost2010Prop45
280
     0
102
RTVSPost2010PropOp45
 70
     1
102
RTVSPost2010Prop46
 90
       50
102
RTVSPost2010PropOp46
 70
     1
102
RTVSPost2010Prop47
 90
       50
102
RTVSPost2010PropOp47
 70
     1
102
RTVSPost2010Prop48
 90
       50
102
RTVSPost2010PropOp48
 70
     1
102
RTVSPost2010Prop49
280
     0
102
RTVSPost2010PropOp49
 70
     1
102
RTVSPost2010Prop50
 90
       50
102
RTVSPost2010PropOp50
 70
     1
102
RTVSPost2010Prop51ColorIndex
 90
      256
102
RTVSPost2010Prop51ColorRGB
 90
-16777216
102
RTVSPost2010PropOp51
 70
     0
102
RTVSPost2010Prop52
140
1.0
102
RTVSPost2010PropOp52
 70
     0
102
RTVSPost2010Prop53
 90
        2
102
RTVSPost2010PropOp53
 70
     1
102
RTVSPost2010Prop54
  1
strokes_ogs.tif
102
RTVSPost2010PropOp54
 70
     1
102
RTVSPost2010Prop55
280
     0
102
RTVSPost2010PropOp55
 70
     1
102
RTVSPost2010Prop56
140
1.0
102
RTVSPost2010PropOp56
 70
     1
102
RTVSPost2010Prop57
140
1.0
102
RTVSPost2010PropOp57
 70
     1
  0
XRECORD
  5
D5
102
{ACAD_REACTORS
330
D4
102
}
330
D4
100
AcDbXrecord
280
     1
102
RTVSPropertyOp0
 70
     1
102
RTVSPropertyOp1
 70
     1
102
RTVSPropertyOp2
 70
     1
102
RTVSPropertyOp3
 70
     1
102
RTVSPropertyOp4
 70
     1
102
RTVSPropertyOp5
 70
     1
102
RTVSPropertyOp6
 70
     1
102
RTVSPropertyOp7
 70
     1
102
RTVSPropertyOp8
 70
     1
102
RTVSPropertyOp9
 70
     1
102
RTVSPropertyOp10
 70
     1
102
RTVSPropertyOp11
 70
     1
102
RTVSPropertyOp12
 70
     1
102
RTVSPropertyOp13
 70
     1
102
RTVSPropertyOp14
 70
     1
102
RTVSPropertyOp15
 70
     1
102
RTVSPropertyOp16
 70
     1
102
RTVSPropertyOp17
 70
     1
102
RTVSPropertyOp18
 70
     1
102
RTVSPropertyOp19
 70
     1
102
RTVSPropertyOp20
 70
     1
102
RTVSPropertyOp21
 70
     1
102
RTVSPropertyOp22
 70
     1
102
RTVSPropertyOp23
 70
     1
102
RTVSPropertyOp24
 70
     1
102
RTVSPropertyOp25
 70
     1
102
RTVSPropertyOp26
 70
     1
102
RTVSPropertyOp27
 70
     1
102
RTVSPropertyOp28
 70
     1
102
RTVSPropertyOp29
 70
     1
102
RTVSPropertyOp30
 70
     1
102
RTVSPropertyOp31
 70
     1
102
RTVSPropertyOp32
 70
     1
102
RTVSPropertyOp33
 70
     1
102
RTVSPropertyOp34
 70
     1
102
RTVSPropertyOp35
 70
     1
102
RTVSPropertyOp36
 70
     1
102
RTVSPropertyOp37
 70
     1
102
RTVSPropertyOp38
 70
     1
102
RTVSPropertyOp39
 70
     1
102
RTVSPropertyOp40
 70
     1
102
RTVSPropertyOp41
 70
     1
102
RTVSPropertyOp42
 70
     1
102
RTVSPropertyOp43
 70
     1
102
RTVSPropertyOp44
 70
     1
102
RTVSPropertyOp45
 70
     1
102
RTVSPropertyOp46
 70
     1
102
RTVSPropertyOp47
 70
     1
102
RTVSPropertyOp48
 70
     1
102
RTVSPropertyOp49
 70
     1
102
RTVSPropertyOp50
 70
     1
102
RTVSPropertyOp51
 70
     0
102
RTVSPropertyOp52
 70
     0
102
RTVSPropertyOp53
 70
     1
102
RTVSPropertyOp54
 70
     1
102
RTVSPropertyOp55
 70
     1
102
RTVSPropertyOp56
 70
     1
102
RTVSPropertyOp57
 70
     1
102
RTVSPost2010Prop28
280
     0
102
RTVSPost2010PropOp28
 70
     1
102
RTVSPost2010Prop29
280
     1
102
RTVSPost2010PropOp29
 70
     1
102
RTVSPost2010Prop30
280
     1
102
RTVSPost2010PropOp30
 70
     1
102
RTVSPost2010Prop31
280
     0
102
RTVSPost2010PropOp31
 70
     1
102
RTVSPost2010Prop32
280
     0
102
RTVSPost2010PropOp32
 70
     1
102
RTVSPost2010Prop33
280
     0
102
RTVSPost2010PropOp33
 70
     1
102
RTVSPost2010Prop34
280
     0
102
RTVSPost2010PropOp34
 70
     1
102
RTVSPost2010Prop35
280
     0
102
RTVSPost2010PropOp35
 70
     1
102
RTVSPost2010Prop36
280
     0
102
RTVSPost2010PropOp36
 70
     1
102
RTVSPost2010Prop37
 90
       50
102
RTVSPost2010PropOp37
 70
     1
102
RTVSPost2010Prop38
140
0.0
102
RTVSPost2010PropOp38
 70
     1
102
RTVSPost2010Prop39
140
1.0
102
RTVSPost2010PropOp39
 70
     1
102
RTVSPost2010Prop40
 90
        0
102
RTVSPost2010PropOp40
 70
     1
102
RTVSPost2010Prop41ColorIndex
 90
       18
102
RTVSPost2010Prop41ColorRGB
 90
        0
102
RTVSPost2010PropOp41
 70
     1
102
RTVSPost2010Prop42
 90
       50
102
RTVSPost2010PropOp42
 70
     1
102
RTVSPost2010Prop43
 90
        3
102
RTVSPost2010PropOp43
 70
     1
102
RTVSPost2010Prop44ColorIndex
 90
        5
102
RTVSPost2010Prop44ColorRGB
 90
      255
102
RTVSPost2010PropOp44
 70
     1
102
RTVSPost2010Prop45
280
     0
102
RTVSPost2010PropOp45
 70
     1
102
RTVSPost2010Prop46
 90
       50
102
RTVSPost2010PropOp46
 70
     1
102
RTVSPost2010Prop47
 90
       50
102
RTVSPost2010PropOp47
 70
     1
102
RTVSPost2010Prop48
 90
       50
102
RTVSPost2010PropOp48
 70
     1
102
RTVSPost2010Prop49
280
     0
102
RTVSPost2010PropOp49
 70
     1
102
RTVSPost2010Prop50
 90
       50
102
RTVSPost2010PropOp50
 70
     1
102
RTVSPost2010Prop51ColorIndex
 90
      256
102
RTVSPost2010Prop51ColorRGB
 90
-16777216
102
RTVSPost2010PropOp51
 70
     0
102
RTVSPost2010Prop52
140
1.0
102
RTVSPost2010PropOp52
 70
     0
102
RTVSPost2010Prop53
 90
        2
102
RTVSPost2010PropOp53
 70
     1
102
RTVSPost2010Prop54
  1
strokes_ogs.tif
102
RTVSPost2010PropOp54
 70
     1
102
RTVSPost2010Prop55
280
     0
102
RTVSPost2010PropOp55
 70
     1
102
RTVSPost2010Prop56
140
1.0
102
RTVSPost2010PropOp56
 70
     1
102
RTVSPost2010Prop57
140
1.0
102
RTVSPost2010PropOp57
 70
     1
  0
XRECORD
  5
E9
102
{ACAD_REACTORS
330
E8
102
}
330
E8
100
AcDbXrecord
280
     1
102
RTVSPropertyOp0
 70
     0
102
RTVSPropertyOp1
 70
     0
102
RTVSPropertyOp2
 70
     0
102
RTVSPropertyOp3
 70
     0
102
RTVSPropertyOp4
 70
     0
102
RTVSPropertyOp5
 70
     0
102
RTVSPropertyOp6
 70
     0
102
RTVSPropertyOp7
 70
     0
102
RTVSPropertyOp8
 70
     0
102
RTVSPropertyOp9
 70
     0
102
RTVSPropertyOp10
 70
     0
102
RTVSPropertyOp11
 70
     0
102
RTVSPropertyOp12
 70
     0
102
RTVSPropertyOp13
 70
     0
102
RTVSPropertyOp14
 70
     2
102
RTVSPropertyOp15
 70
     0
102
RTVSPropertyOp16
 70
     0
102
RTVSPropertyOp17
 70
     0
102
RTVSPropertyOp18
 70
     0
102
RTVSPropertyOp19
 70
     0
102
RTVSPropertyOp20
 70
     0
102
RTVSPropertyOp21
 70
     0
102
RTVSPropertyOp22
 70
     0
102
RTVSPropertyOp23
 70
     0
102
RTVSPropertyOp24
 70
     0
102
RTVSPropertyOp25
 70
     0
102
RTVSPropertyOp26
 70
     0
102
RTVSPropertyOp27
 70
     0
102
RTVSPropertyOp28
 70
     0
102
RTVSPropertyOp29
 70
     0
102
RTVSPropertyOp30
 70
     0
102
RTVSPropertyOp31
 70
     0
102
RTVSPropertyOp32
 70
     0
102
RTVSPropertyOp33
 70
     0
102
RTVSPropertyOp34
 70
     0
102
RTVSPropertyOp35
 70
     0
102
RTVSPropertyOp36
 70
     0
102
RTVSPropertyOp37
 70
     0
102
RTVSPropertyOp38
 70
     0
102
RTVSPropertyOp39
 70
     0
102
RTVSPropertyOp40
 70
     0
102
RTVSPropertyOp41
 70
     0
102
RTVSPropertyOp42
 70
     0
102
RTVSPropertyOp43
 70
     0
102
RTVSPropertyOp44
 70
     0
102
RTVSPropertyOp45
 70
     0
102
RTVSPropertyOp46
 70
     0
102
RTVSPropertyOp47
 70
     0
102
RTVSPropertyOp48
 70
     0
102
RTVSPropertyOp49
 70
     0
102
RTVSPropertyOp50
 70
     0
102
RTVSPropertyOp51
 70
     0
102
RTVSPropertyOp52
 70
     0
102
RTVSPropertyOp53
 70
     0
102
RTVSPropertyOp54
 70
     0
102
RTVSPropertyOp55
 70
     0
102
RTVSPropertyOp56
 70
     0
102
RTVSPropertyOp57
 70
     0
102
RTVSPost2010Prop28
280
     0
102
RTVSPost2010PropOp28
 70
     0
102
RTVSPost2010Prop29
280
     1
102
RTVSPost2010PropOp29
 70
     0
102
RTVSPost2010Prop30
280
     1
102
RTVSPost2010PropOp30
 70
     0
102
RTVSPost2010Prop31
280
     0
102
RTVSPost2010PropOp31
 70
     0
102
RTVSPost2010Prop32
280
     0
102
RTVSPost2010PropOp32
 70
     0
102
RTVSPost2010Prop33
280
     0
102
RTVSPost2010PropOp33
 70
     0
102
RTVSPost2010Prop34
280
     0
102
RTVSPost2010PropOp34
 70
     0
102
RTVSPost2010Prop35
280
     0
102
RTVSPost2010PropOp35
 70
     0
102
RTVSPost2010Prop36
280
     0
102
RTVSPost2010PropOp36
 70
     0
102
RTVSPost2010Prop37
 90
       50
102
RTVSPost2010PropOp37
 70
     0
102
RTVSPost2010Prop38
140
0.0
102
RTVSPost2010PropOp38
 70
     0
102
RTVSPost2010Prop39
140
1.0
102
RTVSPost2010PropOp39
 70
     0
102
RTVSPost2010Prop40
 90
        0
102
RTVSPost2010PropOp40
 70
     0
102
RTVSPost2010Prop41ColorIndex
 90
       18
102
RTVSPost2010Prop41ColorRGB
 90
        0
102
RTVSPost2010PropOp41
 70
     0
102
RTVSPost2010Prop42
 90
       50
102
RTVSPost2010PropOp42
 70
     0
102
RTVSPost2010Prop43
 90
        3
102
RTVSPost2010PropOp43
 70
     0
102
RTVSPost2010Prop44ColorIndex
 90
        5
102
RTVSPost2010Prop44ColorRGB
 90
      255
102
RTVSPost2010PropOp44
 70
     0
102
RTVSPost2010Prop45
280
     0
102
RTVSPost2010PropOp45
 70
     0
102
RTVSPost2010Prop46
 90
       50
102
RTVSPost2010PropOp46
 70
     0
102
RTVSPost2010Prop47
 90
       50
102
RTVSPost2010PropOp47
 70
     0
102
RTVSPost2010Prop48
 90
       50
102
RTVSPost2010PropOp48
 70
     0
102
RTVSPost2010Prop49
280
     0
102
RTVSPost2010PropOp49
 70
     0
102
RTVSPost2010Prop50
 90
       50
102
RTVSPost2010PropOp50
 70
     0
102
RTVSPost2010Prop51ColorIndex
 90
      256
102
RTVSPost2010Prop51ColorRGB
 90
-16777216
102
RTVSPost2010PropOp51
 70
     0
102
RTVSPost2010Prop52
140
1.0
102
RTVSPost2010PropOp52
 70
     0
102
RTVSPost2010Prop53
 90
        2
102
RTVSPost2010PropOp53
 70
     0
102
RTVSPost2010Prop54
  1
strokes_ogs.tif
102
RTVSPost2010PropOp54
 70
     0
102
RTVSPost2010Prop55
280
     0
102
RTVSPost2010PropOp55
 70
     0
102
RTVSPost2010Prop56
140
1.0
102
RTVSPost2010PropOp56
 70
     0
102
RTVSPost2010Prop57
140
1.0
102
RTVSPost2010PropOp57
 70
     0
  0
XRECORD
  5
E3
102
{ACAD_REACTORS
330
E2
102
}
330
E2
100
AcDbXrecord
280
     1
102
RTVSPropertyOp0
 70
     1
102
RTVSPropertyOp1
 70
     1
102
RTVSPropertyOp2
 70
     1
102
RTVSPropertyOp3
 70
     1
102
RTVSPropertyOp4
 70
     1
102
RTVSPropertyOp5
 70
     1
102
RTVSPropertyOp6
 70
     1
102
RTVSPropertyOp7
 70
     1
102
RTVSPropertyOp8
 70
     1
102
RTVSPropertyOp9
 70
     1
102
RTVSPropertyOp10
 70
     1
102
RTVSPropertyOp11
 70
     1
102
RTVSPropertyOp12
 70
     1
102
RTVSPropertyOp13
 70
     1
102
RTVSPropertyOp14
 70
     1
102
RTVSPropertyOp15
 70
     1
102
RTVSPropertyOp16
 70
     1
102
RTVSPropertyOp17
 70
     1
102
RTVSPropertyOp18
 70
     1
102
RTVSPropertyOp19
 70
     1
102
RTVSPropertyOp20
 70
     1
102
RTVSPropertyOp21
 70
     1
102
RTVSPropertyOp22
 70
     1
102
RTVSPropertyOp23
 70
     1
102
RTVSPropertyOp24
 70
     1
102
RTVSPropertyOp25
 70
     1
102
RTVSPropertyOp26
 70
     1
102
RTVSPropertyOp27
 70
     1
102
RTVSPropertyOp28
 70
     1
102
RTVSPropertyOp29
 70
     1
102
RTVSPropertyOp30
 70
     1
102
RTVSPropertyOp31
 70
     1
102
RTVSPropertyOp32
 70
     1
102
RTVSPropertyOp33
 70
     1
102
RTVSPropertyOp34
 70
     1
102
RTVSPropertyOp35
 70
     1
102
RTVSPropertyOp36
 70
     1
102
RTVSPropertyOp37
 70
     1
102
RTVSPropertyOp38
 70
     1
102
RTVSPropertyOp39
 70
     1
102
RTVSPropertyOp40
 70
     1
102
RTVSPropertyOp41
 70
     1
102
RTVSPropertyOp42
 70
     1
102
RTVSPropertyOp43
 70
     1
102
RTVSPropertyOp44
 70
     1
102
RTVSPropertyOp45
 70
     1
102
RTVSPropertyOp46
 70
     1
102
RTVSPropertyOp47
 70
     1
102
RTVSPropertyOp48
 70
     1
102
RTVSPropertyOp49
 70
     1
102
RTVSPropertyOp50
 70
     1
102
RTVSPropertyOp51
 70
     0
102
RTVSPropertyOp52
 70
     0
102
RTVSPropertyOp53
 70
     1
102
RTVSPropertyOp54
 70
     1
102
RTVSPropertyOp55
 70
     1
102
RTVSPropertyOp56
 70
     1
102
RTVSPropertyOp57
 70
     1
102
RTVSPost2010Prop28
280
     0
102
RTVSPost2010PropOp28
 70
     1
102
RTVSPost2010Prop29
280
     1
102
RTVSPost2010PropOp29
 70
     1
102
RTVSPost2010Prop30
280
     1
102
RTVSPost2010PropOp30
 70
     1
102
RTVSPost2010Prop31
280
     0
102
RTVSPost2010PropOp31
 70
     1
102
RTVSPost2010Prop32
280
     0
102
RTVSPost2010PropOp32
 70
     1
102
RTVSPost2010Prop33
280
     0
102
RTVSPost2010PropOp33
 70
     1
102
RTVSPost2010Prop34
280
     0
102
RTVSPost2010PropOp34
 70
     1
102
RTVSPost2010Prop35
280
     0
102
RTVSPost2010PropOp35
 70
     1
102
RTVSPost2010Prop36
280
     0
102
RTVSPost2010PropOp36
 70
     1
102
RTVSPost2010Prop37
 90
       50
102
RTVSPost2010PropOp37
 70
     1
102
RTVSPost2010Prop38
140
0.0
102
RTVSPost2010PropOp38
 70
     1
102
RTVSPost2010Prop39
140
1.0
102
RTVSPost2010PropOp39
 70
     1
102
RTVSPost2010Prop40
 90
        0
102
RTVSPost2010PropOp40
 70
     1
102
RTVSPost2010Prop41ColorIndex
 90
       18
102
RTVSPost2010Prop41ColorRGB
 90
        0
102
RTVSPost2010PropOp41
 70
     1
102
RTVSPost2010Prop42
 90
       50
102
RTVSPost2010PropOp42
 70
     1
102
RTVSPost2010Prop43
 90
        3
102
RTVSPost2010PropOp43
 70
     1
102
RTVSPost2010Prop44ColorIndex
 90
        5
102
RTVSPost2010Prop44ColorRGB
 90
      255
102
RTVSPost2010PropOp44
 70
     1
102
RTVSPost2010Prop45
280
     0
102
RTVSPost2010PropOp45
 70
     1
102
RTVSPost2010Prop46
 90
       50
102
RTVSPost2010PropOp46
 70
     1
102
RTVSPost2010Prop47
 90
       50
102
RTVSPost2010PropOp47
 70
     1
102
RTVSPost2010Prop48
 90
       50
102
RTVSPost2010PropOp48
 70
     1
102
RTVSPost2010Prop49
280
     0
102
RTVSPost2010PropOp49
 70
     1
102
RTVSPost2010Prop50
 90
       50
102
RTVSPost2010PropOp50
 70
     1
102
RTVSPost2010Prop51ColorIndex
 90
      256
102
RTVSPost2010Prop51ColorRGB
 90
-16777216
102
RTVSPost2010PropOp51
 70
     0
102
RTVSPost2010Prop52
140
1.0
102
RTVSPost2010PropOp52
 70
     0
102
RTVSPost2010Prop53
 90
        2
102
RTVSPost2010PropOp53
 70
     1
102
RTVSPost2010Prop54
  1
strokes_ogs.tif
102
RTVSPost2010PropOp54
 70
     1
102
RTVSPost2010Prop55
280
     0
102
RTVSPost2010PropOp55
 70
     1
102
RTVSPost2010Prop56
140
1.0
102
RTVSPost2010PropOp56
 70
     1
102
RTVSPost2010Prop57
140
1.0
102
RTVSPost2010PropOp57
 70
     1
  0
XRECORD
  5
EB
102
{ACAD_REACTORS
330
EA
102
}
330
EA
100
AcDbXrecord
280
     1
102
RTVSPropertyOp0
 70
     0
102
RTVSPropertyOp1
 70
     0
102
RTVSPropertyOp2
 70
     0
102
RTVSPropertyOp3
 70
     0
102
RTVSPropertyOp4
 70
     0
102
RTVSPropertyOp5
 70
     0
102
RTVSPropertyOp6
 70
     0
102
RTVSPropertyOp7
 70
     0
102
RTVSPropertyOp8
 70
     0
102
RTVSPropertyOp9
 70
     0
102
RTVSPropertyOp10
 70
     0
102
RTVSPropertyOp11
 70
     0
102
RTVSPropertyOp12
 70
     0
102
RTVSPropertyOp13
 70
     0
102
RTVSPropertyOp14
 70
     2
102
RTVSPropertyOp15
 70
     0
102
RTVSPropertyOp16
 70
     0
102
RTVSPropertyOp17
 70
     0
102
RTVSPropertyOp18
 70
     0
102
RTVSPropertyOp19
 70
     0
102
RTVSPropertyOp20
 70
     0
102
RTVSPropertyOp21
 70
     0
102
RTVSPropertyOp22
 70
     0
102
RTVSPropertyOp23
 70
     0
102
RTVSPropertyOp24
 70
     0
102
RTVSPropertyOp25
 70
     0
102
RTVSPropertyOp26
 70
     0
102
RTVSPropertyOp27
 70
     0
102
RTVSPropertyOp28
 70
     0
102
RTVSPropertyOp29
 70
     0
102
RTVSPropertyOp30
 70
     0
102
RTVSPropertyOp31
 70
     0
102
RTVSPropertyOp32
 70
     0
102
RTVSPropertyOp33
 70
     0
102
RTVSPropertyOp34
 70
     0
102
RTVSPropertyOp35
 70
     0
102
RTVSPropertyOp36
 70
     0
102
RTVSPropertyOp37
 70
     0
102
RTVSPropertyOp38
 70
     0
102
RTVSPropertyOp39
 70
     0
102
RTVSPropertyOp40
 70
     0
102
RTVSPropertyOp41
 70
     0
102
RTVSPropertyOp42
 70
     0
102
RTVSPropertyOp43
 70
     0
102
RTVSPropertyOp44
 70
     0
102
RTVSPropertyOp45
 70
     0
102
RTVSPropertyOp46
 70
     0
102
RTVSPropertyOp47
 70
     0
102
RTVSPropertyOp48
 70
     0
102
RTVSPropertyOp49
 70
     0
102
RTVSPropertyOp50
 70
     0
102
RTVSPropertyOp51
 70
     0
102
RTVSPropertyOp52
 70
     0
102
RTVSPropertyOp53
 70
     0
102
RTVSPropertyOp54
 70
     0
102
RTVSPropertyOp55
 70
     0
102
RTVSPropertyOp56
 70
     0
102
RTVSPropertyOp57
 70
     0
102
RTVSPost2010Prop28
280
     0
102
RTVSPost2010PropOp28
 70
     0
102
RTVSPost2010Prop29
280
     1
102
RTVSPost2010PropOp29
 70
     0
102
RTVSPost2010Prop30
280
     1
102
RTVSPost2010PropOp30
 70
     0
102
RTVSPost2010Prop31
280
     0
102
RTVSPost2010PropOp31
 70
     0
102
RTVSPost2010Prop32
280
     0
102
RTVSPost2010PropOp32
 70
     0
102
RTVSPost2010Prop33
280
     0
102
RTVSPost2010PropOp33
 70
     0
102
RTVSPost2010Prop34
280
     0
102
RTVSPost2010PropOp34
 70
     0
102
RTVSPost2010Prop35
280
     0
102
RTVSPost2010PropOp35
 70
     0
102
RTVSPost2010Prop36
280
     0
102
RTVSPost2010PropOp36
 70
     0
102
RTVSPost2010Prop37
 90
       50
102
RTVSPost2010PropOp37
 70
     0
102
RTVSPost2010Prop38
140
0.0
102
RTVSPost2010PropOp38
 70
     0
102
RTVSPost2010Prop39
140
1.0
102
RTVSPost2010PropOp39
 70
     0
102
RTVSPost2010Prop40
 90
        0
102
RTVSPost2010PropOp40
 70
     0
102
RTVSPost2010Prop41ColorIndex
 90
       18
102
RTVSPost2010Prop41ColorRGB
 90
        0
102
RTVSPost2010PropOp41
 70
     0
102
RTVSPost2010Prop42
 90
       50
102
RTVSPost2010PropOp42
 70
     0
102
RTVSPost2010Prop43
 90
        3
102
RTVSPost2010PropOp43
 70
     0
102
RTVSPost2010Prop44ColorIndex
 90
        5
102
RTVSPost2010Prop44ColorRGB
 90
      255
102
RTVSPost2010PropOp44
 70
     0
102
RTVSPost2010Prop45
280
     0
102
RTVSPost2010PropOp45
 70
     0
102
RTVSPost2010Prop46
 90
       50
102
RTVSPost2010PropOp46
 70
     0
102
RTVSPost2010Prop47
 90
       50
102
RTVSPost2010PropOp47
 70
     0
102
RTVSPost2010Prop48
 90
       50
102
RTVSPost2010PropOp48
 70
     0
102
RTVSPost2010Prop49
280
     0
102
RTVSPost2010PropOp49
 70
     0
102
RTVSPost2010Prop50
 90
       50
102
RTVSPost2010PropOp50
 70
     0
102
RTVSPost2010Prop51ColorIndex
 90
      256
102
RTVSPost2010Prop51ColorRGB
 90
-16777216
102
RTVSPost2010PropOp51
 70
     0
102
RTVSPost2010Prop52
140
1.0
102
RTVSPost2010PropOp52
 70
     0
102
RTVSPost2010Prop53
 90
        2
102
RTVSPost2010PropOp53
 70
     0
102
RTVSPost2010Prop54
  1
strokes_ogs.tif
102
RTVSPost2010PropOp54
 70
     0
102
RTVSPost2010Prop55
280
     0
102
RTVSPost2010PropOp55
 70
     0
102
RTVSPost2010Prop56
140
1.0
102
RTVSPost2010PropOp56
 70
     0
102
RTVSPost2010Prop57
140
1.0
102
RTVSPost2010PropOp57
 70
     0
  0
XRECORD
  5
D9
102
{ACAD_REACTORS
330
D8
102
}
330
D8
100
AcDbXrecord
280
     1
102
RTVSPropertyOp0
 70
     1
102
RTVSPropertyOp1
 70
     1
102
RTVSPropertyOp2
 70
     1
102
RTVSPropertyOp3
 70
     1
102
RTVSPropertyOp4
 70
     1
102
RTVSPropertyOp5
 70
     1
102
RTVSPropertyOp6
 70
     1
102
RTVSPropertyOp7
 70
     1
102
RTVSPropertyOp8
 70
     1
102
RTVSPropertyOp9
 70
     1
102
RTVSPropertyOp10
 70
     1
102
RTVSPropertyOp11
 70
     1
102
RTVSPropertyOp12
 70
     1
102
RTVSPropertyOp13
 70
     1
102
RTVSPropertyOp14
 70
     1
102
RTVSPropertyOp15
 70
     1
102
RTVSPropertyOp16
 70
     1
102
RTVSPropertyOp17
 70
     1
102
RTVSPropertyOp18
 70
     1
102
RTVSPropertyOp19
 70
     1
102
RTVSPropertyOp20
 70
     1
102
RTVSPropertyOp21
 70
     1
102
RTVSPropertyOp22
 70
     1
102
RTVSPropertyOp23
 70
     1
102
RTVSPropertyOp24
 70
     1
102
RTVSPropertyOp25
 70
     1
102
RTVSPropertyOp26
 70
     1
102
RTVSPropertyOp27
 70
     1
102
RTVSPropertyOp28
 70
     1
102
RTVSPropertyOp29
 70
     1
102
RTVSPropertyOp30
 70
     1
102
RTVSPropertyOp31
 70
     1
102
RTVSPropertyOp32
 70
     1
102
RTVSPropertyOp33
 70
     1
102
RTVSPropertyOp34
 70
     1
102
RTVSPropertyOp35
 70
     1
102
RTVSPropertyOp36
 70
     1
102
RTVSPropertyOp37
 70
     1
102
RTVSPropertyOp38
 70
     1
102
RTVSPropertyOp39
 70
     1
102
RTVSPropertyOp40
 70
     1
102
RTVSPropertyOp41
 70
     1
102
RTVSPropertyOp42
 70
     1
102
RTVSPropertyOp43
 70
     1
102
RTVSPropertyOp44
 70
     1
102
RTVSPropertyOp45
 70
     1
102
RTVSPropertyOp46
 70
     1
102
RTVSPropertyOp47
 70
     1
102
RTVSPropertyOp48
 70
     1
102
RTVSPropertyOp49
 70
     1
102
RTVSPropertyOp50
 70
     1
102
RTVSPropertyOp51
 70
     0
102
RTVSPropertyOp52
 70
     0
102
RTVSPropertyOp53
 70
     1
102
RTVSPropertyOp54
 70
     1
102
RTVSPropertyOp55
 70
     1
102
RTVSPropertyOp56
 70
     1
102
RTVSPropertyOp57
 70
     1
102
RTVSPost2010Prop28
280
     0
102
RTVSPost2010PropOp28
 70
     1
102
RTVSPost2010Prop29
280
     1
102
RTVSPost2010PropOp29
 70
     1
102
RTVSPost2010Prop30
280
     1
102
RTVSPost2010PropOp30
 70
     1
102
RTVSPost2010Prop31
280
     0
102
RTVSPost2010PropOp31
 70
     1
102
RTVSPost2010Prop32
280
     0
102
RTVSPost2010PropOp32
 70
     1
102
RTVSPost2010Prop33
280
     0
102
RTVSPost2010PropOp33
 70
     1
102
RTVSPost2010Prop34
280
     0
102
RTVSPost2010PropOp34
 70
     1
102
RTVSPost2010Prop35
280
     0
102
RTVSPost2010PropOp35
 70
     1
102
RTVSPost2010Prop36
280
     0
102
RTVSPost2010PropOp36
 70
     1
102
RTVSPost2010Prop37
 90
       50
102
RTVSPost2010PropOp37
 70
     1
102
RTVSPost2010Prop38
140
0.0
102
RTVSPost2010PropOp38
 70
     1
102
RTVSPost2010Prop39
140
1.0
102
RTVSPost2010PropOp39
 70
     1
102
RTVSPost2010Prop40
 90
        0
102
RTVSPost2010PropOp40
 70
     1
102
RTVSPost2010Prop41ColorIndex
 90
       18
102
RTVSPost2010Prop41ColorRGB
 90
        0
102
RTVSPost2010PropOp41
 70
     1
102
RTVSPost2010Prop42
 90
       50
102
RTVSPost2010PropOp42
 70
     1
102
RTVSPost2010Prop43
 90
        3
102
RTVSPost2010PropOp43
 70
     1
102
RTVSPost2010Prop44ColorIndex
 90
        5
102
RTVSPost2010Prop44ColorRGB
 90
      255
102
RTVSPost2010PropOp44
 70
     1
102
RTVSPost2010Prop45
280
     0
102
RTVSPost2010PropOp45
 70
     1
102
RTVSPost2010Prop46
 90
       50
102
RTVSPost2010PropOp46
 70
     1
102
RTVSPost2010Prop47
 90
       50
102
RTVSPost2010PropOp47
 70
     1
102
RTVSPost2010Prop48
 90
       50
102
RTVSPost2010PropOp48
 70
     1
102
RTVSPost2010Prop49
280
     0
102
RTVSPost2010PropOp49
 70
     1
102
RTVSPost2010Prop50
 90
       50
102
RTVSPost2010PropOp50
 70
     1
102
RTVSPost2010Prop51ColorIndex
 90
      256
102
RTVSPost2010Prop51ColorRGB
 90
-16777216
102
RTVSPost2010PropOp51
 70
     0
102
RTVSPost2010Prop52
140
1.0
102
RTVSPost2010PropOp52
 70
     0
102
RTVSPost2010Prop53
 90
        2
102
RTVSPost2010PropOp53
 70
     1
102
RTVSPost2010Prop54
  1
strokes_ogs.tif
102
RTVSPost2010PropOp54
 70
     1
102
RTVSPost2010Prop55
280
     0
102
RTVSPost2010PropOp55
 70
     1
102
RTVSPost2010Prop56
140
1.0
102
RTVSPost2010PropOp56
 70
     1
102
RTVSPost2010Prop57
140
1.0
102
RTVSPost2010PropOp57
 70
     1
  0
XRECORD
  5
F7
102
{ACAD_REACTORS
330
F6
102
}
330
F6
100
AcDbXrecord
280
     1
102
RTVSPropertyOp0
 70
     1
102
RTVSPropertyOp1
 70
     1
102
RTVSPropertyOp2
 70
     1
102
RTVSPropertyOp3
 70
     1
102
RTVSPropertyOp4
 70
     1
102
RTVSPropertyOp5
 70
     1
102
RTVSPropertyOp6
 70
     1
102
RTVSPropertyOp7
 70
     1
102
RTVSPropertyOp8
 70
     1
102
RTVSPropertyOp9
 70
     1
102
RTVSPropertyOp10
 70
     1
102
RTVSPropertyOp11
 70
     1
102
RTVSPropertyOp12
 70
     1
102
RTVSPropertyOp13
 70
     1
102
RTVSPropertyOp14
 70
     1
102
RTVSPropertyOp15
 70
     1
102
RTVSPropertyOp16
 70
     1
102
RTVSPropertyOp17
 70
     1
102
RTVSPropertyOp18
 70
     1
102
RTVSPropertyOp19
 70
     1
102
RTVSPropertyOp20
 70
     1
102
RTVSPropertyOp21
 70
     1
102
RTVSPropertyOp22
 70
     1
102
RTVSPropertyOp23
 70
     1
102
RTVSPropertyOp24
 70
     1
102
RTVSPropertyOp25
 70
     1
102
RTVSPropertyOp26
 70
     1
102
RTVSPropertyOp27
 70
     1
102
RTVSPropertyOp28
 70
     1
102
RTVSPropertyOp29
 70
     1
102
RTVSPropertyOp30
 70
     1
102
RTVSPropertyOp31
 70
     1
102
RTVSPropertyOp32
 70
     1
102
RTVSPropertyOp33
 70
     1
102
RTVSPropertyOp34
 70
     1
102
RTVSPropertyOp35
 70
     1
102
RTVSPropertyOp36
 70
     1
102
RTVSPropertyOp37
 70
     1
102
RTVSPropertyOp38
 70
     1
102
RTVSPropertyOp39
 70
     1
102
RTVSPropertyOp40
 70
     1
102
RTVSPropertyOp41
 70
     1
102
RTVSPropertyOp42
 70
     1
102
RTVSPropertyOp43
 70
     1
102
RTVSPropertyOp44
 70
     1
102
RTVSPropertyOp45
 70
     1
102
RTVSPropertyOp46
 70
     1
102
RTVSPropertyOp47
 70
     1
102
RTVSPropertyOp48
 70
     1
102
RTVSPropertyOp49
 70
     1
102
RTVSPropertyOp50
 70
     1
102
RTVSPropertyOp51
 70
     0
102
RTVSPropertyOp52
 70
     0
102
RTVSPropertyOp53
 70
     1
102
RTVSPropertyOp54
 70
     1
102
RTVSPropertyOp55
 70
     1
102
RTVSPropertyOp56
 70
     1
102
RTVSPropertyOp57
 70
     1
102
RTVSPost2010Prop28
280
     0
102
RTVSPost2010PropOp28
 70
     1
102
RTVSPost2010Prop29
280
     1
102
RTVSPost2010PropOp29
 70
     1
102
RTVSPost2010Prop30
280
     1
102
RTVSPost2010PropOp30
 70
     1
102
RTVSPost2010Prop31
280
     0
102
RTVSPost2010PropOp31
 70
     1
102
RTVSPost2010Prop32
280
     0
102
RTVSPost2010PropOp32
 70
     1
102
RTVSPost2010Prop33
280
     0
102
RTVSPost2010PropOp33
 70
     1
102
RTVSPost2010Prop34
280
     0
102
RTVSPost2010PropOp34
 70
     1
102
RTVSPost2010Prop35
280
     0
102
RTVSPost2010PropOp35
 70
     1
102
RTVSPost2010Prop36
280
     0
102
RTVSPost2010PropOp36
 70
     1
102
RTVSPost2010Prop37
 90
       50
102
RTVSPost2010PropOp37
 70
     1
102
RTVSPost2010Prop38
140
0.0
102
RTVSPost2010PropOp38
 70
     1
102
RTVSPost2010Prop39
140
1.0
102
RTVSPost2010PropOp39
 70
     1
102
RTVSPost2010Prop40
 90
        0
102
RTVSPost2010PropOp40
 70
     1
102
RTVSPost2010Prop41ColorIndex
 90
       18
102
RTVSPost2010Prop41ColorRGB
 90
        0
102
RTVSPost2010PropOp41
 70
     1
102
RTVSPost2010Prop42
 90
       50
102
RTVSPost2010PropOp42
 70
     1
102
RTVSPost2010Prop43
 90
        3
102
RTVSPost2010PropOp43
 70
     1
102
RTVSPost2010Prop44ColorIndex
 90
        5
102
RTVSPost2010Prop44ColorRGB
 90
      255
102
RTVSPost2010PropOp44
 70
     1
102
RTVSPost2010Prop45
280
     0
102
RTVSPost2010PropOp45
 70
     1
102
RTVSPost2010Prop46
 90
       50
102
RTVSPost2010PropOp46
 70
     1
102
RTVSPost2010Prop47
 90
       50
102
RTVSPost2010PropOp47
 70
     1
102
RTVSPost2010Prop48
 90
       50
102
RTVSPost2010PropOp48
 70
     1
102
RTVSPost2010Prop49
280
     0
102
RTVSPost2010PropOp49
 70
     1
102
RTVSPost2010Prop50
 90
       50
102
RTVSPost2010PropOp50
 70
     1
102
RTVSPost2010Prop51ColorIndex
 90
      256
102
RTVSPost2010Prop51ColorRGB
 90
-16777216
102
RTVSPost2010PropOp51
 70
     0
102
RTVSPost2010Prop52
140
1.0
102
RTVSPost2010PropOp52
 70
     0
102
RTVSPost2010Prop53
 90
        2
102
RTVSPost2010PropOp53
 70
     1
102
RTVSPost2010Prop54
  1
strokes_ogs.tif
102
RTVSPost2010PropOp54
 70
     1
102
RTVSPost2010Prop55
280
     0
102
RTVSPost2010PropOp55
 70
     1
102
RTVSPost2010Prop56
140
1.0
102
RTVSPost2010PropOp56
 70
     1
102
RTVSPost2010Prop57
140
1.0
102
RTVSPost2010PropOp57
 70
     1
  0
XRECORD
  5
F5
102
{ACAD_REACTORS
330
F4
102
}
330
F4
100
AcDbXrecord
280
     1
102
RTVSPropertyOp0
 70
     1
102
RTVSPropertyOp1
 70
     1
102
RTVSPropertyOp2
 70
     1
102
RTVSPropertyOp3
 70
     1
102
RTVSPropertyOp4
 70
     1
102
RTVSPropertyOp5
 70
     1
102
RTVSPropertyOp6
 70
     1
102
RTVSPropertyOp7
 70
     1
102
RTVSPropertyOp8
 70
     1
102
RTVSPropertyOp9
 70
     1
102
RTVSPropertyOp10
 70
     1
102
RTVSPropertyOp11
 70
     1
102
RTVSPropertyOp12
 70
     1
102
RTVSPropertyOp13
 70
     1
102
RTVSPropertyOp14
 70
     1
102
RTVSPropertyOp15
 70
     1
102
RTVSPropertyOp16
 70
     1
102
RTVSPropertyOp17
 70
     1
102
RTVSPropertyOp18
 70
     1
102
RTVSPropertyOp19
 70
     1
102
RTVSPropertyOp20
 70
     1
102
RTVSPropertyOp21
 70
     1
102
RTVSPropertyOp22
 70
     1
102
RTVSPropertyOp23
 70
     1
102
RTVSPropertyOp24
 70
     1
102
RTVSPropertyOp25
 70
     1
102
RTVSPropertyOp26
 70
     1
102
RTVSPropertyOp27
 70
     1
102
RTVSPropertyOp28
 70
     1
102
RTVSPropertyOp29
 70
     1
102
RTVSPropertyOp30
 70
     1
102
RTVSPropertyOp31
 70
     1
102
RTVSPropertyOp32
 70
     1
102
RTVSPropertyOp33
 70
     1
102
RTVSPropertyOp34
 70
     1
102
RTVSPropertyOp35
 70
     1
102
RTVSPropertyOp36
 70
     1
102
RTVSPropertyOp37
 70
     1
102
RTVSPropertyOp38
 70
     1
102
RTVSPropertyOp39
 70
     1
102
RTVSPropertyOp40
 70
     1
102
RTVSPropertyOp41
 70
     1
102
RTVSPropertyOp42
 70
     1
102
RTVSPropertyOp43
 70
     1
102
RTVSPropertyOp44
 70
     1
102
RTVSPropertyOp45
 70
     1
102
RTVSPropertyOp46
 70
     1
102
RTVSPropertyOp47
 70
     1
102
RTVSPropertyOp48
 70
     1
102
RTVSPropertyOp49
 70
     1
102
RTVSPropertyOp50
 70
     1
102
RTVSPropertyOp51
 70
     0
102
RTVSPropertyOp52
 70
     0
102
RTVSPropertyOp53
 70
     1
102
RTVSPropertyOp54
 70
     1
102
RTVSPropertyOp55
 70
     1
102
RTVSPropertyOp56
 70
     1
102
RTVSPropertyOp57
 70
     1
102
RTVSPost2010Prop28
280
     0
102
RTVSPost2010PropOp28
 70
     1
102
RTVSPost2010Prop29
280
     1
102
RTVSPost2010PropOp29
 70
     1
102
RTVSPost2010Prop30
280
     1
102
RTVSPost2010PropOp30
 70
     1
102
RTVSPost2010Prop31
280
     0
102
RTVSPost2010PropOp31
 70
     1
102
RTVSPost2010Prop32
280
     0
102
RTVSPost2010PropOp32
 70
     1
102
RTVSPost2010Prop33
280
     0
102
RTVSPost2010PropOp33
 70
     1
102
RTVSPost2010Prop34
280
     0
102
RTVSPost2010PropOp34
 70
     1
102
RTVSPost2010Prop35
280
     0
102
RTVSPost2010PropOp35
 70
     1
102
RTVSPost2010Prop36
280
     0
102
RTVSPost2010PropOp36
 70
     1
102
RTVSPost2010Prop37
 90
       50
102
RTVSPost2010PropOp37
 70
     1
102
RTVSPost2010Prop38
140
0.0
102
RTVSPost2010PropOp38
 70
     1
102
RTVSPost2010Prop39
140
1.0
102
RTVSPost2010PropOp39
 70
     1
102
RTVSPost2010Prop40
 90
        0
102
RTVSPost2010PropOp40
 70
     1
102
RTVSPost2010Prop41ColorIndex
 90
       18
102
RTVSPost2010Prop41ColorRGB
 90
        0
102
RTVSPost2010PropOp41
 70
     1
102
RTVSPost2010Prop42
 90
       50
102
RTVSPost2010PropOp42
 70
     1
102
RTVSPost2010Prop43
 90
        3
102
RTVSPost2010PropOp43
 70
     1
102
RTVSPost2010Prop44ColorIndex
 90
        5
102
RTVSPost2010Prop44ColorRGB
 90
      255
102
RTVSPost2010PropOp44
 70
     1
102
RTVSPost2010Prop45
280
     0
102
RTVSPost2010PropOp45
 70
     1
102
RTVSPost2010Prop46
 90
       50
102
RTVSPost2010PropOp46
 70
     1
102
RTVSPost2010Prop47
 90
       50
102
RTVSPost2010PropOp47
 70
     1
102
RTVSPost2010Prop48
 90
       50
102
RTVSPost2010PropOp48
 70
     1
102
RTVSPost2010Prop49
280
     0
102
RTVSPost2010PropOp49
 70
     1
102
RTVSPost2010Prop50
 90
       50
102
RTVSPost2010PropOp50
 70
     1
102
RTVSPost2010Prop51ColorIndex
 90
      256
102
RTVSPost2010Prop51ColorRGB
 90
-16777216
102
RTVSPost2010PropOp51
 70
     0
102
RTVSPost2010Prop52
140
1.0
102
RTVSPost2010PropOp52
 70
     0
102
RTVSPost2010Prop53
 90
        2
102
RTVSPost2010PropOp53
 70
     1
102
RTVSPost2010Prop54
  1
strokes_ogs.tif
102
RTVSPost2010PropOp54
 70
     1
102
RTVSPost2010Prop55
280
     0
102
RTVSPost2010PropOp55
 70
     1
102
RTVSPost2010Prop56
140
1.0
102
RTVSPost2010PropOp56
 70
     1
102
RTVSPost2010Prop57
140
1.0
102
RTVSPost2010PropOp57
 70
     1
  0
XRECORD
  5
EF
102
{ACAD_REACTORS
330
EE
102
}
330
EE
100
AcDbXrecord
280
     1
102
RTVSPropertyOp0
 70
     1
102
RTVSPropertyOp1
 70
     1
102
RTVSPropertyOp2
 70
     1
102
RTVSPropertyOp3
 70
     1
102
RTVSPropertyOp4
 70
     1
102
RTVSPropertyOp5
 70
     1
102
RTVSPropertyOp6
 70
     1
102
RTVSPropertyOp7
 70
     1
102
RTVSPropertyOp8
 70
     1
102
RTVSPropertyOp9
 70
     1
102
RTVSPropertyOp10
 70
     1
102
RTVSPropertyOp11
 70
     1
102
RTVSPropertyOp12
 70
     1
102
RTVSPropertyOp13
 70
     1
102
RTVSPropertyOp14
 70
     1
102
RTVSPropertyOp15
 70
     1
102
RTVSPropertyOp16
 70
     1
102
RTVSPropertyOp17
 70
     1
102
RTVSPropertyOp18
 70
     1
102
RTVSPropertyOp19
 70
     1
102
RTVSPropertyOp20
 70
     1
102
RTVSPropertyOp21
 70
     1
102
RTVSPropertyOp22
 70
     1
102
RTVSPropertyOp23
 70
     1
102
RTVSPropertyOp24
 70
     1
102
RTVSPropertyOp25
 70
     1
102
RTVSPropertyOp26
 70
     1
102
RTVSPropertyOp27
 70
     1
102
RTVSPropertyOp28
 70
     1
102
RTVSPropertyOp29
 70
     1
102
RTVSPropertyOp30
 70
     1
102
RTVSPropertyOp31
 70
     1
102
RTVSPropertyOp32
 70
     1
102
RTVSPropertyOp33
 70
     1
102
RTVSPropertyOp34
 70
     1
102
RTVSPropertyOp35
 70
     1
102
RTVSPropertyOp36
 70
     1
102
RTVSPropertyOp37
 70
     1
102
RTVSPropertyOp38
 70
     1
102
RTVSPropertyOp39
 70
     1
102
RTVSPropertyOp40
 70
     1
102
RTVSPropertyOp41
 70
     1
102
RTVSPropertyOp42
 70
     1
102
RTVSPropertyOp43
 70
     1
102
RTVSPropertyOp44
 70
     1
102
RTVSPropertyOp45
 70
     1
102
RTVSPropertyOp46
 70
     1
102
RTVSPropertyOp47
 70
     1
102
RTVSPropertyOp48
 70
     1
102
RTVSPropertyOp49
 70
     1
102
RTVSPropertyOp50
 70
     1
102
RTVSPropertyOp51
 70
     0
102
RTVSPropertyOp52
 70
     0
102
RTVSPropertyOp53
 70
     1
102
RTVSPropertyOp54
 70
     1
102
RTVSPropertyOp55
 70
     1
102
RTVSPropertyOp56
 70
     1
102
RTVSPropertyOp57
 70
     1
102
RTVSPost2010Prop28
280
     0
102
RTVSPost2010PropOp28
 70
     1
102
RTVSPost2010Prop29
280
     1
102
RTVSPost2010PropOp29
 70
     1
102
RTVSPost2010Prop30
280
     1
102
RTVSPost2010PropOp30
 70
     1
102
RTVSPost2010Prop31
280
     0
102
RTVSPost2010PropOp31
 70
     1
102
RTVSPost2010Prop32
280
     0
102
RTVSPost2010PropOp32
 70
     1
102
RTVSPost2010Prop33
280
     0
102
RTVSPost2010PropOp33
 70
     1
102
RTVSPost2010Prop34
280
     0
102
RTVSPost2010PropOp34
 70
     1
102
RTVSPost2010Prop35
280
     0
102
RTVSPost2010PropOp35
 70
     1
102
RTVSPost2010Prop36
280
     0
102
RTVSPost2010PropOp36
 70
     1
102
RTVSPost2010Prop37
 90
       50
102
RTVSPost2010PropOp37
 70
     1
102
RTVSPost2010Prop38
140
0.0
102
RTVSPost2010PropOp38
 70
     1
102
RTVSPost2010Prop39
140
1.0
102
RTVSPost2010PropOp39
 70
     1
102
RTVSPost2010Prop40
 90
        0
102
RTVSPost2010PropOp40
 70
     1
102
RTVSPost2010Prop41ColorIndex
 90
       18
102
RTVSPost2010Prop41ColorRGB
 90
        0
102
RTVSPost2010PropOp41
 70
     1
102
RTVSPost2010Prop42
 90
       50
102
RTVSPost2010PropOp42
 70
     1
102
RTVSPost2010Prop43
 90
        3
102
RTVSPost2010PropOp43
 70
     1
102
RTVSPost2010Prop44ColorIndex
 90
        5
102
RTVSPost2010Prop44ColorRGB
 90
      255
102
RTVSPost2010PropOp44
 70
     1
102
RTVSPost2010Prop45
280
     0
102
RTVSPost2010PropOp45
 70
     1
102
RTVSPost2010Prop46
 90
       50
102
RTVSPost2010PropOp46
 70
     1
102
RTVSPost2010Prop47
 90
       50
102
RTVSPost2010PropOp47
 70
     1
102
RTVSPost2010Prop48
 90
       50
102
RTVSPost2010PropOp48
 70
     1
102
RTVSPost2010Prop49
280
     0
102
RTVSPost2010PropOp49
 70
     1
102
RTVSPost2010Prop50
 90
       50
102
RTVSPost2010PropOp50
 70
     1
102
RTVSPost2010Prop51ColorIndex
 90
      256
102
RTVSPost2010Prop51ColorRGB
 90
-16777216
102
RTVSPost2010PropOp51
 70
     0
102
RTVSPost2010Prop52
140
1.0
102
RTVSPost2010PropOp52
 70
     0
102
RTVSPost2010Prop53
 90
        2
102
RTVSPost2010PropOp53
 70
     1
102
RTVSPost2010Prop54
  1
strokes_ogs.tif
102
RTVSPost2010PropOp54
 70
     1
102
RTVSPost2010Prop55
280
     0
102
RTVSPost2010PropOp55
 70
     1
102
RTVSPost2010Prop56
140
1.0
102
RTVSPost2010PropOp56
 70
     1
102
RTVSPost2010Prop57
140
1.0
102
RTVSPost2010PropOp57
 70
     1
  0
XRECORD
  5
F1
102
{ACAD_REACTORS
330
F0
102
}
330
F0
100
AcDbXrecord
280
     1
102
RTVSPropertyOp0
 70
     1
102
RTVSPropertyOp1
 70
     1
102
RTVSPropertyOp2
 70
     1
102
RTVSPropertyOp3
 70
     1
102
RTVSPropertyOp4
 70
     1
102
RTVSPropertyOp5
 70
     1
102
RTVSPropertyOp6
 70
     1
102
RTVSPropertyOp7
 70
     1
102
RTVSPropertyOp8
 70
     1
102
RTVSPropertyOp9
 70
     1
102
RTVSPropertyOp10
 70
     1
102
RTVSPropertyOp11
 70
     1
102
RTVSPropertyOp12
 70
     1
102
RTVSPropertyOp13
 70
     1
102
RTVSPropertyOp14
 70
     1
102
RTVSPropertyOp15
 70
     1
102
RTVSPropertyOp16
 70
     1
102
RTVSPropertyOp17
 70
     1
102
RTVSPropertyOp18
 70
     1
102
RTVSPropertyOp19
 70
     1
102
RTVSPropertyOp20
 70
     1
102
RTVSPropertyOp21
 70
     1
102
RTVSPropertyOp22
 70
     1
102
RTVSPropertyOp23
 70
     1
102
RTVSPropertyOp24
 70
     1
102
RTVSPropertyOp25
 70
     1
102
RTVSPropertyOp26
 70
     1
102
RTVSPropertyOp27
 70
     1
102
RTVSPropertyOp28
 70
     1
102
RTVSPropertyOp29
 70
     1
102
RTVSPropertyOp30
 70
     1
102
RTVSPropertyOp31
 70
     1
102
RTVSPropertyOp32
 70
     1
102
RTVSPropertyOp33
 70
     1
102
RTVSPropertyOp34
 70
     1
102
RTVSPropertyOp35
 70
     1
102
RTVSPropertyOp36
 70
     1
102
RTVSPropertyOp37
 70
     1
102
RTVSPropertyOp38
 70
     1
102
RTVSPropertyOp39
 70
     1
102
RTVSPropertyOp40
 70
     1
102
RTVSPropertyOp41
 70
     1
102
RTVSPropertyOp42
 70
     1
102
RTVSPropertyOp43
 70
     1
102
RTVSPropertyOp44
 70
     1
102
RTVSPropertyOp45
 70
     1
102
RTVSPropertyOp46
 70
     1
102
RTVSPropertyOp47
 70
     1
102
RTVSPropertyOp48
 70
     1
102
RTVSPropertyOp49
 70
     1
102
RTVSPropertyOp50
 70
     1
102
RTVSPropertyOp51
 70
     0
102
RTVSPropertyOp52
 70
     0
102
RTVSPropertyOp53
 70
     1
102
RTVSPropertyOp54
 70
     1
102
RTVSPropertyOp55
 70
     1
102
RTVSPropertyOp56
 70
     1
102
RTVSPropertyOp57
 70
     1
102
RTVSPost2010Prop28
280
     0
102
RTVSPost2010PropOp28
 70
     1
102
RTVSPost2010Prop29
280
     1
102
RTVSPost2010PropOp29
 70
     1
102
RTVSPost2010Prop30
280
     1
102
RTVSPost2010PropOp30
 70
     1
102
RTVSPost2010Prop31
280
     0
102
RTVSPost2010PropOp31
 70
     1
102
RTVSPost2010Prop32
280
     0
102
RTVSPost2010PropOp32
 70
     1
102
RTVSPost2010Prop33
280
     0
102
RTVSPost2010PropOp33
 70
     1
102
RTVSPost2010Prop34
280
     0
102
RTVSPost2010PropOp34
 70
     1
102
RTVSPost2010Prop35
280
     0
102
RTVSPost2010PropOp35
 70
     1
102
RTVSPost2010Prop36
280
     0
102
RTVSPost2010PropOp36
 70
     1
102
RTVSPost2010Prop37
 90
       50
102
RTVSPost2010PropOp37
 70
     1
102
RTVSPost2010Prop38
140
0.0
102
RTVSPost2010PropOp38
 70
     1
102
RTVSPost2010Prop39
140
1.0
102
RTVSPost2010PropOp39
 70
     1
102
RTVSPost2010Prop40
 90
        0
102
RTVSPost2010PropOp40
 70
     1
102
RTVSPost2010Prop41ColorIndex
 90
       18
102
RTVSPost2010Prop41ColorRGB
 90
        0
102
RTVSPost2010PropOp41
 70
     1
102
RTVSPost2010Prop42
 90
       50
102
RTVSPost2010PropOp42
 70
     1
102
RTVSPost2010Prop43
 90
        3
102
RTVSPost2010PropOp43
 70
     1
102
RTVSPost2010Prop44ColorIndex
 90
        5
102
RTVSPost2010Prop44ColorRGB
 90
      255
102
RTVSPost2010PropOp44
 70
     1
102
RTVSPost2010Prop45
280
     0
102
RTVSPost2010PropOp45
 70
     1
102
RTVSPost2010Prop46
 90
       50
102
RTVSPost2010PropOp46
 70
     1
102
RTVSPost2010Prop47
 90
       50
102
RTVSPost2010PropOp47
 70
     1
102
RTVSPost2010Prop48
 90
       50
102
RTVSPost2010PropOp48
 70
     1
102
RTVSPost2010Prop49
280
     0
102
RTVSPost2010PropOp49
 70
     1
102
RTVSPost2010Prop50
 90
       50
102
RTVSPost2010PropOp50
 70
     1
102
RTVSPost2010Prop51ColorIndex
 90
      256
102
RTVSPost2010Prop51ColorRGB
 90
-16777216
102
RTVSPost2010PropOp51
 70
     0
102
RTVSPost2010Prop52
140
1.0
102
RTVSPost2010PropOp52
 70
     0
102
RTVSPost2010Prop53
 90
        2
102
RTVSPost2010PropOp53
 70
     1
102
RTVSPost2010Prop54
  1
strokes_ogs.tif
102
RTVSPost2010PropOp54
 70
     1
102
RTVSPost2010Prop55
280
     0
102
RTVSPost2010PropOp55
 70
     1
102
RTVSPost2010Prop56
140
1.0
102
RTVSPost2010PropOp56
 70
     1
102
RTVSPost2010Prop57
140
1.0
102
RTVSPost2010PropOp57
 70
     1
  0
XRECORD
  5
E1
102
{ACAD_REACTORS
330
E0
102
}
330
E0
100
AcDbXrecord
280
     1
102
RTVSPropertyOp0
 70
     1
102
RTVSPropertyOp1
 70
     1
102
RTVSPropertyOp2
 70
     1
102
RTVSPropertyOp3
 70
     1
102
RTVSPropertyOp4
 70
     1
102
RTVSPropertyOp5
 70
     1
102
RTVSPropertyOp6
 70
     1
102
RTVSPropertyOp7
 70
     1
102
RTVSPropertyOp8
 70
     1
102
RTVSPropertyOp9
 70
     1
102
RTVSPropertyOp10
 70
     1
102
RTVSPropertyOp11
 70
     1
102
RTVSPropertyOp12
 70
     1
102
RTVSPropertyOp13
 70
     1
102
RTVSPropertyOp14
 70
     1
102
RTVSPropertyOp15
 70
     1
102
RTVSPropertyOp16
 70
     1
102
RTVSPropertyOp17
 70
     1
102
RTVSPropertyOp18
 70
     1
102
RTVSPropertyOp19
 70
     1
102
RTVSPropertyOp20
 70
     1
102
RTVSPropertyOp21
 70
     1
102
RTVSPropertyOp22
 70
     1
102
RTVSPropertyOp23
 70
     1
102
RTVSPropertyOp24
 70
     1
102
RTVSPropertyOp25
 70
     1
102
RTVSPropertyOp26
 70
     1
102
RTVSPropertyOp27
 70
     1
102
RTVSPropertyOp28
 70
     1
102
RTVSPropertyOp29
 70
     1
102
RTVSPropertyOp30
 70
     1
102
RTVSPropertyOp31
 70
     1
102
RTVSPropertyOp32
 70
     1
102
RTVSPropertyOp33
 70
     1
102
RTVSPropertyOp34
 70
     1
102
RTVSPropertyOp35
 70
     1
102
RTVSPropertyOp36
 70
     1
102
RTVSPropertyOp37
 70
     1
102
RTVSPropertyOp38
 70
     1
102
RTVSPropertyOp39
 70
     1
102
RTVSPropertyOp40
 70
     1
102
RTVSPropertyOp41
 70
     1
102
RTVSPropertyOp42
 70
     1
102
RTVSPropertyOp43
 70
     1
102
RTVSPropertyOp44
 70
     1
102
RTVSPropertyOp45
 70
     1
102
RTVSPropertyOp46
 70
     1
102
RTVSPropertyOp47
 70
     1
102
RTVSPropertyOp48
 70
     1
102
RTVSPropertyOp49
 70
     1
102
RTVSPropertyOp50
 70
     1
102
RTVSPropertyOp51
 70
     0
102
RTVSPropertyOp52
 70
     0
102
RTVSPropertyOp53
 70
     1
102
RTVSPropertyOp54
 70
     1
102
RTVSPropertyOp55
 70
     1
102
RTVSPropertyOp56
 70
     1
102
RTVSPropertyOp57
 70
     1
102
RTVSPost2010Prop28
280
     0
102
RTVSPost2010PropOp28
 70
     1
102
RTVSPost2010Prop29
280
     1
102
RTVSPost2010PropOp29
 70
     1
102
RTVSPost2010Prop30
280
     1
102
RTVSPost2010PropOp30
 70
     1
102
RTVSPost2010Prop31
280
     0
102
RTVSPost2010PropOp31
 70
     1
102
RTVSPost2010Prop32
280
     0
102
RTVSPost2010PropOp32
 70
     1
102
RTVSPost2010Prop33
280
     0
102
RTVSPost2010PropOp33
 70
     1
102
RTVSPost2010Prop34
280
     0
102
RTVSPost2010PropOp34
 70
     1
102
RTVSPost2010Prop35
280
     0
102
RTVSPost2010PropOp35
 70
     1
102
RTVSPost2010Prop36
280
     0
102
RTVSPost2010PropOp36
 70
     1
102
RTVSPost2010Prop37
 90
       50
102
RTVSPost2010PropOp37
 70
     1
102
RTVSPost2010Prop38
140
0.0
102
RTVSPost2010PropOp38
 70
     1
102
RTVSPost2010Prop39
140
1.0
102
RTVSPost2010PropOp39
 70
     1
102
RTVSPost2010Prop40
 90
        0
102
RTVSPost2010PropOp40
 70
     1
102
RTVSPost2010Prop41ColorIndex
 90
       18
102
RTVSPost2010Prop41ColorRGB
 90
        0
102
RTVSPost2010PropOp41
 70
     1
102
RTVSPost2010Prop42
 90
       50
102
RTVSPost2010PropOp42
 70
     1
102
RTVSPost2010Prop43
 90
        3
102
RTVSPost2010PropOp43
 70
     1
102
RTVSPost2010Prop44ColorIndex
 90
        5
102
RTVSPost2010Prop44ColorRGB
 90
      255
102
RTVSPost2010PropOp44
 70
     1
102
RTVSPost2010Prop45
280
     0
102
RTVSPost2010PropOp45
 70
     1
102
RTVSPost2010Prop46
 90
       50
102
RTVSPost2010PropOp46
 70
     1
102
RTVSPost2010Prop47
 90
       50
102
RTVSPost2010PropOp47
 70
     1
102
RTVSPost2010Prop48
 90
       50
102
RTVSPost2010PropOp48
 70
     1
102
RTVSPost2010Prop49
280
     0
102
RTVSPost2010PropOp49
 70
     1
102
RTVSPost2010Prop50
 90
       50
102
RTVSPost2010PropOp50
 70
     1
102
RTVSPost2010Prop51ColorIndex
 90
      256
102
RTVSPost2010Prop51ColorRGB
 90
-16777216
102
RTVSPost2010PropOp51
 70
     0
102
RTVSPost2010Prop52
140
1.0
102
RTVSPost2010PropOp52
 70
     0
102
RTVSPost2010Prop53
 90
        2
102
RTVSPost2010PropOp53
 70
     1
102
RTVSPost2010Prop54
  1
strokes_ogs.tif
102
RTVSPost2010PropOp54
 70
     1
102
RTVSPost2010Prop55
280
     0
102
RTVSPost2010PropOp55
 70
     1
102
RTVSPost2010Prop56
140
1.0
102
RTVSPost2010PropOp56
 70
     1
102
RTVSPost2010Prop57
140
1.0
102
RTVSPost2010PropOp57
 70
     1
  0
XRECORD
  5
D3
102
{ACAD_REACTORS
330
D2
102
}
330
D2
100
AcDbXrecord
280
     1
102
RTVSPropertyOp0
 70
     1
102
RTVSPropertyOp1
 70
     1
102
RTVSPropertyOp2
 70
     1
102
RTVSPropertyOp3
 70
     1
102
RTVSPropertyOp4
 70
     1
102
RTVSPropertyOp5
 70
     1
102
RTVSPropertyOp6
 70
     1
102
RTVSPropertyOp7
 70
     1
102
RTVSPropertyOp8
 70
     1
102
RTVSPropertyOp9
 70
     1
102
RTVSPropertyOp10
 70
     1
102
RTVSPropertyOp11
 70
     1
102
RTVSPropertyOp12
 70
     1
102
RTVSPropertyOp13
 70
     1
102
RTVSPropertyOp14
 70
     1
102
RTVSPropertyOp15
 70
     1
102
RTVSPropertyOp16
 70
     1
102
RTVSPropertyOp17
 70
     1
102
RTVSPropertyOp18
 70
     1
102
RTVSPropertyOp19
 70
     1
102
RTVSPropertyOp20
 70
     1
102
RTVSPropertyOp21
 70
     1
102
RTVSPropertyOp22
 70
     1
102
RTVSPropertyOp23
 70
     1
102
RTVSPropertyOp24
 70
     1
102
RTVSPropertyOp25
 70
     1
102
RTVSPropertyOp26
 70
     1
102
RTVSPropertyOp27
 70
     1
102
RTVSPropertyOp28
 70
     1
102
RTVSPropertyOp29
 70
     1
102
RTVSPropertyOp30
 70
     1
102
RTVSPropertyOp31
 70
     1
102
RTVSPropertyOp32
 70
     1
102
RTVSPropertyOp33
 70
     1
102
RTVSPropertyOp34
 70
     1
102
RTVSPropertyOp35
 70
     1
102
RTVSPropertyOp36
 70
     1
102
RTVSPropertyOp37
 70
     1
102
RTVSPropertyOp38
 70
     1
102
RTVSPropertyOp39
 70
     1
102
RTVSPropertyOp40
 70
     1
102
RTVSPropertyOp41
 70
     1
102
RTVSPropertyOp42
 70
     1
102
RTVSPropertyOp43
 70
     1
102
RTVSPropertyOp44
 70
     1
102
RTVSPropertyOp45
 70
     1
102
RTVSPropertyOp46
 70
     1
102
RTVSPropertyOp47
 70
     1
102
RTVSPropertyOp48
 70
     1
102
RTVSPropertyOp49
 70
     1
102
RTVSPropertyOp50
 70
     1
102
RTVSPropertyOp51
 70
     0
102
RTVSPropertyOp52
 70
     0
102
RTVSPropertyOp53
 70
     1
102
RTVSPropertyOp54
 70
     1
102
RTVSPropertyOp55
 70
     1
102
RTVSPropertyOp56
 70
     1
102
RTVSPropertyOp57
 70
     1
102
RTVSPost2010Prop28
280
     0
102
RTVSPost2010PropOp28
 70
     1
102
RTVSPost2010Prop29
280
     1
102
RTVSPost2010PropOp29
 70
     1
102
RTVSPost2010Prop30
280
     1
102
RTVSPost2010PropOp30
 70
     1
102
RTVSPost2010Prop31
280
     0
102
RTVSPost2010PropOp31
 70
     1
102
RTVSPost2010Prop32
280
     0
102
RTVSPost2010PropOp32
 70
     1
102
RTVSPost2010Prop33
280
     0
102
RTVSPost2010PropOp33
 70
     1
102
RTVSPost2010Prop34
280
     0
102
RTVSPost2010PropOp34
 70
     1
102
RTVSPost2010Prop35
280
     0
102
RTVSPost2010PropOp35
 70
     1
102
RTVSPost2010Prop36
280
     0
102
RTVSPost2010PropOp36
 70
     1
102
RTVSPost2010Prop37
 90
       50
102
RTVSPost2010PropOp37
 70
     1
102
RTVSPost2010Prop38
140
0.0
102
RTVSPost2010PropOp38
 70
     1
102
RTVSPost2010Prop39
140
1.0
102
RTVSPost2010PropOp39
 70
     1
102
RTVSPost2010Prop40
 90
        0
102
RTVSPost2010PropOp40
 70
     1
102
RTVSPost2010Prop41ColorIndex
 90
       18
102
RTVSPost2010Prop41ColorRGB
 90
        0
102
RTVSPost2010PropOp41
 70
     1
102
RTVSPost2010Prop42
 90
       50
102
RTVSPost2010PropOp42
 70
     1
102
RTVSPost2010Prop43
 90
        3
102
RTVSPost2010PropOp43
 70
     1
102
RTVSPost2010Prop44ColorIndex
 90
        5
102
RTVSPost2010Prop44ColorRGB
 90
      255
102
RTVSPost2010PropOp44
 70
     1
102
RTVSPost2010Prop45
280
     0
102
RTVSPost2010PropOp45
 70
     1
102
RTVSPost2010Prop46
 90
       50
102
RTVSPost2010PropOp46
 70
     1
102
RTVSPost2010Prop47
 90
       50
102
RTVSPost2010PropOp47
 70
     1
102
RTVSPost2010Prop48
 90
       50
102
RTVSPost2010PropOp48
 70
     1
102
RTVSPost2010Prop49
280
     0
102
RTVSPost2010PropOp49
 70
     1
102
RTVSPost2010Prop50
 90
       50
102
RTVSPost2010PropOp50
 70
     1
102
RTVSPost2010Prop51ColorIndex
 90
      256
102
RTVSPost2010Prop51ColorRGB
 90
-16777216
102
RTVSPost2010PropOp51
 70
     0
102
RTVSPost2010Prop52
140
1.0
102
RTVSPost2010PropOp52
 70
     0
102
RTVSPost2010Prop53
 90
        2
102
RTVSPost2010PropOp53
 70
     1
102
RTVSPost2010Prop54
  1
strokes_ogs.tif
102
RTVSPost2010PropOp54
 70
     1
102
RTVSPost2010Prop55
280
     0
102
RTVSPost2010PropOp55
 70
     1
102
RTVSPost2010Prop56
140
1.0
102
RTVSPost2010PropOp56
 70
     1
102
RTVSPost2010Prop57
140
1.0
102
RTVSPost2010PropOp57
 70
     1
  0
XRECORD
  5
F3
102
{ACAD_REACTORS
330
F2
102
}
330
F2
100
AcDbXrecord
280
     1
102
RTVSPropertyOp0
 70
     1
102
RTVSPropertyOp1
 70
     1
102
RTVSPropertyOp2
 70
     1
102
RTVSPropertyOp3
 70
     1
102
RTVSPropertyOp4
 70
     1
102
RTVSPropertyOp5
 70
     1
102
RTVSPropertyOp6
 70
     1
102
RTVSPropertyOp7
 70
     1
102
RTVSPropertyOp8
 70
     1
102
RTVSPropertyOp9
 70
     1
102
RTVSPropertyOp10
 70
     1
102
RTVSPropertyOp11
 70
     1
102
RTVSPropertyOp12
 70
     1
102
RTVSPropertyOp13
 70
     1
102
RTVSPropertyOp14
 70
     1
102
RTVSPropertyOp15
 70
     1
102
RTVSPropertyOp16
 70
     1
102
RTVSPropertyOp17
 70
     1
102
RTVSPropertyOp18
 70
     1
102
RTVSPropertyOp19
 70
     1
102
RTVSPropertyOp20
 70
     1
102
RTVSPropertyOp21
 70
     1
102
RTVSPropertyOp22
 70
     1
102
RTVSPropertyOp23
 70
     1
102
RTVSPropertyOp24
 70
     1
102
RTVSPropertyOp25
 70
     1
102
RTVSPropertyOp26
 70
     1
102
RTVSPropertyOp27
 70
     1
102
RTVSPropertyOp28
 70
     1
102
RTVSPropertyOp29
 70
     1
102
RTVSPropertyOp30
 70
     1
102
RTVSPropertyOp31
 70
     1
102
RTVSPropertyOp32
 70
     1
102
RTVSPropertyOp33
 70
     1
102
RTVSPropertyOp34
 70
     1
102
RTVSPropertyOp35
 70
     1
102
RTVSPropertyOp36
 70
     1
102
RTVSPropertyOp37
 70
     1
102
RTVSPropertyOp38
 70
     1
102
RTVSPropertyOp39
 70
     1
102
RTVSPropertyOp40
 70
     1
102
RTVSPropertyOp41
 70
     1
102
RTVSPropertyOp42
 70
     1
102
RTVSPropertyOp43
 70
     1
102
RTVSPropertyOp44
 70
     1
102
RTVSPropertyOp45
 70
     1
102
RTVSPropertyOp46
 70
     1
102
RTVSPropertyOp47
 70
     1
102
RTVSPropertyOp48
 70
     1
102
RTVSPropertyOp49
 70
     1
102
RTVSPropertyOp50
 70
     1
102
RTVSPropertyOp51
 70
     0
102
RTVSPropertyOp52
 70
     0
102
RTVSPropertyOp53
 70
     1
102
RTVSPropertyOp54
 70
     1
102
RTVSPropertyOp55
 70
     1
102
RTVSPropertyOp56
 70
     1
102
RTVSPropertyOp57
 70
     1
102
RTVSPost2010Prop28
280
     0
102
RTVSPost2010PropOp28
 70
     1
102
RTVSPost2010Prop29
280
     1
102
RTVSPost2010PropOp29
 70
     1
102
RTVSPost2010Prop30
280
     1
102
RTVSPost2010PropOp30
 70
     1
102
RTVSPost2010Prop31
280
     0
102
RTVSPost2010PropOp31
 70
     1
102
RTVSPost2010Prop32
280
     0
102
RTVSPost2010PropOp32
 70
     1
102
RTVSPost2010Prop33
280
     0
102
RTVSPost2010PropOp33
 70
     1
102
RTVSPost2010Prop34
280
     0
102
RTVSPost2010PropOp34
 70
     1
102
RTVSPost2010Prop35
280
     0
102
RTVSPost2010PropOp35
 70
     1
102
RTVSPost2010Prop36
280
     0
102
RTVSPost2010PropOp36
 70
     1
102
RTVSPost2010Prop37
 90
       50
102
RTVSPost2010PropOp37
 70
     1
102
RTVSPost2010Prop38
140
0.0
102
RTVSPost2010PropOp38
 70
     1
102
RTVSPost2010Prop39
140
1.0
102
RTVSPost2010PropOp39
 70
     1
102
RTVSPost2010Prop40
 90
        0
102
RTVSPost2010PropOp40
 70
     1
102
RTVSPost2010Prop41ColorIndex
 90
       18
102
RTVSPost2010Prop41ColorRGB
 90
        0
102
RTVSPost2010PropOp41
 70
     1
102
RTVSPost2010Prop42
 90
       50
102
RTVSPost2010PropOp42
 70
     1
102
RTVSPost2010Prop43
 90
        3
102
RTVSPost2010PropOp43
 70
     1
102
RTVSPost2010Prop44ColorIndex
 90
        5
102
RTVSPost2010Prop44ColorRGB
 90
      255
102
RTVSPost2010PropOp44
 70
     1
102
RTVSPost2010Prop45
280
     0
102
RTVSPost2010PropOp45
 70
     1
102
RTVSPost2010Prop46
 90
       50
102
RTVSPost2010PropOp46
 70
     1
102
RTVSPost2010Prop47
 90
       50
102
RTVSPost2010PropOp47
 70
     1
102
RTVSPost2010Prop48
 90
       50
102
RTVSPost2010PropOp48
 70
     1
102
RTVSPost2010Prop49
280
     0
102
RTVSPost2010PropOp49
 70
     1
102
RTVSPost2010Prop50
 90
       50
102
RTVSPost2010PropOp50
 70
     1
102
RTVSPost2010Prop51ColorIndex
 90
      256
102
RTVSPost2010Prop51ColorRGB
 90
-16777216
102
RTVSPost2010PropOp51
 70
     0
102
RTVSPost2010Prop52
140
1.0
102
RTVSPost2010PropOp52
 70
     0
102
RTVSPost2010Prop53
 90
        2
102
RTVSPost2010PropOp53
 70
     1
102
RTVSPost2010Prop54
  1
strokes_ogs.tif
102
RTVSPost2010PropOp54
 70
     1
102
RTVSPost2010Prop55
280
     0
102
RTVSPost2010PropOp55
 70
     1
102
RTVSPost2010Prop56
140
1.0
102
RTVSPost2010PropOp56
 70
     1
102
RTVSPost2010Prop57
140
1.0
102
RTVSPost2010PropOp57
 70
     1
  0
ENDSEC
  0
EOF
