  0
SECTION
  2
HEADER
  9
$ACADVER
  1
AC1015
  9
$ACADMAINTVER
 70
     6
  9
$DWGCODEPAGE
  3
ANSI_1252
  9
$INSBASE
 10
391.2206901169338
 20
389.806590152657
 30
0.0
  9
$EXTMIN
 10
375.1368049518327
 20
379.0199791305523
 30
0.0
  9
$EXTMAX
 10
413.8749712857368
 20
398.8847458276363
 30
0.0
  9
$LIMMIN
 10
0.0
 20
0.0
  9
$LIMMAX
 10
12.0
 20
9.0
  9
$ORTHOMODE
 70
     0
  9
$REGENMODE
 70
     1
  9
$FILLMODE
 70
     1
  9
$QTEXTMODE
 70
     0
  9
$MIRRTEXT
 70
     1
  9
$LTSCALE
 40
1.0
  9
$ATTMODE
 70
     1
  9
$TEXTSIZE
 40
0.2
  9
$TRACEWID
 40
0.05
  9
$TEXTSTYLE
  7
Standard
  9
$CLAYER
  8
0
  9
$CELTYPE
  6
ByLayer
  9
$CECOLOR
 62
   256
  9
$CELTSCALE
 40
1.0
  9
$DISPSILH
 70
     0
  9
$DIMSCALE
 40
1.0
  9
$DIMASZ
 40
0.18
  9
$DIMEXO
 40
0.0625
  9
$DIMDLI
 40
0.38
  9
$DIMRND
 40
0.0
  9
$DIMDLE
 40
0.0
  9
$DIMEXE
 40
0.18
  9
$DIMTP
 40
0.0
  9
$DIMTM
 40
0.0
  9
$DIMTXT
 40
0.18
  9
$DIMCEN
 40
0.09
  9
$DIMTSZ
 40
0.0
  9
$DIMTOL
 70
     0
  9
$DIMLIM
 70
     0
  9
$DIMTIH
 70
     1
  9
$DIMTOH
 70
     1
  9
$DIMSE1
 70
     0
  9
$DIMSE2
 70
     0
  9
$DIMTAD
 70
     0
  9
$DIMZIN
 70
     0
  9
$DIMBLK
  1

  9
$DIMASO
 70
     1
  9
$DIMSHO
 70
     1
  9
$DIMPOST
  1

  9
$DIMAPOST
  1

  9
$DIMALT
 70
     0
  9
$DIMALTD
 70
     2
  9
$DIMALTF
 40
25.4
  9
$DIMLFAC
 40
1.0
  9
$DIMTOFL
 70
     0
  9
$DIMTVP
 40
0.0
  9
$DIMTIX
 70
     0
  9
$DIMSOXD
 70
     0
  9
$DIMSAH
 70
     0
  9
$DIMBLK1
  1

  9
$DIMBLK2
  1

  9
$DIMSTYLE
  2
Standard
  9
$DIMCLRD
 70
     0
  9
$DIMCLRE
 70
     0
  9
$DIMCLRT
 70
     0
  9
$DIMTFAC
 40
1.0
  9
$DIMGAP
 40
0.09
  9
$DIMJUST
 70
     0
  9
$DIMSD1
 70
     0
  9
$DIMSD2
 70
     0
  9
$DIMTOLJ
 70
     1
  9
$DIMTZIN
 70
     0
  9
$DIMALTZ
 70
     0
  9
$DIMALTTZ
 70
     0
  9
$DIMUPT
 70
     0
  9
$DIMDEC
 70
     4
  9
$DIMTDEC
 70
     4
  9
$DIMALTU
 70
     2
  9
$DIMALTTD
 70
     2
  9
$DIMTXSTY
  7
Standard
  9
$DIMAUNIT
 70
     0
  9
$DIMADEC
 70
     0
  9
$DIMALTRND
 40
0.0
  9
$DIMAZIN
 70
     0
  9
$DIMDSEP
 70
    46
  9
$DIMATFIT
 70
     3
  9
$DIMFRAC
 70
     0
  9
$DIMLDRBLK
  1

  9
$DIMLUNIT
 70
     2
  9
$DIMLWD
 70
    -2
  9
$DIMLWE
 70
    -2
  9
$DIMTMOVE
 70
     0
  9
$LUNITS
 70
     2
  9
$LUPREC
 70
     4
  9
$SKETCHINC
 40
0.1
  9
$FILLETRAD
 40
0.5
  9
$AUNITS
 70
     0
  9
$AUPREC
 70
     0
  9
$MENU
  1
.
  9
$ELEVATION
 40
0.0
  9
$PELEVATION
 40
0.0
  9
$THICKNESS
 40
0.0
  9
$LIMCHECK
 70
     0
  9
$CHAMFERA
 40
0.5
  9
$CHAMFERB
 40
0.5
  9
$CHAMFERC
 40
1.0
  9
$CHAMFERD
 40
0.0
  9
$SKPOLY
 70
     0
  9
$TDCREATE
 40
2458676.485268229
  9
$TDUCREATE
 40
2458676.651934896
  9
$TDUPDATE
 40
2458708.51197537
  9
$TDUUPDATE
 40
2458708.678642037
  9
$TDINDWG
 40
0.1600564468
  9
$TDUSRTIMER
 40
0.1600564468
  9
$USRTIMER
 70
     1
  9
$ANGBASE
 50
0.0
  9
$ANGDIR
 70
     0
  9
$PDMODE
 70
     0
  9
$PDSIZE
 40
0.0
  9
$PLINEWID
 40
0.0
  9
$SPLFRAME
 70
     0
  9
$SPLINETYPE
 70
     6
  9
$SPLINESEGS
 70
     8
  9
$HANDSEED
  5
FA
  9
$SURFTAB1
 70
     6
  9
$SURFTAB2
 70
     6
  9
$SURFTYPE
 70
     6
  9
$SURFU
 70
     6
  9
$SURFV
 70
     6
  9
$UCSBASE
  2

  9
$UCSNAME
  2

  9
$UCSORG
 10
0.0
 20
0.0
 30
0.0
  9
$UCSXDIR
 10
1.0
 20
0.0
 30
0.0
  9
$UCSYDIR
 10
0.0
 20
1.0
 30
0.0
  9
$UCSORTHOREF
  2

  9
$UCSORTHOVIEW
 70
     0
  9
$UCSORGTOP
 10
0.0
 20
0.0
 30
0.0
  9
$UCSORGBOTTOM
 10
0.0
 20
0.0
 30
0.0
  9
$UCSORGLEFT
 10
0.0
 20
0.0
 30
0.0
  9
$UCSORGRIGHT
 10
0.0
 20
0.0
 30
0.0
  9
$UCSORGFRONT
 10
0.0
 20
0.0
 30
0.0
  9
$UCSORGBACK
 10
0.0
 20
0.0
 30
0.0
  9
$PUCSBASE
  2

  9
$PUCSNAME
  2

  9
$PUCSORG
 10
0.0
 20
0.0
 30
0.0
  9
$PUCSXDIR
 10
1.0
 20
0.0
 30
0.0
  9
$PUCSYDIR
 10
0.0
 20
1.0
 30
0.0
  9
$PUCSORTHOREF
  2

  9
$PUCSORTHOVIEW
 70
     0
  9
$PUCSORGTOP
 10
0.0
 20
0.0
 30
0.0
  9
$PUCSORGBOTTOM
 10
0.0
 20
0.0
 30
0.0
  9
$PUCSORGLEFT
 10
0.0
 20
0.0
 30
0.0
  9
$PUCSORGRIGHT
 10
0.0
 20
0.0
 30
0.0
  9
$PUCSORGFRONT
 10
0.0
 20
0.0
 30
0.0
  9
$PUCSORGBACK
 10
0.0
 20
0.0
 30
0.0
  9
$USERI1
 70
     0
  9
$USERI2
 70
     0
  9
$USERI3
 70
     0
  9
$USERI4
 70
     0
  9
$USERI5
 70
     0
  9
$USERR1
 40
0.0
  9
$USERR2
 40
0.0
  9
$USERR3
 40
0.0
  9
$USERR4
 40
0.0
  9
$USERR5
 40
0.0
  9
$WORLDVIEW
 70
     1
  9
$SHADEDGE
 70
     3
  9
$SHADEDIF
 70
    70
  9
$TILEMODE
 70
     1
  9
$MAXACTVP
 70
    64
  9
$PINSBASE
 10
0.0
 20
0.0
 30
0.0
  9
$PLIMCHECK
 70
     0
  9
$PEXTMIN
 10
1.000000000000000E+20
 20
1.000000000000000E+20
 30
1.000000000000000E+20
  9
$PEXTMAX
 10
-1.000000000000000E+20
 20
-1.000000000000000E+20
 30
-1.000000000000000E+20
  9
$PLIMMIN
 10
-0.25
 20
-0.25
  9
$PLIMMAX
 10
10.75
 20
8.25
  9
$UNITMODE
 70
     0
  9
$VISRETAIN
 70
     1
  9
$PLINEGEN
 70
     0
  9
$PSLTSCALE
 70
     1
  9
$TREEDEPTH
 70
  3020
  9
$CMLSTYLE
  2
Standard
  9
$CMLJUST
 70
     0
  9
$CMLSCALE
 40
1.0
  9
$PROXYGRAPHICS
 70
     1
  9
$MEASUREMENT
 70
     0
  9
$CELWEIGHT
370
    -1
  9
$ENDCAPS
280
     0
  9
$JOINSTYLE
280
     0
  9
$LWDISPLAY
290
     1
  9
$INSUNITS
 70
     1
  9
$HYPERLINKBASE
  1

  9
$STYLESHEET
  1

  9
$XEDIT
290
     1
  9
$CEPSNTYPE
380
     0
  9
$PSTYLEMODE
290
     1
  9
$FINGERPRINTGUID
  2
{3FF96223-F9C2-48F7-A4C5-C732E40B2087}
  9
$VERSIONGUID
  2
{FAEB1C32-E019-11D5-929B-00C0DF256EC4}
  9
$EXTNAMES
290
     1
  9
$PSVPSCALE
 40
0.0
  9
$OLESTARTUP
290
     0
  0
ENDSEC
  0
SECTION
  2
CLASSES
  0
CLASS
  1
ACDBDICTIONARYWDFLT
  2
AcDbDictionaryWithDefault
  3
ObjectDBX Classes
 90
        0
280
     0
281
     0
  0
CLASS
  1
MATERIAL
  2
AcDbMaterial
  3
ObjectDBX Classes
 90
     1153
280
     0
281
     0
  0
CLASS
  1
VISUALSTYLE
  2
AcDbVisualStyle
  3
ObjectDBX Classes
 90
     4095
280
     0
281
     0
  0
CLASS
  1
SUN
  2
AcDbSun
  3
SCENEOE
 90
     1153
280
     0
281
     0
  0
CLASS
  1
SCALE
  2
AcDbScale
  3
ObjectDBX Classes
 90
     1153
280
     0
281
     0
  0
CLASS
  1
DICTIONARYVAR
  2
AcDbDictionaryVar
  3
ObjectDBX Classes
 90
        0
280
     0
281
     0
  0
CLASS
  1
MLEADERSTYLE
  2
AcDbMLeaderStyle
  3
ACDB_MLEADERSTYLE_CLASS
 90
     4095
280
     0
281
     0
  0
CLASS
  1
TABLESTYLE
  2
AcDbTableStyle
  3
ObjectDBX Classes
 90
     4095
280
     0
281
     0
  0
CLASS
  1
ACDBPLACEHOLDER
  2
AcDbPlaceHolder
  3
ObjectDBX Classes
 90
        0
280
     0
281
     0
  0
CLASS
  1
LAYOUT
  2
AcDbLayout
  3
ObjectDBX Classes
 90
        0
280
     0
281
     0
  0
ENDSEC
  0
SECTION
  2
TABLES
  0
TABLE
  2
VPORT
  5
1F
102
{ACAD_XDICTIONARY
360
BE
102
}
330
0
100
AcDbSymbolTable
 70
     1
  0
VPORT
  5
25
330
1F
100
AcDbSymbolTableRecord
100
AcDbViewportTableRecord
  2
*Active
 70
     0
 10
0.0
 20
0.0
 11
1.0
 21
1.0
 12
394.5058881187847
 22
388.9523624790943
 13
0.0
 23
0.0
 14
0.5
 24
0.5
 15
0.5
 25
0.5
 16
0.0
 26
0.0
 36
1.0
 17
0.0
 27
0.0
 37
0.0
 40
20.26206203102569
 41
1.950094200682988
 42
50.0
 43
0.0
 44
0.0
 50
0.0
 51
0.0
 71
    16
 72
   100
 73
     1
 74
     3
 75
     0
 76
     0
 77
     0
 78
     0
281
     0
 65
     1
110
0.0
120
0.0
130
0.0
111
1.0
121
0.0
131
0.0
112
0.0
122
1.0
132
0.0
 79
     0
146
0.0
  0
ENDTAB
  0
TABLE
  2
LTYPE
  5
9
330
0
100
AcDbSymbolTable
 70
     1
  0
LTYPE
  5
A
330
9
100
AcDbSymbolTableRecord
100
AcDbLinetypeTableRecord
  2
ByBlock
 70
     0
  3

 72
    65
 73
     0
 40
0.0
  0
LTYPE
  5
B
330
9
100
AcDbSymbolTableRecord
100
AcDbLinetypeTableRecord
  2
ByLayer
 70
     0
  3

 72
    65
 73
     0
 40
0.0
  0
LTYPE
  5
8
330
9
100
AcDbSymbolTableRecord
100
AcDbLinetypeTableRecord
  2
Continuous
 70
     0
  3
Solid line
 72
    65
 73
     0
 40
0.0
  0
ENDTAB
  0
TABLE
  2
LAYER
  5
2
330
0
100
AcDbSymbolTable
 70
     2
  0
LAYER
  5
1
330
2
100
AcDbSymbolTableRecord
100
AcDbLayerTableRecord
  2
0
 70
     0
 62
     7
  6
Continuous
370
    -3
390
3
  0
LAYER
  5
4E
330
2
100
AcDbSymbolTableRecord
100
AcDbLayerTableRecord
  2
Layer 1
 70
     0
 62
     7
  6
Continuous
370
    -3
390
3
  0
ENDTAB
  0
TABLE
  2
STYLE
  5
D
330
0
100
AcDbSymbolTable
 70
     1
  0
STYLE
  5
C
330
D
100
AcDbSymbolTableRecord
100
AcDbTextStyleTableRecord
  2
Standard
 70
     0
 40
0.0
 41
1.0
 50
0.0
 71
     0
 42
0.2
  3
txt
  4

  0
ENDTAB
  0
TABLE
  2
VIEW
  5
1D
330
0
100
AcDbSymbolTable
 70
     0
  0
ENDTAB
  0
TABLE
  2
UCS
  5
1E
330
0
100
AcDbSymbolTable
 70
     0
  0
ENDTAB
  0
TABLE
  2
APPID
  5
20
330
0
100
AcDbSymbolTable
 70
     2
  0
APPID
  5
24
330
20
100
AcDbSymbolTableRecord
100
AcDbRegAppTableRecord
  2
ACAD
 70
     0
  0
APPID
  5
F7
330
20
100
AcDbSymbolTableRecord
100
AcDbRegAppTableRecord
  2
ACAD_MLEADERVER
 70
     0
  0
ENDTAB
  0
TABLE
  2
DIMSTYLE
  5
10
330
0
100
AcDbSymbolTable
 70
     1
100
AcDbDimStyleTable
  0
DIMSTYLE
105
F
330
10
100
AcDbSymbolTableRecord
100
AcDbDimStyleTableRecord
  2
Standard
 70
     0
178
     0
340
C
  0
ENDTAB
  0
TABLE
  2
BLOCK_RECORD
  5
13
330
0
100
AcDbSymbolTable
 70
     1
  0
BLOCK_RECORD
  5
14
330
13
100
AcDbSymbolTableRecord
100
AcDbBlockTableRecord
  2
*Model_Space
340
17
  0
BLOCK_RECORD
  5
19
330
13
100
AcDbSymbolTableRecord
100
AcDbBlockTableRecord
  2
*Paper_Space
340
1C
  0
BLOCK_RECORD
  5
4F
330
13
100
AcDbSymbolTableRecord
100
AcDbBlockTableRecord
  2
block 2
340
0
102
{BLKREFS
331
4D
102
}
  0
ENDTAB
  0
ENDSEC
  0
SECTION
  2
BLOCKS
  0
BLOCK
  5
15
330
14
100
AcDbEntity
  8
0
100
AcDbBlockBegin
  2
*Model_Space
 70
     0
 10
0.0
 20
0.0
 30
0.0
  3
*Model_Space
  1

  0
ENDBLK
  5
16
330
14
100
AcDbEntity
  8
0
100
AcDbBlockEnd
  0
BLOCK
  5
1A
330
19
100
AcDbEntity
 67
     1
  8
0
100
AcDbBlockBegin
  2
*Paper_Space
 70
     0
 10
0.0
 20
0.0
 30
0.0
  3
*Paper_Space
  1

  0
ENDBLK
  5
1B
330
19
100
AcDbEntity
 67
     1
  8
0
100
AcDbBlockEnd
  0
BLOCK
  5
50
330
4F
100
AcDbEntity
  8
0
100
AcDbBlockBegin
  2
block 2
 70
     0
 10
0.0
 20
0.0
 30
0.0
  3
block 2
  1

  0
SPLINE
  5
51
330
4F
100
AcDbEntity
  8
Layer 1
370
     0
100
AcDbSpline
210
0.0
220
0.0
230
1.0
 70
    11
 71
     3
 72
   458
 73
   454
 74
     0
 42
0.000000001
 43
0.0000000001
 40
0.0
 40
0.0
 40
0.0
 40
0.0
 40
1.0
 40
1.0
 40
1.0
 40
2.0
 40
2.0
 40
2.0
 40
3.0
 40
3.0
 40
3.0
 40
4.0
 40
4.0
 40
4.0
 40
5.0
 40
5.0
 40
5.0
 40
6.0
 40
6.0
 40
6.0
 40
7.0
 40
7.0
 40
7.0
 40
8.0
 40
8.0
 40
8.0
 40
9.0
 40
9.0
 40
9.0
 40
10.0
 40
10.0
 40
10.0
 40
11.0
 40
11.0
 40
11.0
 40
12.0
 40
12.0
 40
12.0
 40
13.0
 40
13.0
 40
13.0
 40
14.0
 40
14.0
 40
14.0
 40
15.0
 40
15.0
 40
15.0
 40
16.0
 40
16.0
 40
16.0
 40
17.0
 40
17.0
 40
17.0
 40
18.0
 40
18.0
 40
18.0
 40
19.0
 40
19.0
 40
19.0
 40
20.0
 40
20.0
 40
20.0
 40
21.0
 40
21.0
 40
21.0
 40
22.0
 40
22.0
 40
22.0
 40
23.0
 40
23.0
 40
23.0
 40
24.0
 40
24.0
 40
24.0
 40
25.0
 40
25.0
 40
25.0
 40
26.0
 40
26.0
 40
26.0
 40
27.0
 40
27.0
 40
27.0
 40
28.0
 40
28.0
 40
28.0
 40
29.0
 40
29.0
 40
29.0
 40
30.0
 40
30.0
 40
30.0
 40
31.0
 40
31.0
 40
31.0
 40
32.0
 40
32.0
 40
32.0
 40
33.0
 40
33.0
 40
33.0
 40
34.0
 40
34.0
 40
34.0
 40
35.0
 40
35.0
 40
35.0
 40
36.0
 40
36.0
 40
36.0
 40
37.0
 40
37.0
 40
37.0
 40
38.0
 40
38.0
 40
38.0
 40
39.0
 40
39.0
 40
39.0
 40
40.0
 40
40.0
 40
40.0
 40
41.0
 40
41.0
 40
41.0
 40
42.0
 40
42.0
 40
42.0
 40
43.0
 40
43.0
 40
43.0
 40
44.0
 40
44.0
 40
44.0
 40
45.0
 40
45.0
 40
45.0
 40
46.0
 40
46.0
 40
46.0
 40
47.0
 40
47.0
 40
47.0
 40
48.0
 40
48.0
 40
48.0
 40
49.0
 40
49.0
 40
49.0
 40
50.0
 40
50.0
 40
50.0
 40
51.0
 40
51.0
 40
51.0
 40
52.0
 40
52.0
 40
52.0
 40
53.0
 40
53.0
 40
53.0
 40
54.0
 40
54.0
 40
54.0
 40
55.0
 40
55.0
 40
55.0
 40
56.0
 40
56.0
 40
56.0
 40
57.0
 40
57.0
 40
57.0
 40
58.0
 40
58.0
 40
58.0
 40
59.0
 40
59.0
 40
59.0
 40
60.0
 40
60.0
 40
60.0
 40
61.0
 40
61.0
 40
61.0
 40
62.0
 40
62.0
 40
62.0
 40
63.0
 40
63.0
 40
63.0
 40
64.0
 40
64.0
 40
64.0
 40
65.0
 40
65.0
 40
65.0
 40
66.0
 40
66.0
 40
66.0
 40
67.0
 40
67.0
 40
67.0
 40
68.0
 40
68.0
 40
68.0
 40
69.0
 40
69.0
 40
69.0
 40
70.0
 40
70.0
 40
70.0
 40
71.0
 40
71.0
 40
71.0
 40
72.0
 40
72.0
 40
72.0
 40
73.0
 40
73.0
 40
73.0
 40
74.0
 40
74.0
 40
74.0
 40
75.0
 40
75.0
 40
75.0
 40
76.0
 40
76.0
 40
76.0
 40
77.0
 40
77.0
 40
77.0
 40
78.0
 40
78.0
 40
78.0
 40
79.0
 40
79.0
 40
79.0
 40
80.0
 40
80.0
 40
80.0
 40
81.0
 40
81.0
 40
81.0
 40
82.0
 40
82.0
 40
82.0
 40
83.0
 40
83.0
 40
83.0
 40
84.0
 40
84.0
 40
84.0
 40
85.0
 40
85.0
 40
85.0
 40
86.0
 40
86.0
 40
86.0
 40
87.0
 40
87.0
 40
87.0
 40
88.0
 40
88.0
 40
88.0
 40
89.0
 40
89.0
 40
89.0
 40
90.0
 40
90.0
 40
90.0
 40
91.0
 40
91.0
 40
91.0
 40
92.0
 40
92.0
 40
92.0
 40
93.0
 40
93.0
 40
93.0
 40
94.0
 40
94.0
 40
94.0
 40
95.0
 40
95.0
 40
95.0
 40
96.0
 40
96.0
 40
96.0
 40
97.0
 40
97.0
 40
97.0
 40
98.0
 40
98.0
 40
98.0
 40
99.0
 40
99.0
 40
99.0
 40
100.0
 40
100.0
 40
100.0
 40
101.0
 40
101.0
 40
101.0
 40
102.0
 40
102.0
 40
102.0
 40
103.0
 40
103.0
 40
103.0
 40
104.0
 40
104.0
 40
104.0
 40
105.0
 40
105.0
 40
105.0
 40
106.0
 40
106.0
 40
106.0
 40
107.0
 40
107.0
 40
107.0
 40
108.0
 40
108.0
 40
108.0
 40
109.0
 40
109.0
 40
109.0
 40
110.0
 40
110.0
 40
110.0
 40
111.0
 40
111.0
 40
111.0
 40
112.0
 40
112.0
 40
112.0
 40
113.0
 40
113.0
 40
113.0
 40
114.0
 40
114.0
 40
114.0
 40
115.0
 40
115.0
 40
115.0
 40
116.0
 40
116.0
 40
116.0
 40
117.0
 40
117.0
 40
117.0
 40
118.0
 40
118.0
 40
118.0
 40
119.0
 40
119.0
 40
119.0
 40
120.0
 40
120.0
 40
120.0
 40
121.0
 40
121.0
 40
121.0
 40
122.0
 40
122.0
 40
122.0
 40
123.0
 40
123.0
 40
123.0
 40
124.0
 40
124.0
 40
124.0
 40
125.0
 40
125.0
 40
125.0
 40
126.0
 40
126.0
 40
126.0
 40
127.0
 40
127.0
 40
127.0
 40
128.0
 40
128.0
 40
128.0
 40
129.0
 40
129.0
 40
129.0
 40
130.0
 40
130.0
 40
130.0
 40
131.0
 40
131.0
 40
131.0
 40
132.0
 40
132.0
 40
132.0
 40
133.0
 40
133.0
 40
133.0
 40
134.0
 40
134.0
 40
134.0
 40
135.0
 40
135.0
 40
135.0
 40
136.0
 40
136.0
 40
136.0
 40
137.0
 40
137.0
 40
137.0
 40
138.0
 40
138.0
 40
138.0
 40
139.0
 40
139.0
 40
139.0
 40
140.0
 40
140.0
 40
140.0
 40
141.0
 40
141.0
 40
141.0
 40
142.0
 40
142.0
 40
142.0
 40
143.0
 40
143.0
 40
143.0
 40
144.0
 40
144.0
 40
144.0
 40
145.0
 40
145.0
 40
145.0
 40
146.0
 40
146.0
 40
146.0
 40
147.0
 40
147.0
 40
147.0
 40
148.0
 40
148.0
 40
148.0
 40
149.0
 40
149.0
 40
149.0
 40
150.0
 40
150.0
 40
150.0
 40
151.0
 40
151.0
 40
151.0
 40
151.0
 10
377.5761904616229
 20
390.9296901242851
 30
0.0
 10
377.5761904616229
 20
390.9296901242851
 30
0.0
 10
386.5
 20
390.9296901242851
 30
0.0
 10
386.5
 20
390.9296901242851
 30
0.0
 10
386.5
 20
390.9296901242851
 30
0.0
 10
387.1405902200058
 20
396.8770000000004
 30
0.0
 10
387.1405902200058
 20
396.8770000000004
 30
0.0
 10
387.1405902200058
 20
396.8770000000004
 30
0.0
 10
386.7187902306614
 20
396.8770000000004
 30
0.0
 10
386.7187902306614
 20
396.8770000000004
 30
0.0
 10
386.7187902306614
 20
396.8770000000004
 30
0.0
 10
386.7187902306614
 20
397.8310899499411
 30
0.0
 10
386.7187902306614
 20
397.8310899499411
 30
0.0
 10
386.7187902306614
 20
397.8310899499411
 30
0.0
 10
390.1171901448106
 20
398.380889936052
 30
0.0
 10
390.1171901448106
 20
398.380889936052
 30
0.0
 10
390.1171901448106
 20
398.380889936052
 30
0.0
 10
396.8340000000007
 20
398.380889936052
 30
0.0
 10
396.8340000000007
 20
398.380889936052
 30
0.0
 10
396.8340000000007
 20
398.380889936052
 30
0.0
 10
397.1093899681728
 20
396.8770000000004
 30
0.0
 10
397.1093899681728
 20
396.8770000000004
 30
0.0
 10
397.1093899681728
 20
396.8770000000004
 30
0.0
 10
396.8760000000002
 20
396.8770000000004
 30
0.0
 10
396.8760000000002
 20
396.8770000000004
 30
0.0
 10
396.8760000000002
 20
396.8770000000004
 30
0.0
 10
396.9140899731065
 20
396.3446899874907
 30
0.0
 10
396.9140899731065
 20
396.3446899874907
 30
0.0
 10
396.9140899731065
 20
396.3446899874907
 30
0.0
 10
397.0702899691605
 20
395.2362900154912
 30
0.0
 10
397.0702899691605
 20
395.2362900154912
 30
0.0
 10
397.0702899691605
 20
395.2362900154912
 30
0.0
 10
399.2460899141952
 20
395.8886899990102
 30
0.0
 10
399.2460899141952
 20
395.8886899990102
 30
0.0
 10
399.2460899141952
 20
395.8886899990102
 30
0.0
 10
402.5155898316007
 20
398.0995899431582
 30
0.0
 10
402.5155898316007
 20
398.0995899431582
 30
0.0
 10
402.8603898228903
 20
398.2011899405916
 30
0.0
 10
403.2548898129244
 20
398.2450899394826
 30
0.0
 10
403.6952898017989
 20
398.2343899397529
 30
0.0
 10
403.6952898017989
 20
398.2343899397529
 30
0.0
 10
403.9267897959508
 20
398.8847899233224
 30
0.0
 10
403.9267897959508
 20
398.8847899233224
 30
0.0
 10
403.9267897959508
 20
398.8847899233224
 30
0.0
 10
405.228489763067
 20
398.6933899281576
 30
0.0
 10
405.228489763067
 20
398.6933899281576
 30
0.0
 10
405.228489763067
 20
398.6933899281576
 30
0.0
 10
405.3046897611421
 20
398.375
 30
0.0
 10
405.3046897611421
 20
398.375
 30
0.0
 10
405.3046897611421
 20
398.375
 30
0.0
 10
405.3710897594647
 20
398.8046899253459
 30
0.0
 10
405.3710897594647
 20
398.8046899253459
 30
0.0
 10
405.3710897594647
 20
398.8046899253459
 30
0.0
 10
409.1366896643376
 20
398.2167899401975
 30
0.0
 10
409.1366896643376
 20
398.2167899401975
 30
0.0
 10
409.1366896643376
 20
398.2167899401975
 30
0.0
 10
409.112289664954
 20
398.0565899442445
 30
0.0
 10
409.112289664954
 20
398.0565899442445
 30
0.0
 10
409.112289664954
 20
398.0565899442445
 30
0.0
 10
411.4101896069042
 20
397.6972899533212
 30
0.0
 10
411.4101896069042
 20
397.6972899533212
 30
0.0
 10
411.4101896069042
 20
397.6972899533212
 30
0.0
 10
411.4979999999996
 20
398.0995899431582
 30
0.0
 10
411.4979999999996
 20
398.0995899431582
 30
0.0
 10
411.4979999999996
 20
398.0995899431582
 30
0.0
 10
412.3222895838626
 20
397.7520000000004
 30
0.0
 10
412.3222895838626
 20
397.7520000000004
 30
0.0
 10
412.3222895838626
 20
397.7520000000004
 30
0.0
 10
413.875
 20
397.2070000000003
 30
0.0
 10
413.875
 20
397.2070000000003
 30
0.0
 10
413.875
 20
397.2070000000003
 30
0.0
 10
413.2460895605254
 20
395.0020000000004
 30
0.0
 10
413.2460895605254
 20
395.0020000000004
 30
0.0
 10
413.2460895605254
 20
395.0020000000004
 30
0.0
 10
412.8534895704433
 20
394.9570000000003
 30
0.0
 10
412.8534895704433
 20
394.9570000000003
 30
0.0
 10
412.8534895704433
 20
394.9570000000003
 30
0.0
 10
411.9940895921536
 20
391.487290110199
 30
0.0
 10
411.9940895921536
 20
391.487290110199
 30
0.0
 10
411.9940895921536
 20
391.487290110199
 30
0.0
 10
411.8368895961248
 20
391.5253901092365
 30
0.0
 10
411.8368895961248
 20
391.5253901092365
 30
0.0
 10
411.8368895961248
 20
391.5253901092365
 30
0.0
 10
411.3007896096678
 20
389.3671901637572
 30
0.0
 10
411.3007896096678
 20
389.3671901637572
 30
0.0
 10
411.3007896096678
 20
389.3671901637572
 30
0.0
 10
412.3007895844057
 20
388.7070000000003
 30
0.0
 10
412.3007895844057
 20
388.7070000000003
 30
0.0
 10
412.3007895844057
 20
388.7070000000003
 30
0.0
 10
412.4940895795226
 20
388.5780901836915
 30
0.0
 10
412.4940895795226
 20
388.5780901836915
 30
0.0
 10
412.4940895795226
 20
388.5780901836915
 30
0.0
 10
412.425789581248
 20
388.3573901892669
 30
0.0
 10
412.425789581248
 20
388.3573901892669
 30
0.0
 10
412.425789581248
 20
388.3573901892669
 30
0.0
 10
412.0010000000002
 20
386.9745902241993
 30
0.0
 10
412.0010000000002
 20
386.9745902241993
 30
0.0
 10
412.0010000000002
 20
386.9745902241993
 30
0.0
 10
411.9394895935329
 20
386.7753902292316
 30
0.0
 10
411.9394895935329
 20
386.7753902292316
 30
0.0
 10
411.9394895935329
 20
386.7753902292316
 30
0.0
 10
411.7333895987394
 20
386.7577902296762
 30
0.0
 10
411.7333895987394
 20
386.7577902296762
 30
0.0
 10
411.7333895987394
 20
386.7577902296762
 30
0.0
 10
409.9159999999993
 20
386.5897902339202
 30
0.0
 10
409.9159999999993
 20
386.5897902339202
 30
0.0
 10
409.9159999999993
 20
386.5897902339202
 30
0.0
 10
409.2929999999997
 20
384.5351902858238
 30
0.0
 10
409.2929999999997
 20
384.5351902858238
 30
0.0
 10
408.2714896861944
 20
383.9570000000003
 30
0.0
 10
407.2479999999996
 20
384.0360902984321
 30
0.0
 10
406.2265897378529
 20
384.6991902816808
 30
0.0
 10
406.2265897378529
 20
384.6991902816808
 30
0.0
 10
403.9452897954834
 20
388.181590193708
 30
0.0
 10
403.9452897954834
 20
388.181590193708
 30
0.0
 10
403.9452897954834
 20
388.181590193708
 30
0.0
 10
403.5976898042645
 20
387.977490198864
 30
0.0
 10
403.5976898042645
 20
387.977490198864
 30
0.0
 10
403.5976898042645
 20
387.977490198864
 30
0.0
 10
402.5155898316007
 20
389.8261901521619
 30
0.0
 10
402.5155898316007
 20
389.8261901521619
 30
0.0
 10
402.5155898316007
 20
389.8261901521619
 30
0.0
 10
402.8183898239513
 20
390.1270000000004
 30
0.0
 10
402.8183898239513
 20
390.1270000000004
 30
0.0
 10
402.8183898239513
 20
390.1270000000004
 30
0.0
 10
403.6601898026856
 20
388.9833901734528
 30
0.0
 10
403.6601898026856
 20
388.9833901734528
 30
0.0
 10
403.6601898026856
 20
388.9833901734528
 30
0.0
 10
404.0360897931896
 20
389.2099999999991
 30
0.0
 10
404.0360897931896
 20
389.2099999999991
 30
0.0
 10
405.4296897579843
 20
388.0907901960018
 30
0.0
 10
406.9590000000007
 20
387.7812902038204
 30
0.0
 10
408.7187896748947
 20
388.8534901767343
 30
0.0
 10
408.7187896748947
 20
388.8534901767343
 30
0.0
 10
409.4403896566655
 20
388.7548901792252
 30
0.0
 10
409.4403896566655
 20
388.7548901792252
 30
0.0
 10
409.4403896566655
 20
388.7548901792252
 30
0.0
 10
411.0370896163295
 20
396.0
 30
0.0
 10
411.0370896163295
 20
396.0
 30
0.0
 10
411.0370896163295
 20
396.0
 30
0.0
 10
404.7616897748594
 20
396.3163899882056
 30
0.0
 10
404.7616897748594
 20
396.3163899882056
 30
0.0
 10
403.9989999999998
 20
396.2606899896127
 30
0.0
 10
403.3144898114188
 20
395.935489997828
 30
0.0
 10
402.6796898274551
 20
395.4403900103352
 30
0.0
 10
402.6796898274551
 20
395.4403900103352
 30
0.0
 10
401.8964898472404
 20
394.7909999999993
 30
0.0
 10
401.8964898472404
 20
394.7909999999993
 30
0.0
 10
401.8964898472404
 20
394.7909999999993
 30
0.0
 10
400.6581898785225
 20
390.4960901352388
 30
0.0
 10
400.6581898785225
 20
390.4960901352388
 30
0.0
 10
400.6581898785225
 20
390.4960901352388
 30
0.0
 10
400.9687898706761
 20
390.4159999999993
 30
0.0
 10
400.9687898706761
 20
390.4159999999993
 30
0.0
 10
400.9687898706761
 20
390.4159999999993
 30
0.0
 10
400.0927898928057
 20
387.2655902168481
 30
0.0
 10
400.0927898928057
 20
387.2655902168481
 30
0.0
 10
400.0927898928057
 20
387.2655902168481
 30
0.0
 10
400.1640898910046
 20
386.9979999999996
 30
0.0
 10
400.1640898910046
 20
386.9979999999996
 30
0.0
 10
400.1640898910046
 20
386.9979999999996
 30
0.0
 10
400.005889895001
 20
386.955090224692
 30
0.0
 10
400.005889895001
 20
386.955090224692
 30
0.0
 10
400.005889895001
 20
386.955090224692
 30
0.0
 10
399.9970898952233
 20
386.9237902254827
 30
0.0
 10
399.9970898952233
 20
386.9237902254827
 30
0.0
 10
399.9970898952233
 20
386.9237902254827
 30
0.0
 10
399.8563898987777
 20
386.9150000000009
 30
0.0
 10
399.8563898987777
 20
386.9150000000009
 30
0.0
 10
399.8563898987777
 20
386.9150000000009
 30
0.0
 10
398.8340000000007
 20
386.6415902326116
 30
0.0
 10
398.8340000000007
 20
386.6415902326116
 30
0.0
 10
398.9081899227313
 20
386.4306902379394
 30
0.0
 10
398.9706899211524
 20
386.2128902434415
 30
0.0
 10
399.0194899199196
 20
385.9911902490421
 30
0.0
 10
399.0194899199196
 20
385.9911902490421
 30
0.0
 10
399.0741899185377
 20
386.0761902468948
 30
0.0
 10
399.0741899185377
 20
386.0761902468948
 30
0.0
 10
399.1718899160696
 20
386.0897902465513
 30
0.0
 10
399.2724899135283
 20
386.1034902462052
 30
0.0
 10
399.3720899110122
 20
386.1190902458111
 30
0.0
 10
399.4267899096303
 20
385.5312902606602
 30
0.0
 10
399.3690899110879
 20
385.0233902734908
 30
0.0
 10
399.1835899157741
 20
384.6083902839746
 30
0.0
 10
399.1835899157741
 20
384.6083902839746
 30
0.0
 10
399.1425899168098
 20
384.5985902842222
 30
0.0
 10
399.1425899168098
 20
384.5985902842222
 30
0.0
 10
399.125
 20
384.085890297174
 30
0.0
 10
399.037089919475
 20
383.5917903096561
 30
0.0
 10
398.8886899232239
 20
383.125
 30
0.0
 10
398.8886899232239
 20
383.125
 30
0.0
 10
398.9784899209553
 20
383.1698903203142
 30
0.0
 10
398.9784899209553
 20
383.1698903203142
 30
0.0
 10
399.0722899185857
 20
383.1327903212514
 30
0.0
 10
399.1650000000009
 20
383.0946903222139
 30
0.0
 10
399.2577899138996
 20
383.0575903231511
 30
0.0
 10
399.0116899201166
 20
382.5204903367194
 30
0.0
 10
398.7090000000007
 20
382.1112903470566
 30
0.0
 10
398.338889937113
 20
381.8456903537663
 30
0.0
 10
398.338889937113
 20
381.8456903537663
 30
0.0
 10
398.3007899380755
 20
381.8554903535187
 30
0.0
 10
398.3007899380755
 20
381.8554903535187
 30
0.0
 10
398.0780899437013
 20
381.5020000000004
 30
0.0
 10
397.8163899503124
 20
381.1737903707399
 30
0.0
 10
397.5233899577142
 20
380.8808903781392
 30
0.0
 10
397.4628899592426
 20
380.8212903796448
 30
0.0
 10
397.4022899607735
 20
380.7626903811251
 30
0.0
 10
397.3417899623018
 20
380.706090382555
 30
0.0
 10
397.3417899623018
 20
380.706090382555
 30
0.0
 10
397.4433899597352
 20
380.7011903826788
 30
0.0
 10
397.4433899597352
 20
380.7011903826788
 30
0.0
 10
397.5048899581816
 20
380.622090384677
 30
0.0
 10
397.566389956628
 20
380.5429999999997
 30
0.0
 10
397.6288899550491
 20
380.4628903886987
 30
0.0
 10
397.1474899672103
 20
380.1210903973333
 30
0.0
 10
396.6796899790279
 20
379.9188904024413
 30
0.0
 10
396.2265899904742
 20
379.8729999999996
 30
0.0
 10
396.2265899904742
 20
379.8729999999996
 30
0.0
 10
396.1991899911663
 20
379.9003904029087
 30
0.0
 10
396.1991899911663
 20
379.9003904029087
 30
0.0
 10
395.7616900022185
 20
379.6698904087316
 30
0.0
 10
395.2909999999993
 20
379.4940904131727
 30
0.0
 10
394.794890026642
 20
379.3847904159338
 30
0.0
 10
394.794890026642
 20
379.3847904159338
 30
0.0
 10
394.8778900245452
 20
379.3300904173157
 30
0.0
 10
394.8778900245452
 20
379.3300904173157
 30
0.0
 10
394.8925900241738
 20
379.2304904198318
 30
0.0
 10
394.907190023805
 20
379.1308904223479
 30
0.0
 10
394.9218900234337
 20
379.0321904248412
 30
0.0
 10
394.3340000000007
 20
378.9765904262458
 30
0.0
 10
393.8261900511134
 20
379.0351904247655
 30
0.0
 10
393.4120900615744
 20
379.2206904200793
 30
0.0
 10
393.4120900615744
 20
379.2206904200793
 30
0.0
 10
393.4013900618447
 20
379.2606904190689
 30
0.0
 10
393.4013900618447
 20
379.2606904190689
 30
0.0
 10
392.8886900747966
 20
379.279290418599
 30
0.0
 10
392.3944900872812
 20
379.3671904163784
 30
0.0
 10
391.9276900990735
 20
379.5145904126548
 30
0.0
 10
391.9276900990735
 20
379.5145904126548
 30
0.0
 10
391.9726900979367
 20
379.4257904148981
 30
0.0
 10
391.9726900979367
 20
379.4257904148981
 30
0.0
 10
391.9345900988992
 20
379.3320000000003
 30
0.0
 10
391.8983900998137
 20
379.2382904196347
 30
0.0
 10
391.8612901007509
 20
379.1444904220043
 30
0.0
 10
391.3231901143445
 20
379.3925904157368
 30
0.0
 10
390.9120901247297
 20
379.6952904080899
 30
0.0
 10
390.6464901314394
 20
380.0653903987404
 30
0.0
 10
390.6464901314394
 20
380.0653903987404
 30
0.0
 10
390.6581901311438
 20
380.1034903977779
 30
0.0
 10
390.6581901311438
 20
380.1034903977779
 30
0.0
 10
390.3046901400739
 20
380.3261903921521
 30
0.0
 10
389.9765901483624
 20
380.5868903855662
 30
0.0
 10
389.6835901557643
 20
380.8808903781392
 30
0.0
 10
389.6239999999998
 20
380.9394903766588
 30
0.0
 10
389.566390158725
 20
381.0010000000002
 30
0.0
 10
389.5097901601548
 20
381.0624903735516
 30
0.0
 10
389.5097901601548
 20
381.0624903735516
 30
0.0
 10
389.5038901603039
 20
380.9608903761182
 30
0.0
 10
389.5038901603039
 20
380.9608903761182
 30
0.0
 10
389.4247901623021
 20
380.8983903776971
 30
0.0
 10
389.3456901643003
 20
380.8368903792507
 30
0.0
 10
389.2665901662986
 20
380.7753903808043
 30
0.0
 10
388.9237901749584
 20
381.2567903686431
 30
0.0
 10
388.7206901800892
 20
381.7245903568255
 30
0.0
 10
388.6757901812234
 20
382.1757903454272
 30
0.0
 10
388.6757901812234
 20
382.1757903454272
 30
0.0
 10
388.7040901805085
 20
382.2050903446871
 30
0.0
 10
388.7040901805085
 20
382.2050903446871
 30
0.0
 10
388.4706901864047
 20
382.6415903336601
 30
0.0
 10
388.2968901907952
 20
383.113290321744
 30
0.0
 10
388.1874901935589
 20
383.6093903092114
 30
0.0
 10
388.1874901935589
 20
383.6093903092114
 30
0.0
 10
388.1327901949408
 20
383.5253903113335
 30
0.0
 10
388.1327901949408
 20
383.5253903113335
 30
0.0
 10
388.0331901974569
 20
383.5106903117048
 30
0.0
 10
387.9345901999477
 20
383.4960903120736
 30
0.0
 10
387.8340000000007
 20
383.4823903124197
 30
0.0
 10
387.8183902028832
 20
383.6571903080039
 30
0.0
 10
387.8124902030322
 20
383.8261903037346
 30
0.0
 10
387.815390202959
 20
383.9862902996902
 30
0.0
 10
387.815390202959
 20
383.9862902996902
 30
0.0
 10
386.7333902302926
 20
383.9862902996902
 30
0.0
 10
386.7333902302926
 20
383.9862902996902
 30
0.0
 10
386.7333902302926
 20
383.9862902996902
 30
0.0
 10
382.9940903247552
 20
383.9862902996902
 30
0.0
 10
382.9940903247552
 20
383.9862902996902
 30
0.0
 10
382.9940903247552
 20
383.9862902996902
 30
0.0
 10
382.9940903247552
 20
383.1386903211023
 30
0.0
 10
382.9940903247552
 20
383.1386903211023
 30
0.0
 10
382.9940903247552
 20
383.1386903211023
 30
0.0
 10
381.854490353544
 20
383.1386903211023
 30
0.0
 10
381.854490353544
 20
383.1386903211023
 30
0.0
 10
381.890590352632
 20
382.943390326036
 30
0.0
 10
381.9101903521369
 20
382.7440903310708
 30
0.0
 10
381.9101903521369
 20
382.5380903362748
 30
0.0
 10
381.9101903521369
 20
382.4384903387909
 30
0.0
 10
381.9052903522606
 20
382.3417903412337
 30
0.0
 10
381.8964903524829
 20
382.2450903436766
 30
0.0
 10
381.8964903524829
 20
382.2450903436766
 30
0.0
 10
382.0097903496207
 20
382.3397903412842
 30
0.0
 10
382.0097903496207
 20
382.3397903412842
 30
0.0
 10
382.0663903481909
 20
382.3300903415293
 30
0.0
 10
382.1220903467838
 20
382.3222903417263
 30
0.0
 10
382.1776903453792
 20
382.3124903419739
 30
0.0
 10
382.1093903471046
 20
381.9882903501639
 30
0.0
 10
381.9950903499921
 20
381.726590356775
 30
0.0
 10
381.8261903542589
 20
381.5351903616101
 30
0.0
 10
381.8261903542589
 20
381.5351903616101
 30
0.0
 10
381.7538903560853
 20
381.5390903615116
 30
0.0
 10
381.7538903560853
 20
381.5390903615116
 30
0.0
 10
381.6513903586747
 20
381.2226903695046
 30
0.0
 10
381.5038903624009
 20
380.9296903769064
 30
0.0
 10
381.3163903671375
 20
380.664090383616
 30
0.0
 10
381.3163903671375
 20
380.664090383616
 30
0.0
 10
381.4608903634871
 20
380.6894903829743
 30
0.0
 10
381.4608903634871
 20
380.6894903829743
 30
0.0
 10
381.5058903623503
 20
380.6532903838888
 30
0.0
 10
381.5487903612666
 20
380.6181903847755
 30
0.0
 10
381.5937903601298
 20
380.5830000000005
 30
0.0
 10
381.3729999999996
 20
380.335890391907
 30
0.0
 10
381.1425903715281
 20
380.1659999999993
 30
0.0
 10
380.9003903776465
 20
380.0840000000007
 30
0.0
 10
380.9003903776465
 20
380.0840000000007
 30
0.0
 10
380.8368903792507
 20
380.125
 30
0.0
 10
380.8368903792507
 20
380.125
 30
0.0
 10
380.5956903853439
 20
379.9062904027596
 30
0.0
 10
380.3222903922506
 20
379.7245904073498
 30
0.0
 10
380.0233903998014
 20
379.5849999999991
 30
0.0
 10
380.0233903998014
 20
379.5849999999991
 30
0.0
 10
380.1620903962976
 20
379.5341904121597
 30
0.0
 10
380.1620903962976
 20
379.5341904121597
 30
0.0
 10
380.181590395805
 20
379.4813904134935
 30
0.0
 10
380.2011903953098
 20
379.4286904148248
 30
0.0
 10
380.2216903947919
 20
379.3760000000002
 30
0.0
 10
379.9062904027596
 20
379.273390418748
 30
0.0
 10
379.6229999999996
 20
379.2401904195867
 30
0.0
 10
379.3729999999996
 20
379.2909999999993
 30
0.0
 10
379.3729999999996
 20
379.2909999999993
 30
0.0
 10
379.3388904170934
 20
379.3563904166513
 30
0.0
 10
379.3388904170934
 20
379.3563904166513
 30
0.0
 10
379.1181904226687
 20
379.3104904178108
 30
0.0
 10
378.8905904284184
 20
379.2851904184499
 30
0.0
 10
378.6562904343373
 20
379.2851904184499
 30
0.0
 10
378.5585904368054
 20
379.2851904184499
 30
0.0
 10
378.4590000000007
 20
379.2890904183514
 30
0.0
 10
378.3632904417391
 20
379.2987904181064
 30
0.0
 10
378.3632904417391
 20
379.2987904181064
 30
0.0
 10
378.4580000000005
 20
379.1835904210166
 30
0.0
 10
378.4580000000005
 20
379.1835904210166
 30
0.0
 10
378.4491904395691
 20
379.1288904223984
 30
0.0
 10
378.4403904397914
 20
379.0722904238282
 30
0.0
 10
378.4315904400137
 20
379.0175904252101
 30
0.0
 10
378.1063904482289
 20
379.0849999999991
 30
0.0
 10
377.8437904548628
 20
379.1991904206225
 30
0.0
 10
377.6522904597005
 20
379.3690904163304
 30
0.0
 10
377.6522904597005
 20
379.3690904163304
 30
0.0
 10
377.6562904595994
 20
379.441390414504
 30
0.0
 10
377.6562904595994
 20
379.441390414504
 30
0.0
 10
377.3417904675443
 20
379.5429999999997
 30
0.0
 10
377.0478904749689
 20
379.6913904081885
 30
0.0
 10
376.7831904816558
 20
379.8788904034518
 30
0.0
 10
376.7831904816558
 20
379.8788904034518
 30
0.0
 10
376.8085904810141
 20
379.7323904071527
 30
0.0
 10
376.8085904810141
 20
379.7323904071527
 30
0.0
 10
376.7714904819513
 20
379.6894904082365
 30
0.0
 10
376.7362904828406
 20
379.6444904093732
 30
0.0
 10
376.7011904837273
 20
379.601590410457
 30
0.0
 10
376.4530904899948
 20
379.8222904048816
 30
0.0
 10
376.2841904942616
 20
380.0526903990612
 30
0.0
 10
376.2030904963103
 20
380.293890392968
 30
0.0
 10
376.2030904963103
 20
380.293890392968
 30
0.0
 10
376.2421904953226
 20
380.3573903913639
 30
0.0
 10
376.2421904953226
 20
380.3573903913639
 30
0.0
 10
376.0253905007994
 20
380.5976903852934
 30
0.0
 10
375.8417905054375
 20
380.8720903783615
 30
0.0
 10
375.7030905089414
 20
381.1718903707879
 30
0.0
 10
375.7030905089414
 20
381.1718903707879
 30
0.0
 10
375.6522905102247
 20
381.0331903742917
 30
0.0
 10
375.6522905102247
 20
381.0331903742917
 30
0.0
 10
375.599590511556
 20
381.0126903748096
 30
0.0
 10
375.5468905128873
 20
380.9921903753275
 30
0.0
 10
375.4940905142212
 20
380.9726903758201
 30
0.0
 10
375.3905905168358
 20
381.2870903678777
 30
0.0
 10
375.359390517624
 20
381.5722903606729
 30
0.0
 10
375.4101905163407
 20
381.8222903543574
 30
0.0
 10
375.4101905163407
 20
381.8222903543574
 30
0.0
 10
375.4745905147138
 20
381.8554903535187
 30
0.0
 10
375.4745905147138
 20
381.8554903535187
 30
0.0
 10
375.4276905158986
 20
382.0761903479433
 30
0.0
 10
375.4022905165402
 20
382.3026903422215
 30
0.0
 10
375.4022905165402
 20
382.5380903362748
 30
0.0
 10
375.4022905165402
 20
382.6366903337839
 30
0.0
 10
375.4081905163912
 20
382.7343903313158
 30
0.0
 10
375.4159999999993
 20
382.8300903288982
 30
0.0
 10
375.4159999999993
 20
382.8300903288982
 30
0.0
 10
375.3026905190563
 20
382.7362903312678
 30
0.0
 10
375.3026905190563
 20
382.7362903312678
 30
0.0
 10
375.2460905204862
 20
382.7460903310202
 30
0.0
 10
375.191390521868
 20
382.7538903308232
 30
0.0
 10
375.1347905232979
 20
382.7636903305756
 30
0.0
 10
375.2030905215724
 20
383.0878903223856
 30
0.0
 10
375.3183905186597
 20
383.3495903157745
 30
0.0
 10
375.4862905144182
 20
383.5409999999993
 30
0.0
 10
375.4862905144182
 20
383.5409999999993
 30
0.0
 10
375.5595905125665
 20
383.5370903110379
 30
0.0
 10
375.5595905125665
 20
383.5370903110379
 30
0.0
 10
375.6601905100251
 20
383.853490303045
 30
0.0
 10
375.809590506251
 20
384.1474902956179
 30
0.0
 10
375.9970905015143
 20
384.4120902889335
 30
0.0
 10
375.9970905015143
 20
384.4120902889335
 30
0.0
 10
375.8505905052152
 20
384.3866902895752
 30
0.0
 10
375.8505905052152
 20
384.3866902895752
 30
0.0
 10
375.8065905063268
 20
384.4228902886607
 30
0.0
 10
375.7626905074358
 20
384.4570000000003
 30
0.0
 10
375.7187905085448
 20
384.494090286862
 30
0.0
 10
375.9413905029214
 20
384.740190280645
 30
0.0
 10
376.1718904970985
 20
384.9101902763505
 30
0.0
 10
376.4130904910053
 20
384.992190274279
 30
0.0
 10
376.4130904910053
 20
384.992190274279
 30
0.0
 10
376.4745904894517
 20
384.9511902753147
 30
0.0
 10
376.4745904894517
 20
384.9511902753147
 30
0.0
 10
376.7157904833584
 20
385.1698902697899
 30
0.0
 10
376.9901904764265
 20
385.352490265177
 30
0.0
 10
377.2890904688757
 20
385.4911902616732
 30
0.0
 10
377.2890904688757
 20
385.4911902616732
 30
0.0
 10
377.1513904723543
 20
385.5429999999997
 30
0.0
 10
377.1513904723543
 20
385.5429999999997
 30
0.0
 10
377.1308904728721
 20
385.5946902590586
 30
0.0
 10
377.11039047339
 20
385.6474902577247
 30
0.0
 10
377.0897904739104
 20
385.7001902563934
 30
0.0
 10
377.3573904671503
 20
385.7880902541729
 30
0.0
 10
377.6034904609332
 20
385.8241902532609
 30
0.0
 10
377.8241904553579
 20
385.802690253804
 30
0.0
 10
377.8241904553579
 20
385.802690253804
 30
0.0
 10
377.1708904718616
 20
389.2255901673343
 30
0.0
 10
377.1708904718616
 20
389.2255901673343
 30
0.0
 10
377.1708904718616
 20
389.2255901673343
 30
0.0
 10
377.1620904720839
 20
389.2675901662733
 30
0.0
 10
377.1620904720839
 20
389.2675901662733
 30
0.0
 10
377.1620904720839
 20
389.2675901662733
 30
0.0
 10
377.1620904720839
 20
389.3026901653866
 30
0.0
 10
377.1620904720839
 20
389.3026901653866
 30
0.0
 10
377.1620904720839
 20
389.3026901653866
 30
0.0
 10
377.1620904720839
 20
390.5155901347462
 30
0.0
 10
377.1620904720839
 20
390.5155901347462
 30
0.0
 10
377.1620904720839
 20
390.5155901347462
 30
0.0
 10
377.1620904720839
 20
390.9296901242851
 30
0.0
 10
377.1620904720839
 20
390.9296901242851
 30
0.0
 10
377.1620904720839
 20
390.9296901242851
 30
0.0
 10
377.5761904616229
 20
390.9296901242851
 30
0.0
 10
377.5761904616229
 20
390.9296901242851
 30
0.0
 10
377.5761904616229
 20
390.9296901242851
 30
0.0
 10
377.5761904616229
 20
390.9296901242851
 30
0.0
 10
377.5761904616229
 20
390.9296901242851
 30
0.0
  0
POLYLINE
  5
52
330
4F
100
AcDbEntity
  8
Layer 1
370
     0
100
AcDb2dPolyline
 66
     1
 10
0.0
 20
0.0
 30
0.0
  0
VERTEX
  5
53
330
52
100
AcDbEntity
  8
Layer 1
370
     0
100
AcDbVertex
100
AcDb2dVertex
 10
395.3280900131722
 20
391.0272901218195
 30
0.0
  0
VERTEX
  5
54
330
52
100
AcDbEntity
  8
Layer 1
370
     0
100
AcDbVertex
100
AcDb2dVertex
 10
395.3280900131722
 20
396.8770000000004
 30
0.0
  0
VERTEX
  5
55
330
52
100
AcDbEntity
  8
Layer 1
370
     0
100
AcDbVertex
100
AcDb2dVertex
 10
391.5585901083978
 20
396.8770000000004
 30
0.0
  0
VERTEX
  5
56
330
52
100
AcDbEntity
  8
Layer 1
370
     0
100
AcDbVertex
100
AcDb2dVertex
 10
391.5585901083978
 20
391.0272901218195
 30
0.0
  0
VERTEX
  5
57
330
52
100
AcDbEntity
  8
Layer 1
370
     0
100
AcDbVertex
100
AcDb2dVertex
 10
395.3280900131722
 20
391.0272901218195
 30
0.0
  0
VERTEX
  5
58
330
52
100
AcDbEntity
  8
Layer 1
370
     0
100
AcDbVertex
100
AcDb2dVertex
 10
395.3280900131722
 20
391.0272901218195
 30
0.0
  0
SEQEND
  5
59
330
52
100
AcDbEntity
  8
Layer 1
370
     0
  0
POLYLINE
  5
5A
330
4F
100
AcDbEntity
  8
Layer 1
370
     0
100
AcDb2dPolyline
 66
     1
 10
0.0
 20
0.0
 30
0.0
  0
VERTEX
  5
5B
330
5A
100
AcDbEntity
  8
Layer 1
370
     0
100
AcDbVertex
100
AcDb2dVertex
 10
399.4823899082257
 20
392.7900000000009
 30
0.0
  0
VERTEX
  5
5C
330
5A
100
AcDbEntity
  8
Layer 1
370
     0
100
AcDbVertex
100
AcDb2dVertex
 10
399.5194899072885
 20
392.3065900895017
 30
0.0
  0
VERTEX
  5
5D
330
5A
100
AcDbEntity
  8
Layer 1
370
     0
100
AcDbVertex
100
AcDb2dVertex
 10
398.544889931909
 20
390.6913901303051
 30
0.0
  0
VERTEX
  5
5E
330
5A
100
AcDbEntity
  8
Layer 1
370
     0
100
AcDbVertex
100
AcDb2dVertex
 10
398.7753899260861
 20
389.3651901638077
 30
0.0
  0
VERTEX
  5
5F
330
5A
100
AcDbEntity
  8
Layer 1
370
     0
100
AcDbVertex
100
AcDb2dVertex
 10
398.8261899248027
 20
389.3261901647929
 30
0.0
  0
VERTEX
  5
60
330
5A
100
AcDbEntity
  8
Layer 1
370
     0
100
AcDbVertex
100
AcDb2dVertex
 10
398.7909999999993
 20
389.2900000000009
 30
0.0
  0
VERTEX
  5
61
330
5A
100
AcDbEntity
  8
Layer 1
370
     0
100
AcDbVertex
100
AcDb2dVertex
 10
399.0048899202884
 20
388.2948901908458
 30
0.0
  0
VERTEX
  5
62
330
5A
100
AcDbEntity
  8
Layer 1
370
     0
100
AcDbVertex
100
AcDb2dVertex
 10
399.0683899186843
 20
388.2792901912399
 30
0.0
  0
VERTEX
  5
63
330
5A
100
AcDbEntity
  8
Layer 1
370
     0
100
AcDbVertex
100
AcDb2dVertex
 10
399.75
 20
390.7304901293173
 30
0.0
  0
VERTEX
  5
64
330
5A
100
AcDbEntity
  8
Layer 1
370
     0
100
AcDbVertex
100
AcDb2dVertex
 10
400.0585898936697
 20
390.6513901313156
 30
0.0
  0
VERTEX
  5
65
330
5A
100
AcDbEntity
  8
Layer 1
370
     0
100
AcDbVertex
100
AcDb2dVertex
 10
401.0517898685794
 20
394.090790044429
 30
0.0
  0
VERTEX
  5
66
330
5A
100
AcDbEntity
  8
Layer 1
370
     0
100
AcDbVertex
100
AcDb2dVertex
 10
399.4823899082257
 20
392.7900000000009
 30
0.0
  0
VERTEX
  5
67
330
5A
100
AcDbEntity
  8
Layer 1
370
     0
100
AcDbVertex
100
AcDb2dVertex
 10
399.4823899082257
 20
392.7900000000009
 30
0.0
  0
SEQEND
  5
68
330
5A
100
AcDbEntity
  8
Layer 1
370
     0
  0
POLYLINE
  5
69
330
4F
100
AcDbEntity
  8
Layer 1
370
     0
100
AcDb2dPolyline
 66
     1
 10
0.0
 20
0.0
 30
0.0
  0
VERTEX
  5
6A
330
69
100
AcDbEntity
  8
Layer 1
370
     0
100
AcDbVertex
100
AcDb2dVertex
 10
411.0175896168221
 20
389.5020000000004
 30
0.0
  0
VERTEX
  5
6B
330
69
100
AcDbEntity
  8
Layer 1
370
     0
100
AcDbVertex
100
AcDb2dVertex
 10
411.5360896037237
 20
391.599590107362
 30
0.0
  0
VERTEX
  5
6C
330
69
100
AcDbEntity
  8
Layer 1
370
     0
100
AcDbVertex
100
AcDb2dVertex
 10
411.3925896073488
 20
391.6347901064728
 30
0.0
  0
VERTEX
  5
6D
330
69
100
AcDbEntity
  8
Layer 1
370
     0
100
AcDbVertex
100
AcDb2dVertex
 10
412.1972895870204
 20
394.8808900244694
 30
0.0
  0
VERTEX
  5
6E
330
69
100
AcDbEntity
  8
Layer 1
370
     0
100
AcDbVertex
100
AcDb2dVertex
 10
412.01758959156
 20
394.8593900250125
 30
0.0
  0
VERTEX
  5
6F
330
69
100
AcDbEntity
  8
Layer 1
370
     0
100
AcDbVertex
100
AcDb2dVertex
 10
410.3563896335254
 20
389.6659999999993
 30
0.0
  0
VERTEX
  5
70
330
69
100
AcDbEntity
  8
Layer 1
370
     0
100
AcDbVertex
100
AcDb2dVertex
 10
411.0175896168221
 20
389.5020000000004
 30
0.0
  0
VERTEX
  5
71
330
69
100
AcDbEntity
  8
Layer 1
370
     0
100
AcDbVertex
100
AcDb2dVertex
 10
411.0175896168221
 20
389.5020000000004
 30
0.0
  0
SEQEND
  5
72
330
69
100
AcDbEntity
  8
Layer 1
370
     0
  0
POLYLINE
  5
73
330
4F
100
AcDbEntity
  8
Layer 1
370
     0
100
AcDb2dPolyline
 66
     1
 10
0.0
 20
0.0
 30
0.0
  0
VERTEX
  5
74
330
73
100
AcDbEntity
  8
Layer 1
370
     0
100
AcDbVertex
100
AcDb2dVertex
 10
410.1659999999993
 20
389.0761901711085
 30
0.0
  0
VERTEX
  5
75
330
73
100
AcDbEntity
  8
Layer 1
370
     0
100
AcDbVertex
100
AcDb2dVertex
 10
410.0390896415411
 20
388.6737901812739
 30
0.0
  0
VERTEX
  5
76
330
73
100
AcDbEntity
  8
Layer 1
370
     0
100
AcDbVertex
100
AcDb2dVertex
 10
410.5253896292561
 20
388.6073901829513
 30
0.0
  0
VERTEX
  5
77
330
73
100
AcDbEntity
  8
Layer 1
370
     0
100
AcDbVertex
100
AcDb2dVertex
 10
410.1093896397651
 20
387.2284902177853
 30
0.0
  0
VERTEX
  5
78
330
73
100
AcDbEntity
  8
Layer 1
370
     0
100
AcDbVertex
100
AcDb2dVertex
 10
411.4706896053758
 20
387.3534902146275
 30
0.0
  0
VERTEX
  5
79
330
73
100
AcDbEntity
  8
Layer 1
370
     0
100
AcDbVertex
100
AcDb2dVertex
 10
411.765589597926
 20
388.3173901902774
 30
0.0
  0
VERTEX
  5
7A
330
73
100
AcDbEntity
  8
Layer 1
370
     0
100
AcDbVertex
100
AcDb2dVertex
 10
410.8886896200784
 20
388.8964901756481
 30
0.0
  0
VERTEX
  5
7B
330
73
100
AcDbEntity
  8
Layer 1
370
     0
100
AcDbVertex
100
AcDb2dVertex
 10
410.1659999999993
 20
389.0761901711085
 30
0.0
  0
VERTEX
  5
7C
330
73
100
AcDbEntity
  8
Layer 1
370
     0
100
AcDbVertex
100
AcDb2dVertex
 10
410.1659999999993
 20
389.0761901711085
 30
0.0
  0
SEQEND
  5
7D
330
73
100
AcDbEntity
  8
Layer 1
370
     0
  0
POLYLINE
  5
7E
330
4F
100
AcDbEntity
  8
Layer 1
370
     0
100
AcDb2dPolyline
 66
     1
 10
0.0
 20
0.0
 30
0.0
  0
VERTEX
  5
7F
330
7E
100
AcDbEntity
  8
Layer 1
370
     0
100
AcDbVertex
100
AcDb2dVertex
 10
405.3505897599825
 20
398.1815899410867
 30
0.0
  0
VERTEX
  5
80
330
7E
100
AcDbEntity
  8
Layer 1
370
     0
100
AcDbVertex
100
AcDb2dVertex
 10
405.3876897590453
 20
398.0263899450074
 30
0.0
  0
VERTEX
  5
81
330
7E
100
AcDbEntity
  8
Layer 1
370
     0
100
AcDbVertex
100
AcDb2dVertex
 10
411.3007896096678
 20
397.2050899657552
 30
0.0
  0
VERTEX
  5
82
330
7E
100
AcDbEntity
  8
Layer 1
370
     0
100
AcDbVertex
100
AcDb2dVertex
 10
411.3437896085816
 20
397.3935899609933
 30
0.0
  0
VERTEX
  5
83
330
7E
100
AcDbEntity
  8
Layer 1
370
     0
100
AcDbVertex
100
AcDb2dVertex
 10
409.0644896661615
 20
397.75
 30
0.0
  0
VERTEX
  5
84
330
7E
100
AcDbEntity
  8
Layer 1
370
     0
100
AcDbVertex
100
AcDb2dVertex
 10
409.0419999999995
 20
397.6054899556402
 30
0.0
  0
VERTEX
  5
85
330
7E
100
AcDbEntity
  8
Layer 1
370
     0
100
AcDbVertex
100
AcDb2dVertex
 10
405.3505897599825
 20
398.1815899410867
 30
0.0
  0
VERTEX
  5
86
330
7E
100
AcDbEntity
  8
Layer 1
370
     0
100
AcDbVertex
100
AcDb2dVertex
 10
405.3505897599825
 20
398.1815899410867
 30
0.0
  0
SEQEND
  5
87
330
7E
100
AcDbEntity
  8
Layer 1
370
     0
  0
SPLINE
  5
88
330
4F
100
AcDbEntity
  8
Layer 1
370
     0
100
AcDbSpline
210
0.0
220
0.0
230
1.0
 70
    11
 71
     3
 72
    32
 73
    28
 74
     0
 42
0.000000001
 43
0.0000000001
 40
0.0
 40
0.0
 40
0.0
 40
0.0
 40
1.0
 40
1.0
 40
1.0
 40
2.0
 40
2.0
 40
2.0
 40
3.0
 40
3.0
 40
3.0
 40
4.0
 40
4.0
 40
4.0
 40
5.0
 40
5.0
 40
5.0
 40
6.0
 40
6.0
 40
6.0
 40
7.0
 40
7.0
 40
7.0
 40
8.0
 40
8.0
 40
8.0
 40
9.0
 40
9.0
 40
9.0
 40
9.0
 10
393.6034900567392
 20
387.5331902100879
 30
0.0
 10
392.8476900758324
 20
387.5331902100879
 30
0.0
 10
392.1659999999993
 20
387.2265902178333
 30
0.0
 10
391.6708901055608
 20
386.7323902303178
 30
0.0
 10
391.1757901180681
 20
386.2382902427998
 30
0.0
 10
390.8700901257907
 20
385.554690260069
 30
0.0
 10
390.8700901257907
 20
384.8007902791142
 30
0.0
 10
390.8700901257907
 20
384.0448902982098
 30
0.0
 10
391.1757901180681
 20
383.3622903154537
 30
0.0
 10
391.6708901055608
 20
382.867190327961
 30
0.0
 10
392.1659999999993
 20
382.3729999999996
 30
0.0
 10
392.8476900758324
 20
382.0673903481656
 30
0.0
 10
393.6034900567392
 20
382.0673903481656
 30
0.0
 10
394.3573900376941
 20
382.0673903481656
 30
0.0
 10
395.0409999999993
 20
382.3729999999996
 30
0.0
 10
395.5360900079177
 20
382.867190327961
 30
0.0
 10
396.0292899954584
 20
383.3622903154537
 30
0.0
 10
396.3368899876878
 20
384.0448902982098
 30
0.0
 10
396.3368899876878
 20
384.8007902791142
 30
0.0
 10
396.3368899876878
 20
385.554690260069
 30
0.0
 10
396.0292899954584
 20
386.2382902427998
 30
0.0
 10
395.5360900079177
 20
386.7323902303178
 30
0.0
 10
395.0409999999993
 20
387.2265902178333
 30
0.0
 10
394.3573900376941
 20
387.5331902100879
 30
0.0
 10
393.6034900567392
 20
387.5331902100879
 30
0.0
 10
393.6034900567392
 20
387.5331902100879
 30
0.0
 10
393.6034900567392
 20
387.5331902100879
 30
0.0
 10
393.6034900567392
 20
387.5331902100879
 30
0.0
  0
SPLINE
  5
89
330
4F
100
AcDbEntity
  8
Layer 1
370
     0
100
AcDbSpline
210
0.0
220
0.0
230
1.0
 70
    11
 71
     3
 72
    32
 73
    28
 74
     0
 42
0.000000001
 43
0.0000000001
 40
0.0
 40
0.0
 40
0.0
 40
0.0
 40
1.0
 40
1.0
 40
1.0
 40
2.0
 40
2.0
 40
2.0
 40
3.0
 40
3.0
 40
3.0
 40
4.0
 40
4.0
 40
4.0
 40
5.0
 40
5.0
 40
5.0
 40
6.0
 40
6.0
 40
6.0
 40
7.0
 40
7.0
 40
7.0
 40
8.0
 40
8.0
 40
8.0
 40
9.0
 40
9.0
 40
9.0
 40
9.0
 10
395.2226900158348
 20
386.4198902382122
 30
0.0
 10
394.8085900262959
 20
386.8340000000007
 30
0.0
 10
394.2353900407761
 20
387.0897902212891
 30
0.0
 10
393.6034900567392
 20
387.0897902212891
 30
0.0
 10
392.9706900727251
 20
387.0897902212891
 30
0.0
 10
392.3983900871826
 20
386.8340000000007
 30
0.0
 10
391.9843900976412
 20
386.4198902382122
 30
0.0
 10
391.5702901081022
 20
386.004890248696
 30
0.0
 10
391.3124901146148
 20
385.4315902631788
 30
0.0
 10
391.3124901146148
 20
384.8007902791142
 30
0.0
 10
391.3124901146148
 20
384.1688902950773
 30
0.0
 10
391.5702901081022
 20
383.5956903095575
 30
0.0
 10
391.9843900976412
 20
383.1815903200186
 30
0.0
 10
392.3983900871826
 20
382.7675903304771
 30
0.0
 10
392.9706900727251
 20
382.5097903369897
 30
0.0
 10
393.6034900567392
 20
382.5097903369897
 30
0.0
 10
394.2353900407761
 20
382.5097903369897
 30
0.0
 10
394.8085900262959
 20
382.7675903304771
 30
0.0
 10
395.2226900158348
 20
383.1815903200186
 30
0.0
 10
395.6366900053763
 20
383.5956903095575
 30
0.0
 10
395.8925899989117
 20
384.1688902950773
 30
0.0
 10
395.8925899989117
 20
384.8007902791142
 30
0.0
 10
395.8925899989117
 20
385.4315902631788
 30
0.0
 10
395.6366900053763
 20
386.004890248696
 30
0.0
 10
395.2226900158348
 20
386.4198902382122
 30
0.0
 10
395.2226900158348
 20
386.4198902382122
 30
0.0
 10
395.2226900158348
 20
386.4198902382122
 30
0.0
 10
395.2226900158348
 20
386.4198902382122
 30
0.0
  0
SPLINE
  5
8A
330
4F
100
AcDbEntity
  8
Layer 1
370
     0
100
AcDbSpline
210
0.0
220
0.0
230
1.0
 70
    11
 71
     3
 72
    59
 73
    55
 74
     0
 42
0.000000001
 43
0.0000000001
 40
0.0
 40
0.0
 40
0.0
 40
0.0
 40
1.0
 40
1.0
 40
1.0
 40
2.0
 40
2.0
 40
2.0
 40
3.0
 40
3.0
 40
3.0
 40
4.0
 40
4.0
 40
4.0
 40
5.0
 40
5.0
 40
5.0
 40
6.0
 40
6.0
 40
6.0
 40
7.0
 40
7.0
 40
7.0
 40
8.0
 40
8.0
 40
8.0
 40
9.0
 40
9.0
 40
9.0
 40
10.0
 40
10.0
 40
10.0
 40
11.0
 40
11.0
 40
11.0
 40
12.0
 40
12.0
 40
12.0
 40
13.0
 40
13.0
 40
13.0
 40
14.0
 40
14.0
 40
14.0
 40
15.0
 40
15.0
 40
15.0
 40
16.0
 40
16.0
 40
16.0
 40
17.0
 40
17.0
 40
17.0
 40
18.0
 40
18.0
 40
18.0
 40
18.0
 10
391.2206901169338
 20
389.806590152657
 30
0.0
 10
391.2206901169338
 20
389.806590152657
 30
0.0
 10
391.2206901169338
 20
390.0683901460434
 30
0.0
 10
391.2206901169338
 20
390.0683901460434
 30
0.0
 10
391.2206901169338
 20
390.0683901460434
 30
0.0
 10
390.264590141087
 20
390.0683901460434
 30
0.0
 10
390.264590141087
 20
390.0683901460434
 30
0.0
 10
390.264590141087
 20
390.0683901460434
 30
0.0
 10
388.6991901806323
 20
388.9403901745391
 30
0.0
 10
388.6991901806323
 20
388.9403901745391
 30
0.0
 10
388.6991901806323
 20
388.9403901745391
 30
0.0
 10
388.3144901903506
 20
389.3261901647929
 30
0.0
 10
388.3144901903506
 20
389.3261901647929
 30
0.0
 10
388.3144901903506
 20
389.3261901647929
 30
0.0
 10
389.2929999999997
 20
390.0683901460434
 30
0.0
 10
389.2929999999997
 20
390.0683901460434
 30
0.0
 10
389.2929999999997
 20
390.0683901460434
 30
0.0
 10
387.517590210482
 20
390.0683901460434
 30
0.0
 10
387.517590210482
 20
390.0683901460434
 30
0.0
 10
387.517590210482
 20
390.0683901460434
 30
0.0
 10
387.517590210482
 20
387.5683902091987
 30
0.0
 10
387.517590210482
 20
387.5683902091987
 30
0.0
 10
387.517590210482
 20
387.5683902091987
 30
0.0
 10
388.6425901820621
 20
387.5683902091987
 30
0.0
 10
388.6425901820621
 20
387.5683902091987
 30
0.0
 10
388.7147901802382
 20
387.6366902074733
 30
0.0
 10
388.7890901783612
 20
387.6991902058944
 30
0.0
 10
388.8671901763882
 20
387.755890204462
 30
0.0
 10
388.8671901763882
 20
387.755890204462
 30
0.0
 10
388.9062901754005
 20
387.7460902047096
 30
0.0
 10
388.9062901754005
 20
387.7460902047096
 30
0.0
 10
389.1288901697772
 20
388.0985901958047
 30
0.0
 10
389.3895901631913
 20
388.425790187539
 30
0.0
 10
389.6835901557643
 20
388.7206901800892
 30
0.0
 10
389.7421901542839
 20
388.7792901786088
 30
0.0
 10
389.8036901527303
 20
388.8378901771284
 30
0.0
 10
389.8651901511766
 20
388.8944901756986
 30
0.0
 10
389.8651901511766
 20
388.8944901756986
 30
0.0
 10
389.7636901537408
 20
388.9003901755495
 30
0.0
 10
389.7636901537408
 20
388.9003901755495
 30
0.0
 10
389.7011901553196
 20
388.9784901735766
 30
0.0
 10
389.6386901568985
 20
389.0575901715783
 30
0.0
 10
389.5761901584774
 20
389.1376901695548
 30
0.0
 10
390.0595901462657
 20
389.4794901609202
 30
0.0
 10
390.5272901344506
 20
389.6815901558148
 30
0.0
 10
390.9794901230271
 20
389.72849015463
 30
0.0
 10
390.9794901230271
 20
389.72849015463
 30
0.0
 10
391.0077901223121
 20
389.6991901553702
 30
0.0
 10
391.0077901223121
 20
389.6991901553702
 30
0.0
 10
391.0780901205362
 20
389.7362901544329
 30
0.0
 10
391.1483901187603
 20
389.7733901534957
 30
0.0
 10
391.2206901169338
 20
389.806590152657
 30
0.0
 10
391.2206901169338
 20
389.806590152657
 30
0.0
 10
391.2206901169338
 20
389.806590152657
 30
0.0
 10
391.2206901169338
 20
389.806590152657
 30
0.0
  0
SPLINE
  5
8B
330
4F
100
AcDbEntity
  8
Layer 1
370
     0
100
AcDbSpline
210
0.0
220
0.0
230
1.0
 70
    11
 71
     3
 72
    32
 73
    28
 74
     0
 42
0.000000001
 43
0.0000000001
 40
0.0
 40
0.0
 40
0.0
 40
0.0
 40
1.0
 40
1.0
 40
1.0
 40
2.0
 40
2.0
 40
2.0
 40
3.0
 40
3.0
 40
3.0
 40
4.0
 40
4.0
 40
4.0
 40
5.0
 40
5.0
 40
5.0
 40
6.0
 40
6.0
 40
6.0
 40
7.0
 40
7.0
 40
7.0
 40
8.0
 40
8.0
 40
8.0
 40
9.0
 40
9.0
 40
9.0
 40
9.0
 10
395.9667899970373
 20
387.1630902194374
 30
0.0
 10
395.3612900123335
 20
387.7685902041412
 30
0.0
 10
394.5253900334501
 20
388.1425901946932
 30
0.0
 10
393.6034900567392
 20
388.1425901946932
 30
0.0
 10
392.6806900800511
 20
388.1425901946932
 30
0.0
 10
391.845690101145
 20
387.7685902041412
 30
0.0
 10
391.2401901164412
 20
387.1630902194374
 30
0.0
 10
390.6356901317122
 20
386.5585902347084
 30
0.0
 10
390.2616901411602
 20
385.722690255825
 30
0.0
 10
390.2616901411602
 20
384.8007902791142
 30
0.0
 10
390.2616901411602
 20
383.8770000000004
 30
0.0
 10
390.6356901317122
 20
383.0419999999995
 30
0.0
 10
391.2401901164412
 20
382.4374903388161
 30
0.0
 10
391.845690101145
 20
381.8330000000005
 30
0.0
 10
392.6806900800511
 20
381.4590000000007
 30
0.0
 10
393.6034900567392
 20
381.4590000000007
 30
0.0
 10
394.5253900334501
 20
381.4590000000007
 30
0.0
 10
395.3612900123335
 20
381.8330000000005
 30
0.0
 10
395.9667899970373
 20
382.4374903388161
 30
0.0
 10
396.5702899817916
 20
383.0419999999995
 30
0.0
 10
396.9442899723435
 20
383.8770000000004
 30
0.0
 10
396.9442899723435
 20
384.8007902791142
 30
0.0
 10
396.9442899723435
 20
385.722690255825
 30
0.0
 10
396.5702899817916
 20
386.5585902347084
 30
0.0
 10
395.9667899970373
 20
387.1630902194374
 30
0.0
 10
395.9667899970373
 20
387.1630902194374
 30
0.0
 10
395.9667899970373
 20
387.1630902194374
 30
0.0
 10
395.9667899970373
 20
387.1630902194374
 30
0.0
  0
SPLINE
  5
8C
330
4F
100
AcDbEntity
  8
Layer 1
370
     0
100
AcDbSpline
210
0.0
220
0.0
230
1.0
 70
    11
 71
     3
 72
    56
 73
    52
 74
     0
 42
0.000000001
 43
0.0000000001
 40
0.0
 40
0.0
 40
0.0
 40
0.0
 40
1.0
 40
1.0
 40
1.0
 40
2.0
 40
2.0
 40
2.0
 40
3.0
 40
3.0
 40
3.0
 40
4.0
 40
4.0
 40
4.0
 40
5.0
 40
5.0
 40
5.0
 40
6.0
 40
6.0
 40
6.0
 40
7.0
 40
7.0
 40
7.0
 40
8.0
 40
8.0
 40
8.0
 40
9.0
 40
9.0
 40
9.0
 40
10.0
 40
10.0
 40
10.0
 40
11.0
 40
11.0
 40
11.0
 40
12.0
 40
12.0
 40
12.0
 40
13.0
 40
13.0
 40
13.0
 40
14.0
 40
14.0
 40
14.0
 40
15.0
 40
15.0
 40
15.0
 40
16.0
 40
16.0
 40
16.0
 40
17.0
 40
17.0
 40
17.0
 40
17.0
 10
378.6659999999993
 20
385.7909999999993
 30
0.0
 10
378.7616904316747
 20
385.7909999999993
 30
0.0
 10
378.8554904293051
 20
385.7860902542234
 30
0.0
 10
378.949190426938
 20
385.7772902544457
 30
0.0
 10
378.949190426938
 20
385.7772902544457
 30
0.0
 10
378.8544904293303
 20
385.892590251533
 30
0.0
 10
378.8544904293303
 20
385.892590251533
 30
0.0
 10
378.863290429108
 20
385.9472902501511
 30
0.0
 10
378.8729999999996
 20
386.0038902487213
 30
0.0
 10
378.8808904286634
 20
386.0595902473142
 30
0.0
 10
379.2050904204734
 20
385.9911902490421
 30
0.0
 10
379.4677904138371
 20
385.8770000000004
 30
0.0
 10
379.6601904089766
 20
385.7070000000003
 30
0.0
 10
379.6601904089766
 20
385.7070000000003
 30
0.0
 10
379.6552904091004
 20
385.6347902580455
 30
0.0
 10
379.6552904091004
 20
385.6347902580455
 30
0.0
 10
379.849590404192
 20
385.5722902596244
 30
0.0
 10
380.0370903994553
 20
385.4911902616732
 30
0.0
 10
380.2147903949663
 20
385.394490264116
 30
0.0
 10
380.2147903949663
 20
385.394490264116
 30
0.0
 10
380.4159999999993
 20
385.394490264116
 30
0.0
 10
380.4159999999993
 20
385.394490264116
 30
0.0
 10
380.4159999999993
 20
385.394490264116
 30
0.0
 10
380.4159999999993
 20
388.2987901907472
 30
0.0
 10
380.4159999999993
 20
388.2987901907472
 30
0.0
 10
380.4159999999993
 20
388.2987901907472
 30
0.0
 10
380.4159999999993
 20
388.7128901802862
 30
0.0
 10
380.4159999999993
 20
388.7128901802862
 30
0.0
 10
380.4159999999993
 20
388.7128901802862
 30
0.0
 10
380.828090379473
 20
388.7128901802862
 30
0.0
 10
380.828090379473
 20
388.7128901802862
 30
0.0
 10
380.828090379473
 20
388.7128901802862
 30
0.0
 10
386.2616902422087
 20
388.7128901802862
 30
0.0
 10
386.2616902422087
 20
388.7128901802862
 30
0.0
 10
386.2616902422087
 20
388.7128901802862
 30
0.0
 10
386.3388902402585
 20
389.4296901621783
 30
0.0
 10
386.3388902402585
 20
389.4296901621783
 30
0.0
 10
386.3388902402585
 20
389.4296901621783
 30
0.0
 10
386.3388902402585
 20
390.1034901451567
 30
0.0
 10
386.3388902402585
 20
390.1034901451567
 30
0.0
 10
386.3388902402585
 20
390.1034901451567
 30
0.0
 10
377.9892904511871
 20
390.1034901451567
 30
0.0
 10
377.9892904511871
 20
390.1034901451567
 30
0.0
 10
377.9892904511871
 20
390.1034901451567
 30
0.0
 10
377.9892904511871
 20
389.3378901644974
 30
0.0
 10
377.9892904511871
 20
389.3378901644974
 30
0.0
 10
377.9892904511871
 20
389.3378901644974
 30
0.0
 10
378.6659999999993
 20
385.7909999999993
 30
0.0
 10
378.6659999999993
 20
385.7909999999993
 30
0.0
 10
378.6659999999993
 20
385.7909999999993
 30
0.0
 10
378.6659999999993
 20
385.7909999999993
 30
0.0
 10
378.6659999999993
 20
385.7909999999993
 30
0.0
  0
SPLINE
  5
8D
330
4F
100
AcDbEntity
  8
Layer 1
370
     0
100
AcDbSpline
210
0.0
220
0.0
230
1.0
 70
    11
 71
     3
 72
    32
 73
    28
 74
     0
 42
0.000000001
 43
0.0000000001
 40
0.0
 40
0.0
 40
0.0
 40
0.0
 40
1.0
 40
1.0
 40
1.0
 40
2.0
 40
2.0
 40
2.0
 40
3.0
 40
3.0
 40
3.0
 40
4.0
 40
4.0
 40
4.0
 40
5.0
 40
5.0
 40
5.0
 40
6.0
 40
6.0
 40
6.0
 40
7.0
 40
7.0
 40
7.0
 40
8.0
 40
8.0
 40
8.0
 40
9.0
 40
9.0
 40
9.0
 40
9.0
 10
378.6562904343373
 20
383.8964903019587
 30
0.0
 10
378.2812904438106
 20
383.8964903019587
 30
0.0
 10
377.9413904523972
 20
383.7440903058086
 30
0.0
 10
377.6962904585889
 20
383.4979999999996
 30
0.0
 10
377.4511904647807
 20
383.2520000000004
 30
0.0
 10
377.2987904686306
 20
382.9130903268015
 30
0.0
 10
377.2987904686306
 20
382.5380903362748
 30
0.0
 10
377.2987904686306
 20
382.1620903457733
 30
0.0
 10
377.4511904647807
 20
381.8241903543094
 30
0.0
 10
377.6962904585889
 20
381.5780903605264
 30
0.0
 10
377.9413904523972
 20
381.3320000000003
 30
0.0
 10
378.2812904438106
 20
381.1806903705656
 30
0.0
 10
378.6562904343373
 20
381.1806903705656
 30
0.0
 10
379.031290424864
 20
381.1806903705656
 30
0.0
 10
379.3710904162799
 20
381.3320000000003
 30
0.0
 10
379.6171904100629
 20
381.5780903605264
 30
0.0
 10
379.8622904038712
 20
381.8241903543094
 30
0.0
 10
380.0136904000465
 20
382.1620903457733
 30
0.0
 10
380.0136904000465
 20
382.5380903362748
 30
0.0
 10
380.0136904000465
 20
382.9130903268015
 30
0.0
 10
379.8622904038712
 20
383.2520000000004
 30
0.0
 10
379.6171904100629
 20
383.4979999999996
 30
0.0
 10
379.3710904162799
 20
383.7440903058086
 30
0.0
 10
379.031290424864
 20
383.8964903019587
 30
0.0
 10
378.6562904343373
 20
383.8964903019587
 30
0.0
 10
378.6562904343373
 20
383.8964903019587
 30
0.0
 10
378.6562904343373
 20
383.8964903019587
 30
0.0
 10
378.6562904343373
 20
383.8964903019587
 30
0.0
  0
SPLINE
  5
8E
330
4F
100
AcDbEntity
  8
Layer 1
370
     0
100
AcDbSpline
210
0.0
220
0.0
230
1.0
 70
    11
 71
     3
 72
    32
 73
    28
 74
     0
 42
0.000000001
 43
0.0000000001
 40
0.0
 40
0.0
 40
0.0
 40
0.0
 40
1.0
 40
1.0
 40
1.0
 40
2.0
 40
2.0
 40
2.0
 40
3.0
 40
3.0
 40
3.0
 40
4.0
 40
4.0
 40
4.0
 40
5.0
 40
5.0
 40
5.0
 40
6.0
 40
6.0
 40
6.0
 40
7.0
 40
7.0
 40
7.0
 40
8.0
 40
8.0
 40
8.0
 40
9.0
 40
9.0
 40
9.0
 40
9.0
 10
379.4599999999991
 20
383.3417903159716
 30
0.0
 10
379.2548904192154
 20
383.5478903107651
 30
0.0
 10
378.9706904263949
 20
383.675790307534
 30
0.0
 10
378.6562904343373
 20
383.675790307534
 30
0.0
 10
378.3417904422822
 20
383.675790307534
 30
0.0
 10
378.0575904494617
 20
383.5478903107651
 30
0.0
 10
377.8515904546657
 20
383.3417903159716
 30
0.0
 10
377.646490459847
 20
383.1366903211529
 30
0.0
 10
377.518590463078
 20
382.8515903283551
 30
0.0
 10
377.518590463078
 20
382.5380903362748
 30
0.0
 10
377.518590463078
 20
382.2245903441944
 30
0.0
 10
377.646490459847
 20
381.9394903513967
 30
0.0
 10
377.8515904546657
 20
381.7343903565779
 30
0.0
 10
378.0575904494617
 20
381.5282903617845
 30
0.0
 10
378.3417904422822
 20
381.4003903650155
 30
0.0
 10
378.6562904343373
 20
381.4003903650155
 30
0.0
 10
378.9706904263949
 20
381.4003903650155
 30
0.0
 10
379.2548904192154
 20
381.5282903617845
 30
0.0
 10
379.4599999999991
 20
381.7343903565779
 30
0.0
 10
379.6669999999995
 20
381.9394903513967
 30
0.0
 10
379.7938904055991
 20
382.2245903441944
 30
0.0
 10
379.7938904055991
 20
382.5380903362748
 30
0.0
 10
379.7938904055991
 20
382.8515903283551
 30
0.0
 10
379.6669999999995
 20
383.1366903211529
 30
0.0
 10
379.4599999999991
 20
383.3417903159716
 30
0.0
 10
379.4599999999991
 20
383.3417903159716
 30
0.0
 10
379.4599999999991
 20
383.3417903159716
 30
0.0
 10
379.4599999999991
 20
383.3417903159716
 30
0.0
  0
SPLINE
  5
8F
330
4F
100
AcDbEntity
  8
Layer 1
370
     0
100
AcDbSpline
210
0.0
220
0.0
230
1.0
 70
    11
 71
     3
 72
    32
 73
    28
 74
     0
 42
0.000000001
 43
0.0000000001
 40
0.0
 40
0.0
 40
0.0
 40
0.0
 40
1.0
 40
1.0
 40
1.0
 40
2.0
 40
2.0
 40
2.0
 40
3.0
 40
3.0
 40
3.0
 40
4.0
 40
4.0
 40
4.0
 40
5.0
 40
5.0
 40
5.0
 40
6.0
 40
6.0
 40
6.0
 40
7.0
 40
7.0
 40
7.0
 40
8.0
 40
8.0
 40
8.0
 40
9.0
 40
9.0
 40
9.0
 40
9.0
 10
379.7890904057203
 20
383.6718903076326
 30
0.0
 10
379.4989999999998
 20
383.9599999999991
 30
0.0
 10
379.0995904231386
 20
384.1405902957922
 30
0.0
 10
378.6562904343373
 20
384.1405902957922
 30
0.0
 10
378.2138904455132
 20
384.1405902957922
 30
0.0
 10
377.8124904556535
 20
383.9599999999991
 30
0.0
 10
377.5233904629567
 20
383.6718903076326
 30
0.0
 10
377.2343904702575
 20
383.3808903149838
 30
0.0
 10
377.0546904747971
 20
382.9804903250988
 30
0.0
 10
377.0546904747971
 20
382.5380903362748
 30
0.0
 10
377.0546904747971
 20
382.0956903474507
 30
0.0
 10
377.2343904702575
 20
381.6952903575657
 30
0.0
 10
377.5233904629567
 20
381.404290364917
 30
0.0
 10
377.8124904556535
 20
381.116190372195
 30
0.0
 10
378.2138904455132
 20
380.9354903767598
 30
0.0
 10
378.6562904343373
 20
380.9354903767598
 30
0.0
 10
379.0995904231386
 20
380.9354903767598
 30
0.0
 10
379.4989999999998
 20
381.116190372195
 30
0.0
 10
379.7890904057203
 20
381.404290364917
 30
0.0
 10
380.0790903983943
 20
381.6952903575657
 30
0.0
 10
380.25779039388
 20
382.0956903474507
 30
0.0
 10
380.25779039388
 20
382.5380903362748
 30
0.0
 10
380.25779039388
 20
382.9804903250988
 30
0.0
 10
380.0790903983943
 20
383.3808903149838
 30
0.0
 10
379.7890904057203
 20
383.6718903076326
 30
0.0
 10
379.7890904057203
 20
383.6718903076326
 30
0.0
 10
379.7890904057203
 20
383.6718903076326
 30
0.0
 10
379.7890904057203
 20
383.6718903076326
 30
0.0
  0
POLYLINE
  5
90
330
4F
100
AcDbEntity
  8
Layer 1
370
     0
100
AcDb2dPolyline
 66
     1
 10
0.0
 20
0.0
 30
0.0
  0
VERTEX
  5
91
330
90
100
AcDbEntity
  8
Layer 1
370
     0
100
AcDbVertex
100
AcDb2dVertex
 10
390.4491901364236
 20
390.943390123939
 30
0.0
  0
VERTEX
  5
92
330
90
100
AcDbEntity
  8
Layer 1
370
     0
100
AcDbVertex
100
AcDb2dVertex
 10
390.5614901335866
 20
391.0272901218195
 30
0.0
  0
VERTEX
  5
93
330
90
100
AcDbEntity
  8
Layer 1
370
     0
100
AcDbVertex
100
AcDb2dVertex
 10
390.7323901292693
 20
391.0272901218195
 30
0.0
  0
VERTEX
  5
94
330
90
100
AcDbEntity
  8
Layer 1
370
     0
100
AcDbVertex
100
AcDb2dVertex
 10
390.7323901292693
 20
396.8770000000004
 30
0.0
  0
VERTEX
  5
95
330
90
100
AcDbEntity
  8
Layer 1
370
     0
100
AcDbVertex
100
AcDb2dVertex
 10
387.6933902060409
 20
396.8770000000004
 30
0.0
  0
VERTEX
  5
96
330
90
100
AcDbEntity
  8
Layer 1
370
     0
100
AcDbVertex
100
AcDb2dVertex
 10
387.0546902221759
 20
390.943390123939
 30
0.0
  0
VERTEX
  5
97
330
90
100
AcDbEntity
  8
Layer 1
370
     0
100
AcDbVertex
100
AcDb2dVertex
 10
390.4491901364236
 20
390.943390123939
 30
0.0
  0
SEQEND
  5
98
330
90
100
AcDbEntity
  8
Layer 1
370
     0
  0
HATCH
  5
99
330
4F
100
AcDbEntity
  8
Layer 1
 62
     7
100
AcDbHatch
 10
0.0
 20
0.0
 30
0.0
210
0.0
220
0.0
230
1.0
  2
SOLID
 70
     1
 71
     0
 91
       16
 92
        1
 93
        1
 72
     4
 94
        3
 73
     0
 74
     1
 95
      458
 96
      454
 40
0.0
 40
0.0
 40
0.0
 40
0.0
 40
1.0
 40
1.0
 40
1.0
 40
2.0
 40
2.0
 40
2.0
 40
3.0
 40
3.0
 40
3.0
 40
4.0
 40
4.0
 40
4.0
 40
5.0
 40
5.0
 40
5.0
 40
6.0
 40
6.0
 40
6.0
 40
7.0
 40
7.0
 40
7.0
 40
8.0
 40
8.0
 40
8.0
 40
9.0
 40
9.0
 40
9.0
 40
10.0
 40
10.0
 40
10.0
 40
11.0
 40
11.0
 40
11.0
 40
12.0
 40
12.0
 40
12.0
 40
13.0
 40
13.0
 40
13.0
 40
14.0
 40
14.0
 40
14.0
 40
15.0
 40
15.0
 40
15.0
 40
16.0
 40
16.0
 40
16.0
 40
17.0
 40
17.0
 40
17.0
 40
18.0
 40
18.0
 40
18.0
 40
19.0
 40
19.0
 40
19.0
 40
20.0
 40
20.0
 40
20.0
 40
21.0
 40
21.0
 40
21.0
 40
22.0
 40
22.0
 40
22.0
 40
23.0
 40
23.0
 40
23.0
 40
24.0
 40
24.0
 40
24.0
 40
25.0
 40
25.0
 40
25.0
 40
26.0
 40
26.0
 40
26.0
 40
27.0
 40
27.0
 40
27.0
 40
28.0
 40
28.0
 40
28.0
 40
29.0
 40
29.0
 40
29.0
 40
30.0
 40
30.0
 40
30.0
 40
31.0
 40
31.0
 40
31.0
 40
32.0
 40
32.0
 40
32.0
 40
33.0
 40
33.0
 40
33.0
 40
34.0
 40
34.0
 40
34.0
 40
35.0
 40
35.0
 40
35.0
 40
36.0
 40
36.0
 40
36.0
 40
37.0
 40
37.0
 40
37.0
 40
38.0
 40
38.0
 40
38.0
 40
39.0
 40
39.0
 40
39.0
 40
40.0
 40
40.0
 40
40.0
 40
41.0
 40
41.0
 40
41.0
 40
42.0
 40
42.0
 40
42.0
 40
43.0
 40
43.0
 40
43.0
 40
44.0
 40
44.0
 40
44.0
 40
45.0
 40
45.0
 40
45.0
 40
46.0
 40
46.0
 40
46.0
 40
47.0
 40
47.0
 40
47.0
 40
48.0
 40
48.0
 40
48.0
 40
49.0
 40
49.0
 40
49.0
 40
50.0
 40
50.0
 40
50.0
 40
51.0
 40
51.0
 40
51.0
 40
52.0
 40
52.0
 40
52.0
 40
53.0
 40
53.0
 40
53.0
 40
54.0
 40
54.0
 40
54.0
 40
55.0
 40
55.0
 40
55.0
 40
56.0
 40
56.0
 40
56.0
 40
57.0
 40
57.0
 40
57.0
 40
58.0
 40
58.0
 40
58.0
 40
59.0
 40
59.0
 40
59.0
 40
60.0
 40
60.0
 40
60.0
 40
61.0
 40
61.0
 40
61.0
 40
62.0
 40
62.0
 40
62.0
 40
63.0
 40
63.0
 40
63.0
 40
64.0
 40
64.0
 40
64.0
 40
65.0
 40
65.0
 40
65.0
 40
66.0
 40
66.0
 40
66.0
 40
67.0
 40
67.0
 40
67.0
 40
68.0
 40
68.0
 40
68.0
 40
69.0
 40
69.0
 40
69.0
 40
70.0
 40
70.0
 40
70.0
 40
71.0
 40
71.0
 40
71.0
 40
72.0
 40
72.0
 40
72.0
 40
73.0
 40
73.0
 40
73.0
 40
74.0
 40
74.0
 40
74.0
 40
75.0
 40
75.0
 40
75.0
 40
76.0
 40
76.0
 40
76.0
 40
77.0
 40
77.0
 40
77.0
 40
78.0
 40
78.0
 40
78.0
 40
79.0
 40
79.0
 40
79.0
 40
80.0
 40
80.0
 40
80.0
 40
81.0
 40
81.0
 40
81.0
 40
82.0
 40
82.0
 40
82.0
 40
83.0
 40
83.0
 40
83.0
 40
84.0
 40
84.0
 40
84.0
 40
85.0
 40
85.0
 40
85.0
 40
86.0
 40
86.0
 40
86.0
 40
87.0
 40
87.0
 40
87.0
 40
88.0
 40
88.0
 40
88.0
 40
89.0
 40
89.0
 40
89.0
 40
90.0
 40
90.0
 40
90.0
 40
91.0
 40
91.0
 40
91.0
 40
92.0
 40
92.0
 40
92.0
 40
93.0
 40
93.0
 40
93.0
 40
94.0
 40
94.0
 40
94.0
 40
95.0
 40
95.0
 40
95.0
 40
96.0
 40
96.0
 40
96.0
 40
97.0
 40
97.0
 40
97.0
 40
98.0
 40
98.0
 40
98.0
 40
99.0
 40
99.0
 40
99.0
 40
100.0
 40
100.0
 40
100.0
 40
101.0
 40
101.0
 40
101.0
 40
102.0
 40
102.0
 40
102.0
 40
103.0
 40
103.0
 40
103.0
 40
104.0
 40
104.0
 40
104.0
 40
105.0
 40
105.0
 40
105.0
 40
106.0
 40
106.0
 40
106.0
 40
107.0
 40
107.0
 40
107.0
 40
108.0
 40
108.0
 40
108.0
 40
109.0
 40
109.0
 40
109.0
 40
110.0
 40
110.0
 40
110.0
 40
111.0
 40
111.0
 40
111.0
 40
112.0
 40
112.0
 40
112.0
 40
113.0
 40
113.0
 40
113.0
 40
114.0
 40
114.0
 40
114.0
 40
115.0
 40
115.0
 40
115.0
 40
116.0
 40
116.0
 40
116.0
 40
117.0
 40
117.0
 40
117.0
 40
118.0
 40
118.0
 40
118.0
 40
119.0
 40
119.0
 40
119.0
 40
120.0
 40
120.0
 40
120.0
 40
121.0
 40
121.0
 40
121.0
 40
122.0
 40
122.0
 40
122.0
 40
123.0
 40
123.0
 40
123.0
 40
124.0
 40
124.0
 40
124.0
 40
125.0
 40
125.0
 40
125.0
 40
126.0
 40
126.0
 40
126.0
 40
127.0
 40
127.0
 40
127.0
 40
128.0
 40
128.0
 40
128.0
 40
129.0
 40
129.0
 40
129.0
 40
130.0
 40
130.0
 40
130.0
 40
131.0
 40
131.0
 40
131.0
 40
132.0
 40
132.0
 40
132.0
 40
133.0
 40
133.0
 40
133.0
 40
134.0
 40
134.0
 40
134.0
 40
135.0
 40
135.0
 40
135.0
 40
136.0
 40
136.0
 40
136.0
 40
137.0
 40
137.0
 40
137.0
 40
138.0
 40
138.0
 40
138.0
 40
139.0
 40
139.0
 40
139.0
 40
140.0
 40
140.0
 40
140.0
 40
141.0
 40
141.0
 40
141.0
 40
142.0
 40
142.0
 40
142.0
 40
143.0
 40
143.0
 40
143.0
 40
144.0
 40
144.0
 40
144.0
 40
145.0
 40
145.0
 40
145.0
 40
146.0
 40
146.0
 40
146.0
 40
147.0
 40
147.0
 40
147.0
 40
148.0
 40
148.0
 40
148.0
 40
149.0
 40
149.0
 40
149.0
 40
150.0
 40
150.0
 40
150.0
 40
151.0
 40
151.0
 40
151.0
 40
151.0
 10
377.5761904616229
 20
390.9296901242851
 10
377.5761904616229
 20
390.9296901242851
 10
386.5
 20
390.9296901242851
 10
386.5
 20
390.9296901242851
 10
386.5
 20
390.9296901242851
 10
387.1405902200058
 20
396.8770000000004
 10
387.1405902200058
 20
396.8770000000004
 10
387.1405902200058
 20
396.8770000000004
 10
386.7187902306614
 20
396.8770000000004
 10
386.7187902306614
 20
396.8770000000004
 10
386.7187902306614
 20
396.8770000000004
 10
386.7187902306614
 20
397.8310899499411
 10
386.7187902306614
 20
397.8310899499411
 10
386.7187902306614
 20
397.8310899499411
 10
390.1171901448106
 20
398.380889936052
 10
390.1171901448106
 20
398.380889936052
 10
390.1171901448106
 20
398.380889936052
 10
396.8340000000007
 20
398.380889936052
 10
396.8340000000007
 20
398.380889936052
 10
396.8340000000007
 20
398.380889936052
 10
397.1093899681728
 20
396.8770000000004
 10
397.1093899681728
 20
396.8770000000004
 10
397.1093899681728
 20
396.8770000000004
 10
396.8760000000002
 20
396.8770000000004
 10
396.8760000000002
 20
396.8770000000004
 10
396.8760000000002
 20
396.8770000000004
 10
396.9140899731065
 20
396.3446899874907
 10
396.9140899731065
 20
396.3446899874907
 10
396.9140899731065
 20
396.3446899874907
 10
397.0702899691605
 20
395.2362900154912
 10
397.0702899691605
 20
395.2362900154912
 10
397.0702899691605
 20
395.2362900154912
 10
399.2460899141952
 20
395.8886899990102
 10
399.2460899141952
 20
395.8886899990102
 10
399.2460899141952
 20
395.8886899990102
 10
402.5155898316007
 20
398.0995899431582
 10
402.5155898316007
 20
398.0995899431582
 10
402.8603898228903
 20
398.2011899405916
 10
403.2548898129244
 20
398.2450899394826
 10
403.6952898017989
 20
398.2343899397529
 10
403.6952898017989
 20
398.2343899397529
 10
403.9267897959508
 20
398.8847899233224
 10
403.9267897959508
 20
398.8847899233224
 10
403.9267897959508
 20
398.8847899233224
 10
405.228489763067
 20
398.6933899281576
 10
405.228489763067
 20
398.6933899281576
 10
405.228489763067
 20
398.6933899281576
 10
405.3046897611421
 20
398.375
 10
405.3046897611421
 20
398.375
 10
405.3046897611421
 20
398.375
 10
405.3710897594647
 20
398.8046899253459
 10
405.3710897594647
 20
398.8046899253459
 10
405.3710897594647
 20
398.8046899253459
 10
409.1366896643376
 20
398.2167899401975
 10
409.1366896643376
 20
398.2167899401975
 10
409.1366896643376
 20
398.2167899401975
 10
409.112289664954
 20
398.0565899442445
 10
409.112289664954
 20
398.0565899442445
 10
409.112289664954
 20
398.0565899442445
 10
411.4101896069042
 20
397.6972899533212
 10
411.4101896069042
 20
397.6972899533212
 10
411.4101896069042
 20
397.6972899533212
 10
411.4979999999996
 20
398.0995899431582
 10
411.4979999999996
 20
398.0995899431582
 10
411.4979999999996
 20
398.0995899431582
 10
412.3222895838626
 20
397.7520000000004
 10
412.3222895838626
 20
397.7520000000004
 10
412.3222895838626
 20
397.7520000000004
 10
413.875
 20
397.2070000000003
 10
413.875
 20
397.2070000000003
 10
413.875
 20
397.2070000000003
 10
413.2460895605254
 20
395.0020000000004
 10
413.2460895605254
 20
395.0020000000004
 10
413.2460895605254
 20
395.0020000000004
 10
412.8534895704433
 20
394.9570000000003
 10
412.8534895704433
 20
394.9570000000003
 10
412.8534895704433
 20
394.9570000000003
 10
411.9940895921536
 20
391.487290110199
 10
411.9940895921536
 20
391.487290110199
 10
411.9940895921536
 20
391.487290110199
 10
411.8368895961248
 20
391.5253901092365
 10
411.8368895961248
 20
391.5253901092365
 10
411.8368895961248
 20
391.5253901092365
 10
411.3007896096678
 20
389.3671901637572
 10
411.3007896096678
 20
389.3671901637572
 10
411.3007896096678
 20
389.3671901637572
 10
412.3007895844057
 20
388.7070000000003
 10
412.3007895844057
 20
388.7070000000003
 10
412.3007895844057
 20
388.7070000000003
 10
412.4940895795226
 20
388.5780901836915
 10
412.4940895795226
 20
388.5780901836915
 10
412.4940895795226
 20
388.5780901836915
 10
412.425789581248
 20
388.3573901892669
 10
412.425789581248
 20
388.3573901892669
 10
412.425789581248
 20
388.3573901892669
 10
412.0010000000002
 20
386.9745902241993
 10
412.0010000000002
 20
386.9745902241993
 10
412.0010000000002
 20
386.9745902241993
 10
411.9394895935329
 20
386.7753902292316
 10
411.9394895935329
 20
386.7753902292316
 10
411.9394895935329
 20
386.7753902292316
 10
411.7333895987394
 20
386.7577902296762
 10
411.7333895987394
 20
386.7577902296762
 10
411.7333895987394
 20
386.7577902296762
 10
409.9159999999993
 20
386.5897902339202
 10
409.9159999999993
 20
386.5897902339202
 10
409.9159999999993
 20
386.5897902339202
 10
409.2929999999997
 20
384.5351902858238
 10
409.2929999999997
 20
384.5351902858238
 10
408.2714896861944
 20
383.9570000000003
 10
407.2479999999996
 20
384.0360902984321
 10
406.2265897378529
 20
384.6991902816808
 10
406.2265897378529
 20
384.6991902816808
 10
403.9452897954834
 20
388.181590193708
 10
403.9452897954834
 20
388.181590193708
 10
403.9452897954834
 20
388.181590193708
 10
403.5976898042645
 20
387.977490198864
 10
403.5976898042645
 20
387.977490198864
 10
403.5976898042645
 20
387.977490198864
 10
402.5155898316007
 20
389.8261901521619
 10
402.5155898316007
 20
389.8261901521619
 10
402.5155898316007
 20
389.8261901521619
 10
402.8183898239513
 20
390.1270000000004
 10
402.8183898239513
 20
390.1270000000004
 10
402.8183898239513
 20
390.1270000000004
 10
403.6601898026856
 20
388.9833901734528
 10
403.6601898026856
 20
388.9833901734528
 10
403.6601898026856
 20
388.9833901734528
 10
404.0360897931896
 20
389.2099999999991
 10
404.0360897931896
 20
389.2099999999991
 10
405.4296897579843
 20
388.0907901960018
 10
406.9590000000007
 20
387.7812902038204
 10
408.7187896748947
 20
388.8534901767343
 10
408.7187896748947
 20
388.8534901767343
 10
409.4403896566655
 20
388.7548901792252
 10
409.4403896566655
 20
388.7548901792252
 10
409.4403896566655
 20
388.7548901792252
 10
411.0370896163295
 20
396.0
 10
411.0370896163295
 20
396.0
 10
411.0370896163295
 20
396.0
 10
404.7616897748594
 20
396.3163899882056
 10
404.7616897748594
 20
396.3163899882056
 10
403.9989999999998
 20
396.2606899896127
 10
403.3144898114188
 20
395.935489997828
 10
402.6796898274551
 20
395.4403900103352
 10
402.6796898274551
 20
395.4403900103352
 10
401.8964898472404
 20
394.7909999999993
 10
401.8964898472404
 20
394.7909999999993
 10
401.8964898472404
 20
394.7909999999993
 10
400.6581898785225
 20
390.4960901352388
 10
400.6581898785225
 20
390.4960901352388
 10
400.6581898785225
 20
390.4960901352388
 10
400.9687898706761
 20
390.4159999999993
 10
400.9687898706761
 20
390.4159999999993
 10
400.9687898706761
 20
390.4159999999993
 10
400.0927898928057
 20
387.2655902168481
 10
400.0927898928057
 20
387.2655902168481
 10
400.0927898928057
 20
387.2655902168481
 10
400.1640898910046
 20
386.9979999999996
 10
400.1640898910046
 20
386.9979999999996
 10
400.1640898910046
 20
386.9979999999996
 10
400.005889895001
 20
386.955090224692
 10
400.005889895001
 20
386.955090224692
 10
400.005889895001
 20
386.955090224692
 10
399.9970898952233
 20
386.9237902254827
 10
399.9970898952233
 20
386.9237902254827
 10
399.9970898952233
 20
386.9237902254827
 10
399.8563898987777
 20
386.9150000000009
 10
399.8563898987777
 20
386.9150000000009
 10
399.8563898987777
 20
386.9150000000009
 10
398.8340000000007
 20
386.6415902326116
 10
398.8340000000007
 20
386.6415902326116
 10
398.9081899227313
 20
386.4306902379394
 10
398.9706899211524
 20
386.2128902434415
 10
399.0194899199196
 20
385.9911902490421
 10
399.0194899199196
 20
385.9911902490421
 10
399.0741899185377
 20
386.0761902468948
 10
399.0741899185377
 20
386.0761902468948
 10
399.1718899160696
 20
386.0897902465513
 10
399.2724899135283
 20
386.1034902462052
 10
399.3720899110122
 20
386.1190902458111
 10
399.4267899096303
 20
385.5312902606602
 10
399.3690899110879
 20
385.0233902734908
 10
399.1835899157741
 20
384.6083902839746
 10
399.1835899157741
 20
384.6083902839746
 10
399.1425899168098
 20
384.5985902842222
 10
399.1425899168098
 20
384.5985902842222
 10
399.125
 20
384.085890297174
 10
399.037089919475
 20
383.5917903096561
 10
398.8886899232239
 20
383.125
 10
398.8886899232239
 20
383.125
 10
398.9784899209553
 20
383.1698903203142
 10
398.9784899209553
 20
383.1698903203142
 10
399.0722899185857
 20
383.1327903212514
 10
399.1650000000009
 20
383.0946903222139
 10
399.2577899138996
 20
383.0575903231511
 10
399.0116899201166
 20
382.5204903367194
 10
398.7090000000007
 20
382.1112903470566
 10
398.338889937113
 20
381.8456903537663
 10
398.338889937113
 20
381.8456903537663
 10
398.3007899380755
 20
381.8554903535187
 10
398.3007899380755
 20
381.8554903535187
 10
398.0780899437013
 20
381.5020000000004
 10
397.8163899503124
 20
381.1737903707399
 10
397.5233899577142
 20
380.8808903781392
 10
397.4628899592426
 20
380.8212903796448
 10
397.4022899607735
 20
380.7626903811251
 10
397.3417899623018
 20
380.706090382555
 10
397.3417899623018
 20
380.706090382555
 10
397.4433899597352
 20
380.7011903826788
 10
397.4433899597352
 20
380.7011903826788
 10
397.5048899581816
 20
380.622090384677
 10
397.566389956628
 20
380.5429999999997
 10
397.6288899550491
 20
380.4628903886987
 10
397.1474899672103
 20
380.1210903973333
 10
396.6796899790279
 20
379.9188904024413
 10
396.2265899904742
 20
379.8729999999996
 10
396.2265899904742
 20
379.8729999999996
 10
396.1991899911663
 20
379.9003904029087
 10
396.1991899911663
 20
379.9003904029087
 10
395.7616900022185
 20
379.6698904087316
 10
395.2909999999993
 20
379.4940904131727
 10
394.794890026642
 20
379.3847904159338
 10
394.794890026642
 20
379.3847904159338
 10
394.8778900245452
 20
379.3300904173157
 10
394.8778900245452
 20
379.3300904173157
 10
394.8925900241738
 20
379.2304904198318
 10
394.907190023805
 20
379.1308904223479
 10
394.9218900234337
 20
379.0321904248412
 10
394.3340000000007
 20
378.9765904262458
 10
393.8261900511134
 20
379.0351904247655
 10
393.4120900615744
 20
379.2206904200793
 10
393.4120900615744
 20
379.2206904200793
 10
393.4013900618447
 20
379.2606904190689
 10
393.4013900618447
 20
379.2606904190689
 10
392.8886900747966
 20
379.279290418599
 10
392.3944900872812
 20
379.3671904163784
 10
391.9276900990735
 20
379.5145904126548
 10
391.9276900990735
 20
379.5145904126548
 10
391.9726900979367
 20
379.4257904148981
 10
391.9726900979367
 20
379.4257904148981
 10
391.9345900988992
 20
379.3320000000003
 10
391.8983900998137
 20
379.2382904196347
 10
391.8612901007509
 20
379.1444904220043
 10
391.3231901143445
 20
379.3925904157368
 10
390.9120901247297
 20
379.6952904080899
 10
390.6464901314394
 20
380.0653903987404
 10
390.6464901314394
 20
380.0653903987404
 10
390.6581901311438
 20
380.1034903977779
 10
390.6581901311438
 20
380.1034903977779
 10
390.3046901400739
 20
380.3261903921521
 10
389.9765901483624
 20
380.5868903855662
 10
389.6835901557643
 20
380.8808903781392
 10
389.6239999999998
 20
380.9394903766588
 10
389.566390158725
 20
381.0010000000002
 10
389.5097901601548
 20
381.0624903735516
 10
389.5097901601548
 20
381.0624903735516
 10
389.5038901603039
 20
380.9608903761182
 10
389.5038901603039
 20
380.9608903761182
 10
389.4247901623021
 20
380.8983903776971
 10
389.3456901643003
 20
380.8368903792507
 10
389.2665901662986
 20
380.7753903808043
 10
388.9237901749584
 20
381.2567903686431
 10
388.7206901800892
 20
381.7245903568255
 10
388.6757901812234
 20
382.1757903454272
 10
388.6757901812234
 20
382.1757903454272
 10
388.7040901805085
 20
382.2050903446871
 10
388.7040901805085
 20
382.2050903446871
 10
388.4706901864047
 20
382.6415903336601
 10
388.2968901907952
 20
383.113290321744
 10
388.1874901935589
 20
383.6093903092114
 10
388.1874901935589
 20
383.6093903092114
 10
388.1327901949408
 20
383.5253903113335
 10
388.1327901949408
 20
383.5253903113335
 10
388.0331901974569
 20
383.5106903117048
 10
387.9345901999477
 20
383.4960903120736
 10
387.8340000000007
 20
383.4823903124197
 10
387.8183902028832
 20
383.6571903080039
 10
387.8124902030322
 20
383.8261903037346
 10
387.815390202959
 20
383.9862902996902
 10
387.815390202959
 20
383.9862902996902
 10
386.7333902302926
 20
383.9862902996902
 10
386.7333902302926
 20
383.9862902996902
 10
386.7333902302926
 20
383.9862902996902
 10
382.9940903247552
 20
383.9862902996902
 10
382.9940903247552
 20
383.9862902996902
 10
382.9940903247552
 20
383.9862902996902
 10
382.9940903247552
 20
383.1386903211023
 10
382.9940903247552
 20
383.1386903211023
 10
382.9940903247552
 20
383.1386903211023
 10
381.854490353544
 20
383.1386903211023
 10
381.854490353544
 20
383.1386903211023
 10
381.890590352632
 20
382.943390326036
 10
381.9101903521369
 20
382.7440903310708
 10
381.9101903521369
 20
382.5380903362748
 10
381.9101903521369
 20
382.4384903387909
 10
381.9052903522606
 20
382.3417903412337
 10
381.8964903524829
 20
382.2450903436766
 10
381.8964903524829
 20
382.2450903436766
 10
382.0097903496207
 20
382.3397903412842
 10
382.0097903496207
 20
382.3397903412842
 10
382.0663903481909
 20
382.3300903415293
 10
382.1220903467838
 20
382.3222903417263
 10
382.1776903453792
 20
382.3124903419739
 10
382.1093903471046
 20
381.9882903501639
 10
381.9950903499921
 20
381.726590356775
 10
381.8261903542589
 20
381.5351903616101
 10
381.8261903542589
 20
381.5351903616101
 10
381.7538903560853
 20
381.5390903615116
 10
381.7538903560853
 20
381.5390903615116
 10
381.6513903586747
 20
381.2226903695046
 10
381.5038903624009
 20
380.9296903769064
 10
381.3163903671375
 20
380.664090383616
 10
381.3163903671375
 20
380.664090383616
 10
381.4608903634871
 20
380.6894903829743
 10
381.4608903634871
 20
380.6894903829743
 10
381.5058903623503
 20
380.6532903838888
 10
381.5487903612666
 20
380.6181903847755
 10
381.5937903601298
 20
380.5830000000005
 10
381.3729999999996
 20
380.335890391907
 10
381.1425903715281
 20
380.1659999999993
 10
380.9003903776465
 20
380.0840000000007
 10
380.9003903776465
 20
380.0840000000007
 10
380.8368903792507
 20
380.125
 10
380.8368903792507
 20
380.125
 10
380.5956903853439
 20
379.9062904027596
 10
380.3222903922506
 20
379.7245904073498
 10
380.0233903998014
 20
379.5849999999991
 10
380.0233903998014
 20
379.5849999999991
 10
380.1620903962976
 20
379.5341904121597
 10
380.1620903962976
 20
379.5341904121597
 10
380.181590395805
 20
379.4813904134935
 10
380.2011903953098
 20
379.4286904148248
 10
380.2216903947919
 20
379.3760000000002
 10
379.9062904027596
 20
379.273390418748
 10
379.6229999999996
 20
379.2401904195867
 10
379.3729999999996
 20
379.2909999999993
 10
379.3729999999996
 20
379.2909999999993
 10
379.3388904170934
 20
379.3563904166513
 10
379.3388904170934
 20
379.3563904166513
 10
379.1181904226687
 20
379.3104904178108
 10
378.8905904284184
 20
379.2851904184499
 10
378.6562904343373
 20
379.2851904184499
 10
378.5585904368054
 20
379.2851904184499
 10
378.4590000000007
 20
379.2890904183514
 10
378.3632904417391
 20
379.2987904181064
 10
378.3632904417391
 20
379.2987904181064
 10
378.4580000000005
 20
379.1835904210166
 10
378.4580000000005
 20
379.1835904210166
 10
378.4491904395691
 20
379.1288904223984
 10
378.4403904397914
 20
379.0722904238282
 10
378.4315904400137
 20
379.0175904252101
 10
378.1063904482289
 20
379.0849999999991
 10
377.8437904548628
 20
379.1991904206225
 10
377.6522904597005
 20
379.3690904163304
 10
377.6522904597005
 20
379.3690904163304
 10
377.6562904595994
 20
379.441390414504
 10
377.6562904595994
 20
379.441390414504
 10
377.3417904675443
 20
379.5429999999997
 10
377.0478904749689
 20
379.6913904081885
 10
376.7831904816558
 20
379.8788904034518
 10
376.7831904816558
 20
379.8788904034518
 10
376.8085904810141
 20
379.7323904071527
 10
376.8085904810141
 20
379.7323904071527
 10
376.7714904819513
 20
379.6894904082365
 10
376.7362904828406
 20
379.6444904093732
 10
376.7011904837273
 20
379.601590410457
 10
376.4530904899948
 20
379.8222904048816
 10
376.2841904942616
 20
380.0526903990612
 10
376.2030904963103
 20
380.293890392968
 10
376.2030904963103
 20
380.293890392968
 10
376.2421904953226
 20
380.3573903913639
 10
376.2421904953226
 20
380.3573903913639
 10
376.0253905007994
 20
380.5976903852934
 10
375.8417905054375
 20
380.8720903783615
 10
375.7030905089414
 20
381.1718903707879
 10
375.7030905089414
 20
381.1718903707879
 10
375.6522905102247
 20
381.0331903742917
 10
375.6522905102247
 20
381.0331903742917
 10
375.599590511556
 20
381.0126903748096
 10
375.5468905128873
 20
380.9921903753275
 10
375.4940905142212
 20
380.9726903758201
 10
375.3905905168358
 20
381.2870903678777
 10
375.359390517624
 20
381.5722903606729
 10
375.4101905163407
 20
381.8222903543574
 10
375.4101905163407
 20
381.8222903543574
 10
375.4745905147138
 20
381.8554903535187
 10
375.4745905147138
 20
381.8554903535187
 10
375.4276905158986
 20
382.0761903479433
 10
375.4022905165402
 20
382.3026903422215
 10
375.4022905165402
 20
382.5380903362748
 10
375.4022905165402
 20
382.6366903337839
 10
375.4081905163912
 20
382.7343903313158
 10
375.4159999999993
 20
382.8300903288982
 10
375.4159999999993
 20
382.8300903288982
 10
375.3026905190563
 20
382.7362903312678
 10
375.3026905190563
 20
382.7362903312678
 10
375.2460905204862
 20
382.7460903310202
 10
375.191390521868
 20
382.7538903308232
 10
375.1347905232979
 20
382.7636903305756
 10
375.2030905215724
 20
383.0878903223856
 10
375.3183905186597
 20
383.3495903157745
 10
375.4862905144182
 20
383.5409999999993
 10
375.4862905144182
 20
383.5409999999993
 10
375.5595905125665
 20
383.5370903110379
 10
375.5595905125665
 20
383.5370903110379
 10
375.6601905100251
 20
383.853490303045
 10
375.809590506251
 20
384.1474902956179
 10
375.9970905015143
 20
384.4120902889335
 10
375.9970905015143
 20
384.4120902889335
 10
375.8505905052152
 20
384.3866902895752
 10
375.8505905052152
 20
384.3866902895752
 10
375.8065905063268
 20
384.4228902886607
 10
375.7626905074358
 20
384.4570000000003
 10
375.7187905085448
 20
384.494090286862
 10
375.9413905029214
 20
384.740190280645
 10
376.1718904970985
 20
384.9101902763505
 10
376.4130904910053
 20
384.992190274279
 10
376.4130904910053
 20
384.992190274279
 10
376.4745904894517
 20
384.9511902753147
 10
376.4745904894517
 20
384.9511902753147
 10
376.7157904833584
 20
385.1698902697899
 10
376.9901904764265
 20
385.352490265177
 10
377.2890904688757
 20
385.4911902616732
 10
377.2890904688757
 20
385.4911902616732
 10
377.1513904723543
 20
385.5429999999997
 10
377.1513904723543
 20
385.5429999999997
 10
377.1308904728721
 20
385.5946902590586
 10
377.11039047339
 20
385.6474902577247
 10
377.0897904739104
 20
385.7001902563934
 10
377.3573904671503
 20
385.7880902541729
 10
377.6034904609332
 20
385.8241902532609
 10
377.8241904553579
 20
385.802690253804
 10
377.8241904553579
 20
385.802690253804
 10
377.1708904718616
 20
389.2255901673343
 10
377.1708904718616
 20
389.2255901673343
 10
377.1708904718616
 20
389.2255901673343
 10
377.1620904720839
 20
389.2675901662733
 10
377.1620904720839
 20
389.2675901662733
 10
377.1620904720839
 20
389.2675901662733
 10
377.1620904720839
 20
389.3026901653866
 10
377.1620904720839
 20
389.3026901653866
 10
377.1620904720839
 20
389.3026901653866
 10
377.1620904720839
 20
390.5155901347462
 10
377.1620904720839
 20
390.5155901347462
 10
377.1620904720839
 20
390.5155901347462
 10
377.1620904720839
 20
390.9296901242851
 10
377.1620904720839
 20
390.9296901242851
 10
377.1620904720839
 20
390.9296901242851
 10
377.5761904616229
 20
390.9296901242851
 10
377.5761904616229
 20
390.9296901242851
 10
377.5761904616229
 20
390.9296901242851
 10
377.5761904616229
 20
390.9296901242851
 10
377.5761904616229
 20
390.9296901242851
 97
        0
 92
        1
 93
        4
 72
     1
 10
395.3280900131722
 20
391.0272901218195
 11
395.3280900131722
 21
396.8770000000004
 72
     1
 10
395.3280900131722
 20
396.8770000000004
 11
391.5585901083978
 21
396.8770000000004
 72
     1
 10
391.5585901083978
 20
396.8770000000004
 11
391.5585901083978
 21
391.0272901218195
 72
     1
 10
391.5585901083978
 20
391.0272901218195
 11
395.3280900131722
 21
391.0272901218195
 97
        0
 92
        1
 93
       11
 72
     1
 10
399.4823899082257
 20
392.7900000000009
 11
399.5194899072885
 21
392.3065900895017
 72
     1
 10
399.5194899072885
 20
392.3065900895017
 11
398.544889931909
 21
390.6913901303051
 72
     1
 10
398.544889931909
 20
390.6913901303051
 11
398.7753899260861
 21
389.3651901638077
 72
     1
 10
398.7753899260861
 20
389.3651901638077
 11
398.8261899248027
 21
389.3261901647929
 72
     1
 10
398.8261899248027
 20
389.3261901647929
 11
398.7909999999993
 21
389.2900000000009
 72
     1
 10
398.7909999999993
 20
389.2900000000009
 11
399.0048899202884
 21
388.2948901908458
 72
     1
 10
399.0048899202884
 20
388.2948901908458
 11
399.0683899186843
 21
388.2792901912399
 72
     1
 10
399.0683899186843
 20
388.2792901912399
 11
399.75
 21
390.7304901293173
 72
     1
 10
399.75
 20
390.7304901293173
 11
400.0585898936697
 21
390.6513901313156
 72
     1
 10
400.0585898936697
 20
390.6513901313156
 11
401.0517898685794
 21
394.090790044429
 72
     1
 10
401.0517898685794
 20
394.090790044429
 11
399.4823899082257
 21
392.7900000000009
 97
        0
 92
        1
 93
        6
 72
     1
 10
411.0175896168221
 20
389.5020000000004
 11
411.5360896037237
 21
391.599590107362
 72
     1
 10
411.5360896037237
 20
391.599590107362
 11
411.3925896073488
 21
391.6347901064728
 72
     1
 10
411.3925896073488
 20
391.6347901064728
 11
412.1972895870204
 21
394.8808900244694
 72
     1
 10
412.1972895870204
 20
394.8808900244694
 11
412.01758959156
 21
394.8593900250125
 72
     1
 10
412.01758959156
 20
394.8593900250125
 11
410.3563896335254
 21
389.6659999999993
 72
     1
 10
410.3563896335254
 20
389.6659999999993
 11
411.0175896168221
 21
389.5020000000004
 97
        0
 92
        1
 93
        7
 72
     1
 10
410.1659999999993
 20
389.0761901711085
 11
410.0390896415411
 21
388.6737901812739
 72
     1
 10
410.0390896415411
 20
388.6737901812739
 11
410.5253896292561
 21
388.6073901829513
 72
     1
 10
410.5253896292561
 20
388.6073901829513
 11
410.1093896397651
 21
387.2284902177853
 72
     1
 10
410.1093896397651
 20
387.2284902177853
 11
411.4706896053758
 21
387.3534902146275
 72
     1
 10
411.4706896053758
 20
387.3534902146275
 11
411.765589597926
 21
388.3173901902774
 72
     1
 10
411.765589597926
 20
388.3173901902774
 11
410.8886896200784
 21
388.8964901756481
 72
     1
 10
410.8886896200784
 20
388.8964901756481
 11
410.1659999999993
 21
389.0761901711085
 97
        0
 92
        1
 93
        6
 72
     1
 10
405.3505897599825
 20
398.1815899410867
 11
405.3876897590453
 21
398.0263899450074
 72
     1
 10
405.3876897590453
 20
398.0263899450074
 11
411.3007896096678
 21
397.2050899657552
 72
     1
 10
411.3007896096678
 20
397.2050899657552
 11
411.3437896085816
 21
397.3935899609933
 72
     1
 10
411.3437896085816
 20
397.3935899609933
 11
409.0644896661615
 21
397.75
 72
     1
 10
409.0644896661615
 20
397.75
 11
409.0419999999995
 21
397.6054899556402
 72
     1
 10
409.0419999999995
 20
397.6054899556402
 11
405.3505897599825
 21
398.1815899410867
 97
        0
 92
        1
 93
        1
 72
     4
 94
        3
 73
     0
 74
     1
 95
       14
 96
       10
 40
0.0
 40
0.0
 40
0.0
 40
0.0
 40
1.0
 40
1.0
 40
1.0
 40
2.0
 40
2.0
 40
2.0
 40
3.0
 40
3.0
 40
3.0
 40
3.0
 10
412.3222895838626
 20
397.7520000000004
 10
412.3222895838626
 20
397.7520000000004
 10
412.3222895838626
 20
397.7520000000004
 10
412.3222895838626
 20
397.7520000000004
 10
412.3222895838626
 20
397.7520000000004
 10
412.3222895838626
 20
397.7520000000004
 10
412.3222895838626
 20
397.7520000000004
 10
412.3222895838626
 20
397.7520000000004
 10
412.3222895838626
 20
397.7520000000004
 10
412.3222895838626
 20
397.7520000000004
 97
        0
 92
        1
 93
        1
 72
     4
 94
        3
 73
     0
 74
     1
 95
       32
 96
       28
 40
0.0
 40
0.0
 40
0.0
 40
0.0
 40
1.0
 40
1.0
 40
1.0
 40
2.0
 40
2.0
 40
2.0
 40
3.0
 40
3.0
 40
3.0
 40
4.0
 40
4.0
 40
4.0
 40
5.0
 40
5.0
 40
5.0
 40
6.0
 40
6.0
 40
6.0
 40
7.0
 40
7.0
 40
7.0
 40
8.0
 40
8.0
 40
8.0
 40
9.0
 40
9.0
 40
9.0
 40
9.0
 10
393.6034900567392
 20
387.5331902100879
 10
392.8476900758324
 20
387.5331902100879
 10
392.1659999999993
 20
387.2265902178333
 10
391.6708901055608
 20
386.7323902303178
 10
391.1757901180681
 20
386.2382902427998
 10
390.8700901257907
 20
385.554690260069
 10
390.8700901257907
 20
384.8007902791142
 10
390.8700901257907
 20
384.0448902982098
 10
391.1757901180681
 20
383.3622903154537
 10
391.6708901055608
 20
382.867190327961
 10
392.1659999999993
 20
382.3729999999996
 10
392.8476900758324
 20
382.0673903481656
 10
393.6034900567392
 20
382.0673903481656
 10
394.3573900376941
 20
382.0673903481656
 10
395.0409999999993
 20
382.3729999999996
 10
395.5360900079177
 20
382.867190327961
 10
396.0292899954584
 20
383.3622903154537
 10
396.3368899876878
 20
384.0448902982098
 10
396.3368899876878
 20
384.8007902791142
 10
396.3368899876878
 20
385.554690260069
 10
396.0292899954584
 20
386.2382902427998
 10
395.5360900079177
 20
386.7323902303178
 10
395.0409999999993
 20
387.2265902178333
 10
394.3573900376941
 20
387.5331902100879
 10
393.6034900567392
 20
387.5331902100879
 10
393.6034900567392
 20
387.5331902100879
 10
393.6034900567392
 20
387.5331902100879
 10
393.6034900567392
 20
387.5331902100879
 97
        0
 92
        1
 93
        1
 72
     4
 94
        3
 73
     0
 74
     1
 95
       32
 96
       28
 40
0.0
 40
0.0
 40
0.0
 40
0.0
 40
1.0
 40
1.0
 40
1.0
 40
2.0
 40
2.0
 40
2.0
 40
3.0
 40
3.0
 40
3.0
 40
4.0
 40
4.0
 40
4.0
 40
5.0
 40
5.0
 40
5.0
 40
6.0
 40
6.0
 40
6.0
 40
7.0
 40
7.0
 40
7.0
 40
8.0
 40
8.0
 40
8.0
 40
9.0
 40
9.0
 40
9.0
 40
9.0
 10
395.2226900158348
 20
386.4198902382122
 10
394.8085900262959
 20
386.8340000000007
 10
394.2353900407761
 20
387.0897902212891
 10
393.6034900567392
 20
387.0897902212891
 10
392.9706900727251
 20
387.0897902212891
 10
392.3983900871826
 20
386.8340000000007
 10
391.9843900976412
 20
386.4198902382122
 10
391.5702901081022
 20
386.004890248696
 10
391.3124901146148
 20
385.4315902631788
 10
391.3124901146148
 20
384.8007902791142
 10
391.3124901146148
 20
384.1688902950773
 10
391.5702901081022
 20
383.5956903095575
 10
391.9843900976412
 20
383.1815903200186
 10
392.3983900871826
 20
382.7675903304771
 10
392.9706900727251
 20
382.5097903369897
 10
393.6034900567392
 20
382.5097903369897
 10
394.2353900407761
 20
382.5097903369897
 10
394.8085900262959
 20
382.7675903304771
 10
395.2226900158348
 20
383.1815903200186
 10
395.6366900053763
 20
383.5956903095575
 10
395.8925899989117
 20
384.1688902950773
 10
395.8925899989117
 20
384.8007902791142
 10
395.8925899989117
 20
385.4315902631788
 10
395.6366900053763
 20
386.004890248696
 10
395.2226900158348
 20
386.4198902382122
 10
395.2226900158348
 20
386.4198902382122
 10
395.2226900158348
 20
386.4198902382122
 10
395.2226900158348
 20
386.4198902382122
 97
        0
 92
        1
 93
        1
 72
     4
 94
        3
 73
     0
 74
     1
 95
       59
 96
       55
 40
0.0
 40
0.0
 40
0.0
 40
0.0
 40
1.0
 40
1.0
 40
1.0
 40
2.0
 40
2.0
 40
2.0
 40
3.0
 40
3.0
 40
3.0
 40
4.0
 40
4.0
 40
4.0
 40
5.0
 40
5.0
 40
5.0
 40
6.0
 40
6.0
 40
6.0
 40
7.0
 40
7.0
 40
7.0
 40
8.0
 40
8.0
 40
8.0
 40
9.0
 40
9.0
 40
9.0
 40
10.0
 40
10.0
 40
10.0
 40
11.0
 40
11.0
 40
11.0
 40
12.0
 40
12.0
 40
12.0
 40
13.0
 40
13.0
 40
13.0
 40
14.0
 40
14.0
 40
14.0
 40
15.0
 40
15.0
 40
15.0
 40
16.0
 40
16.0
 40
16.0
 40
17.0
 40
17.0
 40
17.0
 40
18.0
 40
18.0
 40
18.0
 40
18.0
 10
391.2206901169338
 20
389.806590152657
 10
391.2206901169338
 20
389.806590152657
 10
391.2206901169338
 20
390.0683901460434
 10
391.2206901169338
 20
390.0683901460434
 10
391.2206901169338
 20
390.0683901460434
 10
390.264590141087
 20
390.0683901460434
 10
390.264590141087
 20
390.0683901460434
 10
390.264590141087
 20
390.0683901460434
 10
388.6991901806323
 20
388.9403901745391
 10
388.6991901806323
 20
388.9403901745391
 10
388.6991901806323
 20
388.9403901745391
 10
388.3144901903506
 20
389.3261901647929
 10
388.3144901903506
 20
389.3261901647929
 10
388.3144901903506
 20
389.3261901647929
 10
389.2929999999997
 20
390.0683901460434
 10
389.2929999999997
 20
390.0683901460434
 10
389.2929999999997
 20
390.0683901460434
 10
387.517590210482
 20
390.0683901460434
 10
387.517590210482
 20
390.0683901460434
 10
387.517590210482
 20
390.0683901460434
 10
387.517590210482
 20
387.5683902091987
 10
387.517590210482
 20
387.5683902091987
 10
387.517590210482
 20
387.5683902091987
 10
388.6425901820621
 20
387.5683902091987
 10
388.6425901820621
 20
387.5683902091987
 10
388.7147901802382
 20
387.6366902074733
 10
388.7890901783612
 20
387.6991902058944
 10
388.8671901763882
 20
387.755890204462
 10
388.8671901763882
 20
387.755890204462
 10
388.9062901754005
 20
387.7460902047096
 10
388.9062901754005
 20
387.7460902047096
 10
389.1288901697772
 20
388.0985901958047
 10
389.3895901631913
 20
388.425790187539
 10
389.6835901557643
 20
388.7206901800892
 10
389.7421901542839
 20
388.7792901786088
 10
389.8036901527303
 20
388.8378901771284
 10
389.8651901511766
 20
388.8944901756986
 10
389.8651901511766
 20
388.8944901756986
 10
389.7636901537408
 20
388.9003901755495
 10
389.7636901537408
 20
388.9003901755495
 10
389.7011901553196
 20
388.9784901735766
 10
389.6386901568985
 20
389.0575901715783
 10
389.5761901584774
 20
389.1376901695548
 10
390.0595901462657
 20
389.4794901609202
 10
390.5272901344506
 20
389.6815901558148
 10
390.9794901230271
 20
389.72849015463
 10
390.9794901230271
 20
389.72849015463
 10
391.0077901223121
 20
389.6991901553702
 10
391.0077901223121
 20
389.6991901553702
 10
391.0780901205362
 20
389.7362901544329
 10
391.1483901187603
 20
389.7733901534957
 10
391.2206901169338
 20
389.806590152657
 10
391.2206901169338
 20
389.806590152657
 10
391.2206901169338
 20
389.806590152657
 10
391.2206901169338
 20
389.806590152657
 97
        0
 92
        1
 93
        1
 72
     4
 94
        3
 73
     0
 74
     1
 95
       32
 96
       28
 40
0.0
 40
0.0
 40
0.0
 40
0.0
 40
1.0
 40
1.0
 40
1.0
 40
2.0
 40
2.0
 40
2.0
 40
3.0
 40
3.0
 40
3.0
 40
4.0
 40
4.0
 40
4.0
 40
5.0
 40
5.0
 40
5.0
 40
6.0
 40
6.0
 40
6.0
 40
7.0
 40
7.0
 40
7.0
 40
8.0
 40
8.0
 40
8.0
 40
9.0
 40
9.0
 40
9.0
 40
9.0
 10
395.9667899970373
 20
387.1630902194374
 10
395.3612900123335
 20
387.7685902041412
 10
394.5253900334501
 20
388.1425901946932
 10
393.6034900567392
 20
388.1425901946932
 10
392.6806900800511
 20
388.1425901946932
 10
391.845690101145
 20
387.7685902041412
 10
391.2401901164412
 20
387.1630902194374
 10
390.6356901317122
 20
386.5585902347084
 10
390.2616901411602
 20
385.722690255825
 10
390.2616901411602
 20
384.8007902791142
 10
390.2616901411602
 20
383.8770000000004
 10
390.6356901317122
 20
383.0419999999995
 10
391.2401901164412
 20
382.4374903388161
 10
391.845690101145
 20
381.8330000000005
 10
392.6806900800511
 20
381.4590000000007
 10
393.6034900567392
 20
381.4590000000007
 10
394.5253900334501
 20
381.4590000000007
 10
395.3612900123335
 20
381.8330000000005
 10
395.9667899970373
 20
382.4374903388161
 10
396.5702899817916
 20
383.0419999999995
 10
396.9442899723435
 20
383.8770000000004
 10
396.9442899723435
 20
384.8007902791142
 10
396.9442899723435
 20
385.722690255825
 10
396.5702899817916
 20
386.5585902347084
 10
395.9667899970373
 20
387.1630902194374
 10
395.9667899970373
 20
387.1630902194374
 10
395.9667899970373
 20
387.1630902194374
 10
395.9667899970373
 20
387.1630902194374
 97
        0
 92
        1
 93
        1
 72
     4
 94
        3
 73
     0
 74
     1
 95
       56
 96
       52
 40
0.0
 40
0.0
 40
0.0
 40
0.0
 40
1.0
 40
1.0
 40
1.0
 40
2.0
 40
2.0
 40
2.0
 40
3.0
 40
3.0
 40
3.0
 40
4.0
 40
4.0
 40
4.0
 40
5.0
 40
5.0
 40
5.0
 40
6.0
 40
6.0
 40
6.0
 40
7.0
 40
7.0
 40
7.0
 40
8.0
 40
8.0
 40
8.0
 40
9.0
 40
9.0
 40
9.0
 40
10.0
 40
10.0
 40
10.0
 40
11.0
 40
11.0
 40
11.0
 40
12.0
 40
12.0
 40
12.0
 40
13.0
 40
13.0
 40
13.0
 40
14.0
 40
14.0
 40
14.0
 40
15.0
 40
15.0
 40
15.0
 40
16.0
 40
16.0
 40
16.0
 40
17.0
 40
17.0
 40
17.0
 40
17.0
 10
378.6659999999993
 20
385.7909999999993
 10
378.7616904316747
 20
385.7909999999993
 10
378.8554904293051
 20
385.7860902542234
 10
378.949190426938
 20
385.7772902544457
 10
378.949190426938
 20
385.7772902544457
 10
378.8544904293303
 20
385.892590251533
 10
378.8544904293303
 20
385.892590251533
 10
378.863290429108
 20
385.9472902501511
 10
378.8729999999996
 20
386.0038902487213
 10
378.8808904286634
 20
386.0595902473142
 10
379.2050904204734
 20
385.9911902490421
 10
379.4677904138371
 20
385.8770000000004
 10
379.6601904089766
 20
385.7070000000003
 10
379.6601904089766
 20
385.7070000000003
 10
379.6552904091004
 20
385.6347902580455
 10
379.6552904091004
 20
385.6347902580455
 10
379.849590404192
 20
385.5722902596244
 10
380.0370903994553
 20
385.4911902616732
 10
380.2147903949663
 20
385.394490264116
 10
380.2147903949663
 20
385.394490264116
 10
380.4159999999993
 20
385.394490264116
 10
380.4159999999993
 20
385.394490264116
 10
380.4159999999993
 20
385.394490264116
 10
380.4159999999993
 20
388.2987901907472
 10
380.4159999999993
 20
388.2987901907472
 10
380.4159999999993
 20
388.2987901907472
 10
380.4159999999993
 20
388.7128901802862
 10
380.4159999999993
 20
388.7128901802862
 10
380.4159999999993
 20
388.7128901802862
 10
380.828090379473
 20
388.7128901802862
 10
380.828090379473
 20
388.7128901802862
 10
380.828090379473
 20
388.7128901802862
 10
386.2616902422087
 20
388.7128901802862
 10
386.2616902422087
 20
388.7128901802862
 10
386.2616902422087
 20
388.7128901802862
 10
386.3388902402585
 20
389.4296901621783
 10
386.3388902402585
 20
389.4296901621783
 10
386.3388902402585
 20
389.4296901621783
 10
386.3388902402585
 20
390.1034901451567
 10
386.3388902402585
 20
390.1034901451567
 10
386.3388902402585
 20
390.1034901451567
 10
377.9892904511871
 20
390.1034901451567
 10
377.9892904511871
 20
390.1034901451567
 10
377.9892904511871
 20
390.1034901451567
 10
377.9892904511871
 20
389.3378901644974
 10
377.9892904511871
 20
389.3378901644974
 10
377.9892904511871
 20
389.3378901644974
 10
378.6659999999993
 20
385.7909999999993
 10
378.6659999999993
 20
385.7909999999993
 10
378.6659999999993
 20
385.7909999999993
 10
378.6659999999993
 20
385.7909999999993
 10
378.6659999999993
 20
385.7909999999993
 97
        0
 92
        1
 93
        1
 72
     4
 94
        3
 73
     0
 74
     1
 95
       32
 96
       28
 40
0.0
 40
0.0
 40
0.0
 40
0.0
 40
1.0
 40
1.0
 40
1.0
 40
2.0
 40
2.0
 40
2.0
 40
3.0
 40
3.0
 40
3.0
 40
4.0
 40
4.0
 40
4.0
 40
5.0
 40
5.0
 40
5.0
 40
6.0
 40
6.0
 40
6.0
 40
7.0
 40
7.0
 40
7.0
 40
8.0
 40
8.0
 40
8.0
 40
9.0
 40
9.0
 40
9.0
 40
9.0
 10
378.6562904343373
 20
383.8964903019587
 10
378.2812904438106
 20
383.8964903019587
 10
377.9413904523972
 20
383.7440903058086
 10
377.6962904585889
 20
383.4979999999996
 10
377.4511904647807
 20
383.2520000000004
 10
377.2987904686306
 20
382.9130903268015
 10
377.2987904686306
 20
382.5380903362748
 10
377.2987904686306
 20
382.1620903457733
 10
377.4511904647807
 20
381.8241903543094
 10
377.6962904585889
 20
381.5780903605264
 10
377.9413904523972
 20
381.3320000000003
 10
378.2812904438106
 20
381.1806903705656
 10
378.6562904343373
 20
381.1806903705656
 10
379.031290424864
 20
381.1806903705656
 10
379.3710904162799
 20
381.3320000000003
 10
379.6171904100629
 20
381.5780903605264
 10
379.8622904038712
 20
381.8241903543094
 10
380.0136904000465
 20
382.1620903457733
 10
380.0136904000465
 20
382.5380903362748
 10
380.0136904000465
 20
382.9130903268015
 10
379.8622904038712
 20
383.2520000000004
 10
379.6171904100629
 20
383.4979999999996
 10
379.3710904162799
 20
383.7440903058086
 10
379.031290424864
 20
383.8964903019587
 10
378.6562904343373
 20
383.8964903019587
 10
378.6562904343373
 20
383.8964903019587
 10
378.6562904343373
 20
383.8964903019587
 10
378.6562904343373
 20
383.8964903019587
 97
        0
 92
        1
 93
        1
 72
     4
 94
        3
 73
     0
 74
     1
 95
       32
 96
       28
 40
0.0
 40
0.0
 40
0.0
 40
0.0
 40
1.0
 40
1.0
 40
1.0
 40
2.0
 40
2.0
 40
2.0
 40
3.0
 40
3.0
 40
3.0
 40
4.0
 40
4.0
 40
4.0
 40
5.0
 40
5.0
 40
5.0
 40
6.0
 40
6.0
 40
6.0
 40
7.0
 40
7.0
 40
7.0
 40
8.0
 40
8.0
 40
8.0
 40
9.0
 40
9.0
 40
9.0
 40
9.0
 10
379.4599999999991
 20
383.3417903159716
 10
379.2548904192154
 20
383.5478903107651
 10
378.9706904263949
 20
383.675790307534
 10
378.6562904343373
 20
383.675790307534
 10
378.3417904422822
 20
383.675790307534
 10
378.0575904494617
 20
383.5478903107651
 10
377.8515904546657
 20
383.3417903159716
 10
377.646490459847
 20
383.1366903211529
 10
377.518590463078
 20
382.8515903283551
 10
377.518590463078
 20
382.5380903362748
 10
377.518590463078
 20
382.2245903441944
 10
377.646490459847
 20
381.9394903513967
 10
377.8515904546657
 20
381.7343903565779
 10
378.0575904494617
 20
381.5282903617845
 10
378.3417904422822
 20
381.4003903650155
 10
378.6562904343373
 20
381.4003903650155
 10
378.9706904263949
 20
381.4003903650155
 10
379.2548904192154
 20
381.5282903617845
 10
379.4599999999991
 20
381.7343903565779
 10
379.6669999999995
 20
381.9394903513967
 10
379.7938904055991
 20
382.2245903441944
 10
379.7938904055991
 20
382.5380903362748
 10
379.7938904055991
 20
382.8515903283551
 10
379.6669999999995
 20
383.1366903211529
 10
379.4599999999991
 20
383.3417903159716
 10
379.4599999999991
 20
383.3417903159716
 10
379.4599999999991
 20
383.3417903159716
 10
379.4599999999991
 20
383.3417903159716
 97
        0
 92
        1
 93
        1
 72
     4
 94
        3
 73
     0
 74
     1
 95
       32
 96
       28
 40
0.0
 40
0.0
 40
0.0
 40
0.0
 40
1.0
 40
1.0
 40
1.0
 40
2.0
 40
2.0
 40
2.0
 40
3.0
 40
3.0
 40
3.0
 40
4.0
 40
4.0
 40
4.0
 40
5.0
 40
5.0
 40
5.0
 40
6.0
 40
6.0
 40
6.0
 40
7.0
 40
7.0
 40
7.0
 40
8.0
 40
8.0
 40
8.0
 40
9.0
 40
9.0
 40
9.0
 40
9.0
 10
379.7890904057203
 20
383.6718903076326
 10
379.4989999999998
 20
383.9599999999991
 10
379.0995904231386
 20
384.1405902957922
 10
378.6562904343373
 20
384.1405902957922
 10
378.2138904455132
 20
384.1405902957922
 10
377.8124904556535
 20
383.9599999999991
 10
377.5233904629567
 20
383.6718903076326
 10
377.2343904702575
 20
383.3808903149838
 10
377.0546904747971
 20
382.9804903250988
 10
377.0546904747971
 20
382.5380903362748
 10
377.0546904747971
 20
382.0956903474507
 10
377.2343904702575
 20
381.6952903575657
 10
377.5233904629567
 20
381.404290364917
 10
377.8124904556535
 20
381.116190372195
 10
378.2138904455132
 20
380.9354903767598
 10
378.6562904343373
 20
380.9354903767598
 10
379.0995904231386
 20
380.9354903767598
 10
379.4989999999998
 20
381.116190372195
 10
379.7890904057203
 20
381.404290364917
 10
380.0790903983943
 20
381.6952903575657
 10
380.25779039388
 20
382.0956903474507
 10
380.25779039388
 20
382.5380903362748
 10
380.25779039388
 20
382.9804903250988
 10
380.0790903983943
 20
383.3808903149838
 10
379.7890904057203
 20
383.6718903076326
 10
379.7890904057203
 20
383.6718903076326
 10
379.7890904057203
 20
383.6718903076326
 10
379.7890904057203
 20
383.6718903076326
 97
        0
 92
        1
 93
        6
 72
     1
 10
390.4491901364236
 20
390.943390123939
 11
390.5614901335866
 21
391.0272901218195
 72
     1
 10
390.5614901335866
 20
391.0272901218195
 11
390.7323901292693
 21
391.0272901218195
 72
     1
 10
390.7323901292693
 20
391.0272901218195
 11
390.7323901292693
 21
396.8770000000004
 72
     1
 10
390.7323901292693
 20
396.8770000000004
 11
387.6933902060409
 21
396.8770000000004
 72
     1
 10
387.6933902060409
 20
396.8770000000004
 11
387.0546902221759
 21
390.943390123939
 72
     1
 10
387.0546902221759
 20
390.943390123939
 11
390.4491901364236
 21
390.943390123939
 97
        0
 75
     0
 76
     1
 98
        0
  0
ENDBLK
  5
9A
330
4F
100
AcDbEntity
  8
0
100
AcDbBlockEnd
  0
ENDSEC
  0
SECTION
  2
ENTITIES
  0
INSERT
  5
4D
330
14
100
AcDbEntity
  8
Layer 1
100
AcDbBlockReference
  2
block 2
 10
0.0
 20
0.0
 30
0.0
  0
ENDSEC
  0
SECTION
  2
OBJECTS
  0
DICTIONARY
  5
5
330
0
100
AcDbDictionary
281
     1
  3
ACAD_GROUP
350
21
  3
ACAD_LAYOUT
350
18
  3
ACAD_MATERIAL
350
7
  3
ACAD_MLEADERSTYLE
350
9E
  3
ACAD_MLINESTYLE
350
12
  3
ACAD_PLOTSETTINGS
350
22
  3
ACAD_PLOTSTYLENAME
350
4
  3
ACAD_SCALELIST
350
29
  3
ACAD_TABLESTYLE
350
9D
  3
ACAD_VISUALSTYLE
350
23
  3
AcDbVariableDictionary
350
9B
  0
DICTIONARY
  5
BE
330
1F
100
AcDbDictionary
280
     1
281
     1
  3
ACAD_XREC_ROUNDTRIP
360
BF
  0
DICTIONARY
  5
21
102
{ACAD_REACTORS
330
5
102
}
330
5
100
AcDbDictionary
281
     1
  0
DICTIONARY
  5
18
102
{ACAD_REACTORS
330
5
102
}
330
5
100
AcDbDictionary
281
     1
  3
Layout1
350
1C
  3
Model
350
17
  0
DICTIONARY
  5
7
102
{ACAD_REACTORS
330
5
102
}
330
5
100
AcDbDictionary
281
     1
  3
ByBlock
350
4C
  3
ByLayer
350
E
  3
Global
350
6
  0
DICTIONARY
  5
9E
102
{ACAD_REACTORS
330
5
102
}
330
5
100
AcDbDictionary
281
     1
  3
Standard
350
A1
  0
DICTIONARY
  5
12
102
{ACAD_REACTORS
330
5
102
}
330
5
100
AcDbDictionary
281
     1
  3
Standard
350
11
  0
DICTIONARY
  5
22
102
{ACAD_REACTORS
330
5
102
}
330
5
100
AcDbDictionary
281
     1
  0
ACDBDICTIONARYWDFLT
  5
4
102
{ACAD_REACTORS
330
5
102
}
330
5
100
AcDbDictionary
281
     1
  3
Normal
350
3
100
AcDbDictionaryWithDefault
340
3
  0
DICTIONARY
  5
29
102
{ACAD_REACTORS
330
5
102
}
330
5
100
AcDbDictionary
281
     1
  3
*A1
350
4B
  0
DICTIONARY
  5
9D
102
{ACAD_REACTORS
330
5
102
}
330
5
100
AcDbDictionary
281
     1
  3
Standard
350
B9
  0
DICTIONARY
  5
23
102
{ACAD_REACTORS
330
5
102
}
330
5
100
AcDbDictionary
281
     1
  3
2dWireframe
350
26
  3
Basic
350
A8
  3
Brighten
350
AC
  3
ColorChange
350
B0
  3
Conceptual
350
AA
  3
Dim
350
AB
  3
EdgeColorOff
350
B3
  3
Facepattern
350
AF
  3
Flat
350
A2
  3
FlatWithEdges
350
A3
  3
Gouraud
350
A4
  3
GouraudWithEdges
350
A5
  3
Hidden
350
A7
  3
JitterOff
350
B1
  3
Linepattern
350
AE
  3
OverhangOff
350
B2
  3
Realistic
350
A9
  3
Shaded
350
B8
  3
Shaded with edges
350
B7
  3
Shades of Gray
350
B4
  3
Sketchy
350
B5
  3
Thicken
350
AD
  3
Wireframe
350
A6
  3
X-Ray
350
B6
  0
DICTIONARY
  5
9B
102
{ACAD_REACTORS
330
5
102
}
330
5
100
AcDbDictionary
281
     1
  3
CANNOSCALE
350
9C
  3
CMLEADERSTYLE
350
BB
  3
CTABLESTYLE
350
BA
  3
DIMASSOC
350
BC
  3
HIDETEXT
350
BD
  3
MSLTSCALE
350
C0
  0
XRECORD
  5
BF
102
{ACAD_REACTORS
330
BE
102
}
330
BE
100
AcDbXrecord
280
     1
102
VTR_0.000_0.000_1.000_1.000_VISUALSTYLE
340
26
102
VTR_0.000_0.000_1.000_1.000_GRIDDISPLAY
 70
     3
102
VTR_0.000_0.000_1.000_1.000_GRIDMAJOR
 70
     5
102
VTR_0.000_0.000_1.000_1.000_DEFAULTLIGHTING
280
     1
102
VTR_0.000_0.000_1.000_1.000_DEFAULTLIGHTINGTYPE
 70
     1
102
VTR_0.000_0.000_1.000_1.000_BRIGHTNESS
141
0.0
102
VTR_0.000_0.000_1.000_1.000_CONTRAST
142
0.0
  0
LAYOUT
  5
1C
102
{ACAD_REACTORS
330
18
102
}
330
18
100
AcDbPlotSettings
  1

  2
none_device
  4
Letter_(8.50_x_11.00_Inches)
  6

 40
6.35
 41
6.35
 42
6.35001
 43
6.35001
 44
215.9
 45
279.4
 46
0.0
 47
0.0
 48
0.0
 49
0.0
140
0.0
141
0.0
142
1.0
143
1.0
 70
   688
 72
     0
 73
     1
 74
     5
  7

 75
    16
147
1.0
148
0.0
149
0.0
100
AcDbLayout
  1
Layout1
 70
     1
 71
     1
 10
0.0
 20
0.0
 11
12.0
 21
9.0
 12
0.0
 22
0.0
 32
0.0
 14
1.000000000000000E+20
 24
1.000000000000000E+20
 34
1.000000000000000E+20
 15
-1.000000000000000E+20
 25
-1.000000000000000E+20
 35
-1.000000000000000E+20
146
0.0
 13
0.0
 23
0.0
 33
0.0
 16
1.0
 26
0.0
 36
0.0
 17
0.0
 27
1.0
 37
0.0
 76
     0
330
19
  0
LAYOUT
  5
17
102
{ACAD_REACTORS
330
18
102
}
330
18
100
AcDbPlotSettings
  1

  2
none_device
  4

  6

 40
0.0
 41
0.0
 42
0.0
 43
0.0
 44
0.0
 45
0.0
 46
0.0
 47
0.0
 48
0.0
 49
0.0
140
0.0
141
0.0
142
1.0
143
1.0
 70
  1712
 72
     0
 73
     0
 74
     0
  7

 75
     0
147
1.0
148
0.0
149
0.0
100
AcDbLayout
  1
Model
 70
     1
 71
     0
 10
0.0
 20
0.0
 11
12.0
 21
9.0
 12
0.0
 22
0.0
 32
0.0
 14
375.1368049518327
 24
379.0199791305523
 34
0.0
 15
413.8749712857368
 25
398.8847458276363
 35
0.0
146
0.0
 13
0.0
 23
0.0
 33
0.0
 16
1.0
 26
0.0
 36
0.0
 17
0.0
 27
1.0
 37
0.0
 76
     0
330
14
331
25
  0
MATERIAL
  5
4C
102
{ACAD_REACTORS
330
7
102
}
102
{ACAD_XDICTIONARY
360
C5
102
}
330
7
100
AcDbMaterial
  1
ByBlock
  0
MATERIAL
  5
E
102
{ACAD_REACTORS
330
7
102
}
102
{ACAD_XDICTIONARY
360
C1
102
}
330
7
100
AcDbMaterial
  1
ByLayer
  0
MATERIAL
  5
6
102
{ACAD_REACTORS
330
7
102
}
102
{ACAD_XDICTIONARY
360
C3
102
}
330
7
100
AcDbMaterial
  1
Global
  0
MLEADERSTYLE
  5
A1
102
{ACAD_REACTORS
330
9E
102
}
102
{ACAD_XDICTIONARY
360
F8
102
}
330
9E
100
AcDbMLeaderStyle
170
     2
171
     1
172
     0
 90
        2
 40
0.0
 41
0.0
173
     1
 91
-1056964608
340
A
 92
       -2
290
     1
 42
0.09
291
     1
 43
0.36
  3
Standard
341
0
 44
0.18
300

342
C
174
     1
178
     6
175
     1
176
     0
 93
-1056964608
 45
0.18
292
     0
297
     0
 46
0.18
343
0
 94
-1056964608
 47
1.0
 49
1.0
140
1.0
293
     1
141
0.0
294
     1
177
     0
142
1.0
295
     0
296
     0
143
0.125
1001
ACAD_MLEADERVER
1070
     2
  0
MLINESTYLE
  5
11
102
{ACAD_REACTORS
330
12
102
}
330
12
100
AcDbMlineStyle
  2
Standard
 70
     0
  3

 62
   256
 51
90.0
 52
90.0
 71
     2
 49
0.5
 62
   256
  6
BYLAYER
 49
-0.5
 62
   256
  6
BYLAYER
  0
ACDBPLACEHOLDER
  5
3
102
{ACAD_REACTORS
330
4
102
}
330
4
  0
SCALE
  5
4B
102
{ACAD_REACTORS
330
29
102
}
330
29
100
AcDbScale
 70
     0
300
1:1
140
1.0
141
1.0
290
     1
  0
TABLESTYLE
  5
B9
102
{ACAD_REACTORS
330
9D
102
}
330
9D
100
AcDbTableStyle
  3
Standard
 70
     0
 71
     0
 40
0.06
 41
0.06
280
     0
281
     0
  7
Standard
140
0.18
170
     2
 62
     0
 63
   257
283
     0
274
    -2
284
     1
 64
     0
275
    -2
285
     1
 65
     0
276
    -2
286
     1
 66
     0
277
    -2
287
     1
 67
     0
278
    -2
288
     1
 68
     0
279
    -2
289
     1
 69
     0
  7
Standard
140
0.25
170
     5
 62
     0
 63
   257
283
     0
274
    -2
284
     1
 64
     0
275
    -2
285
     1
 65
     0
276
    -2
286
     1
 66
     0
277
    -2
287
     1
 67
     0
278
    -2
288
     1
 68
     0
279
    -2
289
     1
 69
     0
  7
Standard
140
0.18
170
     5
 62
     0
 63
   257
283
     0
274
    -2
284
     1
 64
     0
275
    -2
285
     1
 65
     0
276
    -2
286
     1
 66
     0
277
    -2
287
     1
 67
     0
278
    -2
288
     1
 68
     0
279
    -2
289
     1
 69
     0
  0
VISUALSTYLE
  5
26
102
{ACAD_REACTORS
330
23
102
}
102
{ACAD_XDICTIONARY
360
C7
102
}
330
23
100
AcDbVisualStyle
  2
2dWireframe
 70
     4
 71
     0
 72
     2
 73
     0
 90
        0
 40
-0.6
 41
-30.0
 62
     5
 63
     7
 74
     1
 91
        4
 64
     7
 65
   257
 75
     1
175
     1
 42
1.0
 92
        0
 66
   257
 43
1.0
 76
     1
 77
     6
 78
     2
 67
     7
 79
     5
170
     0
171
     0
290
     0
174
     0
 93
        1
 44
0.0
173
     0
291
     0
 45
0.0
1001
ACAD
1000
AcDbSavedByObjectVersion
1070
     0
  0
VISUALSTYLE
  5
A8
102
{ACAD_REACTORS
330
23
102
}
102
{ACAD_XDICTIONARY
360
D5
102
}
330
23
100
AcDbVisualStyle
  2
Basic
 70
     7
 71
     1
 72
     0
 73
     1
 90
        0
 40
0.6
 41
30.0
 62
     5
 63
     7
 74
     0
 91
        4
 64
     7
 65
   257
 75
     1
175
     1
 42
1.0
 92
        8
 66
     7
 43
1.0
 76
     1
 77
     6
 78
     2
 67
     7
 79
     5
170
     0
171
     0
290
     0
174
     0
 93
        1
 44
0.0
173
     0
291
     1
 45
0.0
1001
ACAD
1000
AcDbSavedByObjectVersion
1070
     0
  0
VISUALSTYLE
  5
AC
102
{ACAD_REACTORS
330
23
102
}
102
{ACAD_XDICTIONARY
360
DD
102
}
330
23
100
AcDbVisualStyle
  2
Brighten
 70
    12
 71
     2
 72
     2
 73
     0
 90
        0
 40
0.6
 41
30.0
 62
     5
 63
     7
 74
     1
 91
        4
 64
     7
 65
   257
 75
     1
175
     1
 42
1.0
 92
        8
 66
     7
 43
1.0
 76
     1
 77
     6
 78
     2
 67
     7
 79
     5
170
     0
171
     0
290
     0
174
     0
 93
        1
 44
50.0
173
     0
291
     1
 45
0.0
1001
ACAD
1000
AcDbSavedByObjectVersion
1070
     0
  0
VISUALSTYLE
  5
B0
102
{ACAD_REACTORS
330
23
102
}
102
{ACAD_XDICTIONARY
360
E5
102
}
330
23
100
AcDbVisualStyle
  2
ColorChange
 70
    16
 71
     2
 72
     2
 73
     3
 90
        0
 40
0.6
 41
30.0
 62
     5
 63
     8
 74
     1
 91
        4
 64
     7
 65
   257
 75
     1
175
     1
 42
1.0
 92
        8
 66
     8
 43
1.0
 76
     1
 77
     6
 78
     2
 67
     7
 79
     5
170
     0
171
     0
290
     0
174
     0
 93
        1
 44
0.0
173
     0
291
     1
 45
0.0
1001
ACAD
1000
AcDbSavedByObjectVersion
1070
     0
  0
VISUALSTYLE
  5
AA
102
{ACAD_REACTORS
330
23
102
}
102
{ACAD_XDICTIONARY
360
D9
102
}
330
23
100
AcDbVisualStyle
  2
Conceptual
 70
     9
 71
     3
 72
     2
 73
     0
 90
        0
 40
0.6
 41
30.0
 62
     5
 63
     7
 74
     2
 91
        2
 64
     7
 65
   257
 75
     1
175
     1
 42
179.0
 92
        8
 66
     7
 43
1.0
 76
     1
 77
     6
 78
     2
 67
     7
 79
     3
170
     0
171
     0
290
     0
174
     0
 93
        1
 44
0.0
173
     0
291
     0
 45
0.0
1001
ACAD
1000
AcDbSavedByObjectVersion
1070
     0
  0
VISUALSTYLE
  5
AB
102
{ACAD_REACTORS
330
23
102
}
102
{ACAD_XDICTIONARY
360
DB
102
}
330
23
100
AcDbVisualStyle
  2
Dim
 70
    11
 71
     2
 72
     2
 73
     0
 90
        0
 40
0.6
 41
30.0
 62
     5
 63
     7
 74
     1
 91
        4
 64
     7
 65
   257
 75
     1
175
     1
 42
1.0
 92
        8
 66
     7
 43
1.0
 76
     1
 77
     6
 78
     2
 67
     7
 79
     5
170
     0
171
     0
290
     0
174
     0
 93
        1
 44
-50.0
173
     0
291
     1
 45
0.0
1001
ACAD
1000
AcDbSavedByObjectVersion
1070
     0
  0
VISUALSTYLE
  5
B3
102
{ACAD_REACTORS
330
23
102
}
102
{ACAD_XDICTIONARY
360
EB
102
}
330
23
100
AcDbVisualStyle
  2
EdgeColorOff
 70
    22
 71
     2
 72
     2
 73
     0
 90
        0
 40
0.6
 41
30.0
 62
     5
 63
     7
 74
     1
 91
        4
 64
     7
 65
   257
 75
     1
175
     1
 42
1.0
 92
        8
 66
     7
 43
1.0
 76
     1
 77
     6
 78
     2
 67
     7
 79
     5
170
     0
171
     0
290
     0
174
     0
 93
        1
 44
0.0
173
     0
291
     1
 45
0.0
1001
ACAD
1000
AcDbSavedByObjectVersion
1070
     0
  0
VISUALSTYLE
  5
AF
102
{ACAD_REACTORS
330
23
102
}
102
{ACAD_XDICTIONARY
360
E3
102
}
330
23
100
AcDbVisualStyle
  2
Facepattern
 70
    15
 71
     2
 72
     2
 73
     0
 90
        0
 40
0.6
 41
30.0
 62
     5
 63
     7
 74
     1
 91
        4
 64
     7
 65
   257
 75
     1
175
     1
 42
1.0
 92
        8
 66
     7
 43
1.0
 76
     1
 77
     6
 78
     2
 67
     7
 79
     5
170
     0
171
     0
290
     0
174
     0
 93
        1
 44
0.0
173
     0
291
     1
 45
0.0
1001
ACAD
1000
AcDbSavedByObjectVersion
1070
     0
  0
VISUALSTYLE
  5
A2
102
{ACAD_REACTORS
330
23
102
}
102
{ACAD_XDICTIONARY
360
C9
102
}
330
23
100
AcDbVisualStyle
  2
Flat
 70
     0
 71
     2
 72
     1
 73
     1
 90
        2
 40
0.6
 41
30.0
 62
     5
 63
     7
 74
     0
 91
        0
 64
     7
 65
   257
 75
     1
175
     1
 42
1.0
 92
        8
 66
     7
 43
1.0
 76
     1
 77
     6
 78
     2
 67
     7
 79
     5
170
     0
171
     0
290
     0
174
     0
 93
       13
 44
0.0
173
     0
291
     1
 45
0.0
1001
ACAD
1000
AcDbSavedByObjectVersion
1070
     0
  0
VISUALSTYLE
  5
A3
102
{ACAD_REACTORS
330
23
102
}
102
{ACAD_XDICTIONARY
360
CB
102
}
330
23
100
AcDbVisualStyle
  2
FlatWithEdges
 70
     1
 71
     2
 72
     1
 73
     1
 90
        2
 40
0.6
 41
30.0
 62
     5
 63
     7
 74
     1
 91
        0
 64
     7
 65
   257
 75
     1
175
     1
 42
1.0
 92
        0
 66
   257
 43
1.0
 76
     1
 77
     6
 78
     2
 67
     7
 79
     5
170
     0
171
     0
290
     0
174
     0
 93
       13
 44
0.0
173
     0
291
     1
 45
0.0
1001
ACAD
1000
AcDbSavedByObjectVersion
1070
     0
  0
VISUALSTYLE
  5
A4
102
{ACAD_REACTORS
330
23
102
}
102
{ACAD_XDICTIONARY
360
CD
102
}
330
23
100
AcDbVisualStyle
  2
Gouraud
 70
     2
 71
     2
 72
     2
 73
     1
 90
        2
 40
0.6
 41
30.0
 62
     5
 63
     7
 74
     0
 91
        0
 64
     7
 65
   257
 75
     1
175
     1
 42
1.0
 92
        0
 66
     7
 43
1.0
 76
     1
 77
     6
 78
     2
 67
     7
 79
     5
170
     0
171
     0
290
     0
174
     0
 93
       13
 44
0.0
173
     0
291
     1
 45
0.0
1001
ACAD
1000
AcDbSavedByObjectVersion
1070
     0
  0
VISUALSTYLE
  5
A5
102
{ACAD_REACTORS
330
23
102
}
102
{ACAD_XDICTIONARY
360
CF
102
}
330
23
100
AcDbVisualStyle
  2
GouraudWithEdges
 70
     3
 71
     2
 72
     2
 73
     1
 90
        2
 40
0.6
 41
30.0
 62
     5
 63
     7
 74
     1
 91
        0
 64
     7
 65
   257
 75
     1
175
     1
 42
1.0
 92
        0
 66
   257
 43
1.0
 76
     1
 77
     6
 78
     2
 67
     7
 79
     5
170
     0
171
     0
290
     0
174
     0
 93
       13
 44
0.0
173
     0
291
     1
 45
0.0
1001
ACAD
1000
AcDbSavedByObjectVersion
1070
     0
  0
VISUALSTYLE
  5
A7
102
{ACAD_REACTORS
330
23
102
}
102
{ACAD_XDICTIONARY
360
D3
102
}
330
23
100
AcDbVisualStyle
  2
Hidden
 70
     6
 71
     1
 72
     2
 73
     2
 90
        0
 40
0.6
 41
30.0
 62
     5
 63
     7
 74
     2
 91
        2
 64
     7
 65
   257
 75
     2
175
     1
 42
40.0
 92
        0
 66
   257
 43
1.0
 76
     1
 77
     6
 78
     2
 67
     7
 79
     3
170
     0
171
     0
290
     0
174
     0
 93
        1
 44
0.0
173
     0
291
     0
 45
0.0
1001
ACAD
1000
AcDbSavedByObjectVersion
1070
     0
  0
VISUALSTYLE
  5
B1
102
{ACAD_REACTORS
330
23
102
}
102
{ACAD_XDICTIONARY
360
E7
102
}
330
23
100
AcDbVisualStyle
  2
JitterOff
 70
    20
 71
     2
 72
     2
 73
     0
 90
        0
 40
0.6
 41
30.0
 62
     5
 63
     7
 74
     1
 91
        4
 64
     7
 65
   257
 75
     1
175
     1
 42
1.0
 92
       10
 66
     7
 43
1.0
 76
     1
 77
     6
 78
     2
 67
     7
 79
     5
170
     0
171
     0
290
     0
174
     0
 93
        1
 44
0.0
173
     0
291
     1
 45
0.0
1001
ACAD
1000
AcDbSavedByObjectVersion
1070
     0
  0
VISUALSTYLE
  5
AE
102
{ACAD_REACTORS
330
23
102
}
102
{ACAD_XDICTIONARY
360
E1
102
}
330
23
100
AcDbVisualStyle
  2
Linepattern
 70
    14
 71
     2
 72
     2
 73
     0
 90
        0
 40
0.6
 41
30.0
 62
     5
 63
     7
 74
     1
 91
        4
 64
     7
 65
   257
 75
     7
175
     7
 42
1.0
 92
        8
 66
     7
 43
1.0
 76
     1
 77
     6
 78
     2
 67
     7
 79
     5
170
     0
171
     0
290
     0
174
     0
 93
        1
 44
0.0
173
     0
291
     1
 45
0.0
1001
ACAD
1000
AcDbSavedByObjectVersion
1070
     0
  0
VISUALSTYLE
  5
B2
102
{ACAD_REACTORS
330
23
102
}
102
{ACAD_XDICTIONARY
360
E9
102
}
330
23
100
AcDbVisualStyle
  2
OverhangOff
 70
    21
 71
     2
 72
     2
 73
     0
 90
        0
 40
0.6
 41
30.0
 62
     5
 63
     7
 74
     1
 91
        4
 64
     7
 65
   257
 75
     1
175
     1
 42
1.0
 92
        9
 66
     7
 43
1.0
 76
     1
 77
     6
 78
     2
 67
     7
 79
     5
170
     0
171
     0
290
     0
174
     0
 93
        1
 44
0.0
173
     0
291
     1
 45
0.0
1001
ACAD
1000
AcDbSavedByObjectVersion
1070
     0
  0
VISUALSTYLE
  5
A9
102
{ACAD_REACTORS
330
23
102
}
102
{ACAD_XDICTIONARY
360
D7
102
}
330
23
100
AcDbVisualStyle
  2
Realistic
 70
     8
 71
     2
 72
     3
 73
     0
 90
        2
 40
0.6
 41
30.0
 62
     5
 63
     7
 74
     0
 91
        0
 64
     7
 65
   257
 75
     1
175
     1
 42
1.0
 92
        8
 66
   257
 43
1.0
 76
     1
 77
     6
 78
     2
 67
     7
 79
     3
170
     0
171
     0
290
     0
174
     0
 93
       13
 44
0.0
173
     0
291
     0
 45
0.0
1001
ACAD
1000
AcDbSavedByObjectVersion
1070
     0
  0
VISUALSTYLE
  5
B8
102
{ACAD_REACTORS
330
23
102
}
102
{ACAD_XDICTIONARY
360
F5
102
}
330
23
100
AcDbVisualStyle
  2
Shaded
 70
    27
 71
     2
 72
     2
 73
     1
 90
        2
 40
0.6
 41
30.0
 62
     5
 63
     7
 74
     0
 91
        4
 64
     7
 65
   257
 75
     1
175
     1
 42
1.0
 92
        8
 66
   257
 43
1.0
 76
     1
 77
     6
 78
     2
 67
     8
 79
     3
170
     0
171
     0
290
     0
174
     0
 93
        5
 44
0.0
173
     0
291
     0
 45
0.0
1001
ACAD
1000
AcDbSavedByObjectVersion
1070
     0
  0
VISUALSTYLE
  5
B7
102
{ACAD_REACTORS
330
23
102
}
102
{ACAD_XDICTIONARY
360
F3
102
}
330
23
100
AcDbVisualStyle
  2
Shaded with edges
 70
    26
 71
     2
 72
     2
 73
     1
 90
        2
 40
0.6
 41
30.0
 62
     5
 63
     7
 74
     1
 91
       10
 64
     7
 65
   257
 75
     2
175
     1
 42
1.0
 92
        8
 66
   257
 43
1.0
 76
     1
 77
     6
 78
     2
 67
     7
 79
     3
170
     0
171
     0
290
     0
174
     0
 93
        5
 44
0.0
173
     0
291
     0
 45
0.0
1001
ACAD
1000
AcDbSavedByObjectVersion
1070
     0
  0
VISUALSTYLE
  5
B4
102
{ACAD_REACTORS
330
23
102
}
102
{ACAD_XDICTIONARY
360
ED
102
}
330
23
100
AcDbVisualStyle
  2
Shades of Gray
 70
    23
 71
     2
 72
     2
 73
     3
 90
        0
 40
0.6
 41
30.0
 62
     5
 63
     7
 74
     2
 91
        2
 64
     7
 65
     7
 75
     1
175
     1
 42
40.0
 92
        8
 66
     7
 43
1.0
 76
     1
 77
     6
 78
     2
 67
     7
 79
     3
170
     0
171
     0
290
     0
174
     0
 93
        1
 44
0.0
173
     0
291
     0
 45
0.0
1001
ACAD
1000
AcDbSavedByObjectVersion
1070
     0
  0
VISUALSTYLE
  5
B5
102
{ACAD_REACTORS
330
23
102
}
102
{ACAD_XDICTIONARY
360
EF
102
}
330
23
100
AcDbVisualStyle
  2
Sketchy
 70
    24
 71
     1
 72
     2
 73
     2
 90
        0
 40
0.6
 41
30.0
 62
     5
 63
     7
 74
     2
 91
        2
 64
     7
 65
     7
 75
     1
175
     1
 42
40.0
 92
       11
 66
     7
 43
1.0
 76
     1
 77
     6
 78
     2
 67
     7
 79
     6
170
     0
171
     0
290
     0
174
     0
 93
        1
 44
0.0
173
     0
291
     0
 45
0.0
1001
ACAD
1000
AcDbSavedByObjectVersion
1070
     0
  0
VISUALSTYLE
  5
AD
102
{ACAD_REACTORS
330
23
102
}
102
{ACAD_XDICTIONARY
360
DF
102
}
330
23
100
AcDbVisualStyle
  2
Thicken
 70
    13
 71
     2
 72
     2
 73
     0
 90
        0
 40
0.6
 41
30.0
 62
     5
 63
     7
 74
     1
 91
        4
 64
     7
 65
   257
 75
     1
175
     1
 42
1.0
 92
       12
 66
     7
 43
1.0
 76
     1
 77
     6
 78
     2
 67
     7
 79
     5
170
     0
171
     0
290
     0
174
     0
 93
        1
 44
0.0
173
     0
291
     1
 45
0.0
1001
ACAD
1000
AcDbSavedByObjectVersion
1070
     0
  0
VISUALSTYLE
  5
A6
102
{ACAD_REACTORS
330
23
102
}
102
{ACAD_XDICTIONARY
360
D1
102
}
330
23
100
AcDbVisualStyle
  2
Wireframe
 70
     5
 71
     0
 72
     2
 73
     0
 90
        0
 40
0.6
 41
30.0
 62
     5
 63
     7
 74
     1
 91
        4
 64
     7
 65
   257
 75
     1
175
     1
 42
1.0
 92
        0
 66
   257
 43
1.0
 76
     1
 77
     6
 78
     2
 67
     7
 79
     3
170
     0
171
     0
290
     0
174
     0
 93
        1
 44
0.0
173
     0
291
     0
 45
0.0
1001
ACAD
1000
AcDbSavedByObjectVersion
1070
     0
  0
VISUALSTYLE
  5
B6
102
{ACAD_REACTORS
330
23
102
}
102
{ACAD_XDICTIONARY
360
F1
102
}
330
23
100
AcDbVisualStyle
  2
X-Ray
 70
    25
 71
     2
 72
     2
 73
     1
 90
        1
 40
0.5
 41
30.0
 62
     5
 63
     7
 74
     1
 91
        0
 64
     7
 65
   257
 75
     1
175
     1
 42
1.0
 92
        8
 66
     7
 43
1.0
 76
     1
 77
     6
 78
     2
 67
     7
 79
     3
170
     0
171
     0
290
     0
174
     0
 93
       13
 44
0.0
173
     0
291
     0
 45
0.0
1001
ACAD
1000
AcDbSavedByObjectVersion
1070
     0
  0
DICTIONARYVAR
  5
9C
102
{ACAD_REACTORS
330
9B
102
}
330
9B
100
DictionaryVariables
280
     0
  1
1:1
  0
DICTIONARYVAR
  5
BB
102
{ACAD_REACTORS
330
9B
102
}
330
9B
100
DictionaryVariables
280
     0
  1
Standard
  0
DICTIONARYVAR
  5
BA
102
{ACAD_REACTORS
330
9B
102
}
330
9B
100
DictionaryVariables
280
     0
  1
Standard
  0
DICTIONARYVAR
  5
BC
102
{ACAD_REACTORS
330
9B
102
}
330
9B
100
DictionaryVariables
280
     0
  1
2
  0
DICTIONARYVAR
  5
BD
102
{ACAD_REACTORS
330
9B
102
}
330
9B
100
DictionaryVariables
280
     0
  1
1
  0
DICTIONARYVAR
  5
C0
102
{ACAD_REACTORS
330
9B
102
}
330
9B
100
DictionaryVariables
280
     0
  1
1
  0
DICTIONARY
  5
C5
330
4C
100
AcDbDictionary
280
     1
281
     1
  3
ACAD_XREC_ROUNDTRIP
360
C6
  0
DICTIONARY
  5
C1
330
E
100
AcDbDictionary
280
     1
281
     1
  3
ACAD_XREC_ROUNDTRIP
360
C2
  0
DICTIONARY
  5
C3
330
6
100
AcDbDictionary
280
     1
281
     1
  3
ACAD_XREC_ROUNDTRIP
360
C4
  0
DICTIONARY
  5
F8
330
A1
100
AcDbDictionary
280
     1
281
     1
  3
ACAD_XREC_ROUNDTRIP
360
F9
  0
DICTIONARY
  5
C7
330
26
100
AcDbDictionary
280
     1
281
     1
  3
ACAD_XREC_ROUNDTRIP
360
C8
  0
DICTIONARY
  5
D5
330
A8
100
AcDbDictionary
280
     1
281
     1
  3
ACAD_XREC_ROUNDTRIP
360
D6
  0
DICTIONARY
  5
DD
330
AC
100
AcDbDictionary
280
     1
281
     1
  3
ACAD_XREC_ROUNDTRIP
360
DE
  0
DICTIONARY
  5
E5
330
B0
100
AcDbDictionary
280
     1
281
     1
  3
ACAD_XREC_ROUNDTRIP
360
E6
  0
DICTIONARY
  5
D9
330
AA
100
AcDbDictionary
280
     1
281
     1
  3
ACAD_XREC_ROUNDTRIP
360
DA
  0
DICTIONARY
  5
DB
330
AB
100
AcDbDictionary
280
     1
281
     1
  3
ACAD_XREC_ROUNDTRIP
360
DC
  0
DICTIONARY
  5
EB
330
B3
100
AcDbDictionary
280
     1
281
     1
  3
ACAD_XREC_ROUNDTRIP
360
EC
  0
DICTIONARY
  5
E3
330
AF
100
AcDbDictionary
280
     1
281
     1
  3
ACAD_XREC_ROUNDTRIP
360
E4
  0
DICTIONARY
  5
C9
330
A2
100
AcDbDictionary
280
     1
281
     1
  3
ACAD_XREC_ROUNDTRIP
360
CA
  0
DICTIONARY
  5
CB
330
A3
100
AcDbDictionary
280
     1
281
     1
  3
ACAD_XREC_ROUNDTRIP
360
CC
  0
DICTIONARY
  5
CD
330
A4
100
AcDbDictionary
280
     1
281
     1
  3
ACAD_XREC_ROUNDTRIP
360
CE
  0
DICTIONARY
  5
CF
330
A5
100
AcDbDictionary
280
     1
281
     1
  3
ACAD_XREC_ROUNDTRIP
360
D0
  0
DICTIONARY
  5
D3
330
A7
100
AcDbDictionary
280
     1
281
     1
  3
ACAD_XREC_ROUNDTRIP
360
D4
  0
DICTIONARY
  5
E7
330
B1
100
AcDbDictionary
280
     1
281
     1
  3
ACAD_XREC_ROUNDTRIP
360
E8
  0
DICTIONARY
  5
E1
330
AE
100
AcDbDictionary
280
     1
281
     1
  3
ACAD_XREC_ROUNDTRIP
360
E2
  0
DICTIONARY
  5
E9
330
B2
100
AcDbDictionary
280
     1
281
     1
  3
ACAD_XREC_ROUNDTRIP
360
EA
  0
DICTIONARY
  5
D7
330
A9
100
AcDbDictionary
280
     1
281
     1
  3
ACAD_XREC_ROUNDTRIP
360
D8
  0
DICTIONARY
  5
F5
330
B8
100
AcDbDictionary
280
     1
281
     1
  3
ACAD_XREC_ROUNDTRIP
360
F6
  0
DICTIONARY
  5
F3
330
B7
100
AcDbDictionary
280
     1
281
     1
  3
ACAD_XREC_ROUNDTRIP
360
F4
  0
DICTIONARY
  5
ED
330
B4
100
AcDbDictionary
280
     1
281
     1
  3
ACAD_XREC_ROUNDTRIP
360
EE
  0
DICTIONARY
  5
EF
330
B5
100
AcDbDictionary
280
     1
281
     1
  3
ACAD_XREC_ROUNDTRIP
360
F0
  0
DICTIONARY
  5
DF
330
AD
100
AcDbDictionary
280
     1
281
     1
  3
ACAD_XREC_ROUNDTRIP
360
E0
  0
DICTIONARY
  5
D1
330
A6
100
AcDbDictionary
280
     1
281
     1
  3
ACAD_XREC_ROUNDTRIP
360
D2
  0
DICTIONARY
  5
F1
330
B6
100
AcDbDictionary
280
     1
281
     1
  3
ACAD_XREC_ROUNDTRIP
360
F2
  0
XRECORD
  5
C6
102
{ACAD_REACTORS
330
C5
102
}
330
C5
100
AcDbXrecord
280
     1
102
MATERIAL
148
0.0
149
0.0
149
0.0
 93
        0
 94
      127
282
     0
 72
     1
 77
     1
171
     1
175
     1
179
     1
273
     0
  0
XRECORD
  5
C2
102
{ACAD_REACTORS
330
C1
102
}
330
C1
100
AcDbXrecord
280
     1
102
MATERIAL
148
0.0
149
0.0
149
0.0
 93
        0
 94
      127
282
     0
 72
     1
 77
     1
171
     1
175
     1
179
     1
273
     0
  0
XRECORD
  5
C4
102
{ACAD_REACTORS
330
C3
102
}
330
C3
100
AcDbXrecord
280
     1
102
MATERIAL
148
0.0
149
0.0
149
0.0
 93
        0
 94
      127
282
     0
 72
     1
 77
     1
171
     1
175
     1
179
     1
273
     0
  0
XRECORD
  5
F9
102
{ACAD_REACTORS
330
F8
102
}
330
F8
100
AcDbXrecord
280
     1
102
ACAD_ROUNDTRIP_2010_MLEADER_STYLE
  0
XRECORD
  5
C8
102
{ACAD_REACTORS
330
C7
102
}
330
C7
100
AcDbXrecord
280
     1
102
RTVSPropertyOp0
 70
     1
102
RTVSPropertyOp1
 70
     1
102
RTVSPropertyOp2
 70
     1
102
RTVSPropertyOp3
 70
     1
102
RTVSPropertyOp4
 70
     1
102
RTVSPropertyOp5
 70
     1
102
RTVSPropertyOp6
 70
     1
102
RTVSPropertyOp7
 70
     1
102
RTVSPropertyOp8
 70
     1
102
RTVSPropertyOp9
 70
     1
102
RTVSPropertyOp10
 70
     1
102
RTVSPropertyOp11
 70
     1
102
RTVSPropertyOp12
 70
     1
102
RTVSPropertyOp13
 70
     1
102
RTVSPropertyOp14
 70
     1
102
RTVSPropertyOp15
 70
     1
102
RTVSPropertyOp16
 70
     1
102
RTVSPropertyOp17
 70
     1
102
RTVSPropertyOp18
 70
     1
102
RTVSPropertyOp19
 70
     1
102
RTVSPropertyOp20
 70
     1
102
RTVSPropertyOp21
 70
     1
102
RTVSPropertyOp22
 70
     1
102
RTVSPropertyOp23
 70
     1
102
RTVSPropertyOp24
 70
     1
102
RTVSPropertyOp25
 70
     1
102
RTVSPropertyOp26
 70
     1
102
RTVSPropertyOp27
 70
     1
102
RTVSPropertyOp28
 70
     1
102
RTVSPropertyOp29
 70
     1
102
RTVSPropertyOp30
 70
     1
102
RTVSPropertyOp31
 70
     1
102
RTVSPropertyOp32
 70
     1
102
RTVSPropertyOp33
 70
     1
102
RTVSPropertyOp34
 70
     1
102
RTVSPropertyOp35
 70
     1
102
RTVSPropertyOp36
 70
     1
102
RTVSPropertyOp37
 70
     1
102
RTVSPropertyOp38
 70
     1
102
RTVSPropertyOp39
 70
     1
102
RTVSPropertyOp40
 70
     1
102
RTVSPropertyOp41
 70
     1
102
RTVSPropertyOp42
 70
     1
102
RTVSPropertyOp43
 70
     1
102
RTVSPropertyOp44
 70
     1
102
RTVSPropertyOp45
 70
     1
102
RTVSPropertyOp46
 70
     1
102
RTVSPropertyOp47
 70
     1
102
RTVSPropertyOp48
 70
     1
102
RTVSPropertyOp49
 70
     1
102
RTVSPropertyOp50
 70
     1
102
RTVSPropertyOp51
 70
     0
102
RTVSPropertyOp52
 70
     0
102
RTVSPropertyOp53
 70
     1
102
RTVSPropertyOp54
 70
     1
102
RTVSPropertyOp55
 70
     1
102
RTVSPropertyOp56
 70
     1
102
RTVSPropertyOp57
 70
     1
102
RTVSPost2010Prop28
280
     1
102
RTVSPost2010PropOp28
 70
     1
102
RTVSPost2010Prop29
280
     1
102
RTVSPost2010PropOp29
 70
     1
102
RTVSPost2010Prop30
280
     0
102
RTVSPost2010PropOp30
 70
     1
102
RTVSPost2010Prop31
280
     0
102
RTVSPost2010PropOp31
 70
     1
102
RTVSPost2010Prop32
280
     0
102
RTVSPost2010PropOp32
 70
     1
102
RTVSPost2010Prop33
280
     0
102
RTVSPost2010PropOp33
 70
     1
102
RTVSPost2010Prop34
280
     0
102
RTVSPost2010PropOp34
 70
     1
102
RTVSPost2010Prop35
280
     0
102
RTVSPost2010PropOp35
 70
     1
102
RTVSPost2010Prop36
280
     0
102
RTVSPost2010PropOp36
 70
     1
102
RTVSPost2010Prop37
 90
       50
102
RTVSPost2010PropOp37
 70
     1
102
RTVSPost2010Prop38
140
0.0
102
RTVSPost2010PropOp38
 70
     1
102
RTVSPost2010Prop39
140
1.0
102
RTVSPost2010PropOp39
 70
     1
102
RTVSPost2010Prop40
 90
        0
102
RTVSPost2010PropOp40
 70
     1
102
RTVSPost2010Prop41ColorIndex
 90
       18
102
RTVSPost2010Prop41ColorRGB
 90
        0
102
RTVSPost2010PropOp41
 70
     1
102
RTVSPost2010Prop42
 90
       50
102
RTVSPost2010PropOp42
 70
     1
102
RTVSPost2010Prop43
 90
        3
102
RTVSPost2010PropOp43
 70
     1
102
RTVSPost2010Prop44ColorIndex
 90
        5
102
RTVSPost2010Prop44ColorRGB
 90
      255
102
RTVSPost2010PropOp44
 70
     1
102
RTVSPost2010Prop45
280
     0
102
RTVSPost2010PropOp45
 70
     1
102
RTVSPost2010Prop46
 90
       50
102
RTVSPost2010PropOp46
 70
     1
102
RTVSPost2010Prop47
 90
       50
102
RTVSPost2010PropOp47
 70
     1
102
RTVSPost2010Prop48
 90
       50
102
RTVSPost2010PropOp48
 70
     1
102
RTVSPost2010Prop49
280
     0
102
RTVSPost2010PropOp49
 70
     1
102
RTVSPost2010Prop50
 90
       50
102
RTVSPost2010PropOp50
 70
     1
102
RTVSPost2010Prop51ColorIndex
 90
      256
102
RTVSPost2010Prop51ColorRGB
 90
-16777216
102
RTVSPost2010PropOp51
 70
     0
102
RTVSPost2010Prop52
140
1.0
102
RTVSPost2010PropOp52
 70
     0
102
RTVSPost2010Prop53
 90
        2
102
RTVSPost2010PropOp53
 70
     1
102
RTVSPost2010Prop54
  1
strokes_ogs.tif
102
RTVSPost2010PropOp54
 70
     1
102
RTVSPost2010Prop55
280
     0
102
RTVSPost2010PropOp55
 70
     1
102
RTVSPost2010Prop56
140
1.0
102
RTVSPost2010PropOp56
 70
     1
102
RTVSPost2010Prop57
140
1.0
102
RTVSPost2010PropOp57
 70
     1
  0
XRECORD
  5
D6
102
{ACAD_REACTORS
330
D5
102
}
330
D5
100
AcDbXrecord
280
     1
102
RTVSPropertyOp0
 70
     1
102
RTVSPropertyOp1
 70
     1
102
RTVSPropertyOp2
 70
     1
102
RTVSPropertyOp3
 70
     1
102
RTVSPropertyOp4
 70
     1
102
RTVSPropertyOp5
 70
     1
102
RTVSPropertyOp6
 70
     1
102
RTVSPropertyOp7
 70
     1
102
RTVSPropertyOp8
 70
     1
102
RTVSPropertyOp9
 70
     1
102
RTVSPropertyOp10
 70
     1
102
RTVSPropertyOp11
 70
     1
102
RTVSPropertyOp12
 70
     1
102
RTVSPropertyOp13
 70
     1
102
RTVSPropertyOp14
 70
     1
102
RTVSPropertyOp15
 70
     1
102
RTVSPropertyOp16
 70
     1
102
RTVSPropertyOp17
 70
     1
102
RTVSPropertyOp18
 70
     1
102
RTVSPropertyOp19
 70
     1
102
RTVSPropertyOp20
 70
     1
102
RTVSPropertyOp21
 70
     1
102
RTVSPropertyOp22
 70
     1
102
RTVSPropertyOp23
 70
     1
102
RTVSPropertyOp24
 70
     1
102
RTVSPropertyOp25
 70
     1
102
RTVSPropertyOp26
 70
     1
102
RTVSPropertyOp27
 70
     1
102
RTVSPropertyOp28
 70
     1
102
RTVSPropertyOp29
 70
     1
102
RTVSPropertyOp30
 70
     1
102
RTVSPropertyOp31
 70
     1
102
RTVSPropertyOp32
 70
     1
102
RTVSPropertyOp33
 70
     1
102
RTVSPropertyOp34
 70
     1
102
RTVSPropertyOp35
 70
     1
102
RTVSPropertyOp36
 70
     1
102
RTVSPropertyOp37
 70
     1
102
RTVSPropertyOp38
 70
     1
102
RTVSPropertyOp39
 70
     1
102
RTVSPropertyOp40
 70
     1
102
RTVSPropertyOp41
 70
     1
102
RTVSPropertyOp42
 70
     1
102
RTVSPropertyOp43
 70
     1
102
RTVSPropertyOp44
 70
     1
102
RTVSPropertyOp45
 70
     1
102
RTVSPropertyOp46
 70
     1
102
RTVSPropertyOp47
 70
     1
102
RTVSPropertyOp48
 70
     1
102
RTVSPropertyOp49
 70
     1
102
RTVSPropertyOp50
 70
     1
102
RTVSPropertyOp51
 70
     0
102
RTVSPropertyOp52
 70
     0
102
RTVSPropertyOp53
 70
     1
102
RTVSPropertyOp54
 70
     1
102
RTVSPropertyOp55
 70
     1
102
RTVSPropertyOp56
 70
     1
102
RTVSPropertyOp57
 70
     1
102
RTVSPost2010Prop28
280
     0
102
RTVSPost2010PropOp28
 70
     1
102
RTVSPost2010Prop29
280
     1
102
RTVSPost2010PropOp29
 70
     1
102
RTVSPost2010Prop30
280
     1
102
RTVSPost2010PropOp30
 70
     1
102
RTVSPost2010Prop31
280
     0
102
RTVSPost2010PropOp31
 70
     1
102
RTVSPost2010Prop32
280
     0
102
RTVSPost2010PropOp32
 70
     1
102
RTVSPost2010Prop33
280
     0
102
RTVSPost2010PropOp33
 70
     1
102
RTVSPost2010Prop34
280
     0
102
RTVSPost2010PropOp34
 70
     1
102
RTVSPost2010Prop35
280
     0
102
RTVSPost2010PropOp35
 70
     1
102
RTVSPost2010Prop36
280
     0
102
RTVSPost2010PropOp36
 70
     1
102
RTVSPost2010Prop37
 90
       50
102
RTVSPost2010PropOp37
 70
     1
102
RTVSPost2010Prop38
140
0.0
102
RTVSPost2010PropOp38
 70
     1
102
RTVSPost2010Prop39
140
1.0
102
RTVSPost2010PropOp39
 70
     1
102
RTVSPost2010Prop40
 90
        0
102
RTVSPost2010PropOp40
 70
     1
102
RTVSPost2010Prop41ColorIndex
 90
       18
102
RTVSPost2010Prop41ColorRGB
 90
        0
102
RTVSPost2010PropOp41
 70
     1
102
RTVSPost2010Prop42
 90
       50
102
RTVSPost2010PropOp42
 70
     1
102
RTVSPost2010Prop43
 90
        3
102
RTVSPost2010PropOp43
 70
     1
102
RTVSPost2010Prop44ColorIndex
 90
        5
102
RTVSPost2010Prop44ColorRGB
 90
      255
102
RTVSPost2010PropOp44
 70
     1
102
RTVSPost2010Prop45
280
     0
102
RTVSPost2010PropOp45
 70
     1
102
RTVSPost2010Prop46
 90
       50
102
RTVSPost2010PropOp46
 70
     1
102
RTVSPost2010Prop47
 90
       50
102
RTVSPost2010PropOp47
 70
     1
102
RTVSPost2010Prop48
 90
       50
102
RTVSPost2010PropOp48
 70
     1
102
RTVSPost2010Prop49
280
     0
102
RTVSPost2010PropOp49
 70
     1
102
RTVSPost2010Prop50
 90
       50
102
RTVSPost2010PropOp50
 70
     1
102
RTVSPost2010Prop51ColorIndex
 90
      256
102
RTVSPost2010Prop51ColorRGB
 90
-16777216
102
RTVSPost2010PropOp51
 70
     0
102
RTVSPost2010Prop52
140
1.0
102
RTVSPost2010PropOp52
 70
     0
102
RTVSPost2010Prop53
 90
        2
102
RTVSPost2010PropOp53
 70
     1
102
RTVSPost2010Prop54
  1
strokes_ogs.tif
102
RTVSPost2010PropOp54
 70
     1
102
RTVSPost2010Prop55
280
     0
102
RTVSPost2010PropOp55
 70
     1
102
RTVSPost2010Prop56
140
1.0
102
RTVSPost2010PropOp56
 70
     1
102
RTVSPost2010Prop57
140
1.0
102
RTVSPost2010PropOp57
 70
     1
  0
XRECORD
  5
DE
102
{ACAD_REACTORS
330
DD
102
}
330
DD
100
AcDbXrecord
280
     1
102
RTVSPropertyOp0
 70
     1
102
RTVSPropertyOp1
 70
     1
102
RTVSPropertyOp2
 70
     1
102
RTVSPropertyOp3
 70
     1
102
RTVSPropertyOp4
 70
     1
102
RTVSPropertyOp5
 70
     1
102
RTVSPropertyOp6
 70
     1
102
RTVSPropertyOp7
 70
     1
102
RTVSPropertyOp8
 70
     1
102
RTVSPropertyOp9
 70
     1
102
RTVSPropertyOp10
 70
     1
102
RTVSPropertyOp11
 70
     1
102
RTVSPropertyOp12
 70
     1
102
RTVSPropertyOp13
 70
     1
102
RTVSPropertyOp14
 70
     1
102
RTVSPropertyOp15
 70
     1
102
RTVSPropertyOp16
 70
     1
102
RTVSPropertyOp17
 70
     1
102
RTVSPropertyOp18
 70
     1
102
RTVSPropertyOp19
 70
     1
102
RTVSPropertyOp20
 70
     1
102
RTVSPropertyOp21
 70
     1
102
RTVSPropertyOp22
 70
     1
102
RTVSPropertyOp23
 70
     1
102
RTVSPropertyOp24
 70
     1
102
RTVSPropertyOp25
 70
     1
102
RTVSPropertyOp26
 70
     1
102
RTVSPropertyOp27
 70
     1
102
RTVSPropertyOp28
 70
     1
102
RTVSPropertyOp29
 70
     1
102
RTVSPropertyOp30
 70
     1
102
RTVSPropertyOp31
 70
     1
102
RTVSPropertyOp32
 70
     1
102
RTVSPropertyOp33
 70
     1
102
RTVSPropertyOp34
 70
     1
102
RTVSPropertyOp35
 70
     1
102
RTVSPropertyOp36
 70
     1
102
RTVSPropertyOp37
 70
     1
102
RTVSPropertyOp38
 70
     1
102
RTVSPropertyOp39
 70
     1
102
RTVSPropertyOp40
 70
     1
102
RTVSPropertyOp41
 70
     1
102
RTVSPropertyOp42
 70
     1
102
RTVSPropertyOp43
 70
     1
102
RTVSPropertyOp44
 70
     1
102
RTVSPropertyOp45
 70
     1
102
RTVSPropertyOp46
 70
     1
102
RTVSPropertyOp47
 70
     1
102
RTVSPropertyOp48
 70
     1
102
RTVSPropertyOp49
 70
     1
102
RTVSPropertyOp50
 70
     1
102
RTVSPropertyOp51
 70
     0
102
RTVSPropertyOp52
 70
     0
102
RTVSPropertyOp53
 70
     1
102
RTVSPropertyOp54
 70
     1
102
RTVSPropertyOp55
 70
     1
102
RTVSPropertyOp56
 70
     1
102
RTVSPropertyOp57
 70
     1
102
RTVSPost2010Prop28
280
     0
102
RTVSPost2010PropOp28
 70
     1
102
RTVSPost2010Prop29
280
     1
102
RTVSPost2010PropOp29
 70
     1
102
RTVSPost2010Prop30
280
     1
102
RTVSPost2010PropOp30
 70
     1
102
RTVSPost2010Prop31
280
     0
102
RTVSPost2010PropOp31
 70
     1
102
RTVSPost2010Prop32
280
     0
102
RTVSPost2010PropOp32
 70
     1
102
RTVSPost2010Prop33
280
     0
102
RTVSPost2010PropOp33
 70
     1
102
RTVSPost2010Prop34
280
     0
102
RTVSPost2010PropOp34
 70
     1
102
RTVSPost2010Prop35
280
     0
102
RTVSPost2010PropOp35
 70
     1
102
RTVSPost2010Prop36
280
     0
102
RTVSPost2010PropOp36
 70
     1
102
RTVSPost2010Prop37
 90
       50
102
RTVSPost2010PropOp37
 70
     1
102
RTVSPost2010Prop38
140
0.0
102
RTVSPost2010PropOp38
 70
     1
102
RTVSPost2010Prop39
140
1.0
102
RTVSPost2010PropOp39
 70
     1
102
RTVSPost2010Prop40
 90
        0
102
RTVSPost2010PropOp40
 70
     1
102
RTVSPost2010Prop41ColorIndex
 90
       18
102
RTVSPost2010Prop41ColorRGB
 90
        0
102
RTVSPost2010PropOp41
 70
     1
102
RTVSPost2010Prop42
 90
       50
102
RTVSPost2010PropOp42
 70
     1
102
RTVSPost2010Prop43
 90
        3
102
RTVSPost2010PropOp43
 70
     1
102
RTVSPost2010Prop44ColorIndex
 90
        5
102
RTVSPost2010Prop44ColorRGB
 90
      255
102
RTVSPost2010PropOp44
 70
     1
102
RTVSPost2010Prop45
280
     0
102
RTVSPost2010PropOp45
 70
     1
102
RTVSPost2010Prop46
 90
       50
102
RTVSPost2010PropOp46
 70
     1
102
RTVSPost2010Prop47
 90
       50
102
RTVSPost2010PropOp47
 70
     1
102
RTVSPost2010Prop48
 90
       50
102
RTVSPost2010PropOp48
 70
     1
102
RTVSPost2010Prop49
280
     0
102
RTVSPost2010PropOp49
 70
     1
102
RTVSPost2010Prop50
 90
       50
102
RTVSPost2010PropOp50
 70
     1
102
RTVSPost2010Prop51ColorIndex
 90
      256
102
RTVSPost2010Prop51ColorRGB
 90
-16777216
102
RTVSPost2010PropOp51
 70
     0
102
RTVSPost2010Prop52
140
1.0
102
RTVSPost2010PropOp52
 70
     0
102
RTVSPost2010Prop53
 90
        2
102
RTVSPost2010PropOp53
 70
     1
102
RTVSPost2010Prop54
  1
strokes_ogs.tif
102
RTVSPost2010PropOp54
 70
     1
102
RTVSPost2010Prop55
280
     0
102
RTVSPost2010PropOp55
 70
     1
102
RTVSPost2010Prop56
140
1.0
102
RTVSPost2010PropOp56
 70
     1
102
RTVSPost2010Prop57
140
1.0
102
RTVSPost2010PropOp57
 70
     1
  0
XRECORD
  5
E6
102
{ACAD_REACTORS
330
E5
102
}
330
E5
100
AcDbXrecord
280
     1
102
RTVSPropertyOp0
 70
     1
102
RTVSPropertyOp1
 70
     1
102
RTVSPropertyOp2
 70
     1
102
RTVSPropertyOp3
 70
     1
102
RTVSPropertyOp4
 70
     1
102
RTVSPropertyOp5
 70
     1
102
RTVSPropertyOp6
 70
     1
102
RTVSPropertyOp7
 70
     1
102
RTVSPropertyOp8
 70
     1
102
RTVSPropertyOp9
 70
     1
102
RTVSPropertyOp10
 70
     1
102
RTVSPropertyOp11
 70
     1
102
RTVSPropertyOp12
 70
     1
102
RTVSPropertyOp13
 70
     1
102
RTVSPropertyOp14
 70
     1
102
RTVSPropertyOp15
 70
     1
102
RTVSPropertyOp16
 70
     1
102
RTVSPropertyOp17
 70
     1
102
RTVSPropertyOp18
 70
     1
102
RTVSPropertyOp19
 70
     1
102
RTVSPropertyOp20
 70
     1
102
RTVSPropertyOp21
 70
     1
102
RTVSPropertyOp22
 70
     1
102
RTVSPropertyOp23
 70
     1
102
RTVSPropertyOp24
 70
     1
102
RTVSPropertyOp25
 70
     1
102
RTVSPropertyOp26
 70
     1
102
RTVSPropertyOp27
 70
     1
102
RTVSPropertyOp28
 70
     1
102
RTVSPropertyOp29
 70
     1
102
RTVSPropertyOp30
 70
     1
102
RTVSPropertyOp31
 70
     1
102
RTVSPropertyOp32
 70
     1
102
RTVSPropertyOp33
 70
     1
102
RTVSPropertyOp34
 70
     1
102
RTVSPropertyOp35
 70
     1
102
RTVSPropertyOp36
 70
     1
102
RTVSPropertyOp37
 70
     1
102
RTVSPropertyOp38
 70
     1
102
RTVSPropertyOp39
 70
     1
102
RTVSPropertyOp40
 70
     1
102
RTVSPropertyOp41
 70
     1
102
RTVSPropertyOp42
 70
     1
102
RTVSPropertyOp43
 70
     1
102
RTVSPropertyOp44
 70
     1
102
RTVSPropertyOp45
 70
     1
102
RTVSPropertyOp46
 70
     1
102
RTVSPropertyOp47
 70
     1
102
RTVSPropertyOp48
 70
     1
102
RTVSPropertyOp49
 70
     1
102
RTVSPropertyOp50
 70
     1
102
RTVSPropertyOp51
 70
     0
102
RTVSPropertyOp52
 70
     0
102
RTVSPropertyOp53
 70
     1
102
RTVSPropertyOp54
 70
     1
102
RTVSPropertyOp55
 70
     1
102
RTVSPropertyOp56
 70
     1
102
RTVSPropertyOp57
 70
     1
102
RTVSPost2010Prop28
280
     0
102
RTVSPost2010PropOp28
 70
     1
102
RTVSPost2010Prop29
280
     1
102
RTVSPost2010PropOp29
 70
     1
102
RTVSPost2010Prop30
280
     1
102
RTVSPost2010PropOp30
 70
     1
102
RTVSPost2010Prop31
280
     0
102
RTVSPost2010PropOp31
 70
     1
102
RTVSPost2010Prop32
280
     0
102
RTVSPost2010PropOp32
 70
     1
102
RTVSPost2010Prop33
280
     0
102
RTVSPost2010PropOp33
 70
     1
102
RTVSPost2010Prop34
280
     0
102
RTVSPost2010PropOp34
 70
     1
102
RTVSPost2010Prop35
280
     0
102
RTVSPost2010PropOp35
 70
     1
102
RTVSPost2010Prop36
280
     0
102
RTVSPost2010PropOp36
 70
     1
102
RTVSPost2010Prop37
 90
       50
102
RTVSPost2010PropOp37
 70
     1
102
RTVSPost2010Prop38
140
0.0
102
RTVSPost2010PropOp38
 70
     1
102
RTVSPost2010Prop39
140
1.0
102
RTVSPost2010PropOp39
 70
     1
102
RTVSPost2010Prop40
 90
        0
102
RTVSPost2010PropOp40
 70
     1
102
RTVSPost2010Prop41ColorIndex
 90
       18
102
RTVSPost2010Prop41ColorRGB
 90
        0
102
RTVSPost2010PropOp41
 70
     1
102
RTVSPost2010Prop42
 90
       50
102
RTVSPost2010PropOp42
 70
     1
102
RTVSPost2010Prop43
 90
        3
102
RTVSPost2010PropOp43
 70
     1
102
RTVSPost2010Prop44ColorIndex
 90
        5
102
RTVSPost2010Prop44ColorRGB
 90
      255
102
RTVSPost2010PropOp44
 70
     1
102
RTVSPost2010Prop45
280
     0
102
RTVSPost2010PropOp45
 70
     1
102
RTVSPost2010Prop46
 90
       50
102
RTVSPost2010PropOp46
 70
     1
102
RTVSPost2010Prop47
 90
       50
102
RTVSPost2010PropOp47
 70
     1
102
RTVSPost2010Prop48
 90
       50
102
RTVSPost2010PropOp48
 70
     1
102
RTVSPost2010Prop49
280
     0
102
RTVSPost2010PropOp49
 70
     1
102
RTVSPost2010Prop50
 90
       50
102
RTVSPost2010PropOp50
 70
     1
102
RTVSPost2010Prop51ColorIndex
 90
      256
102
RTVSPost2010Prop51ColorRGB
 90
-16777216
102
RTVSPost2010PropOp51
 70
     0
102
RTVSPost2010Prop52
140
1.0
102
RTVSPost2010PropOp52
 70
     0
102
RTVSPost2010Prop53
 90
        2
102
RTVSPost2010PropOp53
 70
     1
102
RTVSPost2010Prop54
  1
strokes_ogs.tif
102
RTVSPost2010PropOp54
 70
     1
102
RTVSPost2010Prop55
280
     0
102
RTVSPost2010PropOp55
 70
     1
102
RTVSPost2010Prop56
140
1.0
102
RTVSPost2010PropOp56
 70
     1
102
RTVSPost2010Prop57
140
1.0
102
RTVSPost2010PropOp57
 70
     1
  0
XRECORD
  5
DA
102
{ACAD_REACTORS
330
D9
102
}
330
D9
100
AcDbXrecord
280
     1
102
RTVSPropertyOp0
 70
     1
102
RTVSPropertyOp1
 70
     1
102
RTVSPropertyOp2
 70
     1
102
RTVSPropertyOp3
 70
     1
102
RTVSPropertyOp4
 70
     1
102
RTVSPropertyOp5
 70
     1
102
RTVSPropertyOp6
 70
     1
102
RTVSPropertyOp7
 70
     1
102
RTVSPropertyOp8
 70
     1
102
RTVSPropertyOp9
 70
     1
102
RTVSPropertyOp10
 70
     1
102
RTVSPropertyOp11
 70
     1
102
RTVSPropertyOp12
 70
     1
102
RTVSPropertyOp13
 70
     1
102
RTVSPropertyOp14
 70
     1
102
RTVSPropertyOp15
 70
     1
102
RTVSPropertyOp16
 70
     1
102
RTVSPropertyOp17
 70
     1
102
RTVSPropertyOp18
 70
     1
102
RTVSPropertyOp19
 70
     1
102
RTVSPropertyOp20
 70
     1
102
RTVSPropertyOp21
 70
     1
102
RTVSPropertyOp22
 70
     1
102
RTVSPropertyOp23
 70
     1
102
RTVSPropertyOp24
 70
     1
102
RTVSPropertyOp25
 70
     1
102
RTVSPropertyOp26
 70
     1
102
RTVSPropertyOp27
 70
     1
102
RTVSPropertyOp28
 70
     1
102
RTVSPropertyOp29
 70
     1
102
RTVSPropertyOp30
 70
     1
102
RTVSPropertyOp31
 70
     1
102
RTVSPropertyOp32
 70
     1
102
RTVSPropertyOp33
 70
     1
102
RTVSPropertyOp34
 70
     1
102
RTVSPropertyOp35
 70
     1
102
RTVSPropertyOp36
 70
     1
102
RTVSPropertyOp37
 70
     1
102
RTVSPropertyOp38
 70
     1
102
RTVSPropertyOp39
 70
     1
102
RTVSPropertyOp40
 70
     1
102
RTVSPropertyOp41
 70
     1
102
RTVSPropertyOp42
 70
     1
102
RTVSPropertyOp43
 70
     1
102
RTVSPropertyOp44
 70
     1
102
RTVSPropertyOp45
 70
     1
102
RTVSPropertyOp46
 70
     1
102
RTVSPropertyOp47
 70
     1
102
RTVSPropertyOp48
 70
     1
102
RTVSPropertyOp49
 70
     1
102
RTVSPropertyOp50
 70
     1
102
RTVSPropertyOp51
 70
     0
102
RTVSPropertyOp52
 70
     0
102
RTVSPropertyOp53
 70
     1
102
RTVSPropertyOp54
 70
     1
102
RTVSPropertyOp55
 70
     1
102
RTVSPropertyOp56
 70
     1
102
RTVSPropertyOp57
 70
     1
102
RTVSPost2010Prop28
280
     0
102
RTVSPost2010PropOp28
 70
     1
102
RTVSPost2010Prop29
280
     1
102
RTVSPost2010PropOp29
 70
     1
102
RTVSPost2010Prop30
280
     1
102
RTVSPost2010PropOp30
 70
     1
102
RTVSPost2010Prop31
280
     0
102
RTVSPost2010PropOp31
 70
     1
102
RTVSPost2010Prop32
280
     0
102
RTVSPost2010PropOp32
 70
     1
102
RTVSPost2010Prop33
280
     0
102
RTVSPost2010PropOp33
 70
     1
102
RTVSPost2010Prop34
280
     0
102
RTVSPost2010PropOp34
 70
     1
102
RTVSPost2010Prop35
280
     0
102
RTVSPost2010PropOp35
 70
     1
102
RTVSPost2010Prop36
280
     0
102
RTVSPost2010PropOp36
 70
     1
102
RTVSPost2010Prop37
 90
       50
102
RTVSPost2010PropOp37
 70
     1
102
RTVSPost2010Prop38
140
0.0
102
RTVSPost2010PropOp38
 70
     1
102
RTVSPost2010Prop39
140
1.0
102
RTVSPost2010PropOp39
 70
     1
102
RTVSPost2010Prop40
 90
        0
102
RTVSPost2010PropOp40
 70
     1
102
RTVSPost2010Prop41ColorIndex
 90
       18
102
RTVSPost2010Prop41ColorRGB
 90
        0
102
RTVSPost2010PropOp41
 70
     1
102
RTVSPost2010Prop42
 90
       50
102
RTVSPost2010PropOp42
 70
     1
102
RTVSPost2010Prop43
 90
        3
102
RTVSPost2010PropOp43
 70
     1
102
RTVSPost2010Prop44ColorIndex
 90
        5
102
RTVSPost2010Prop44ColorRGB
 90
      255
102
RTVSPost2010PropOp44
 70
     1
102
RTVSPost2010Prop45
280
     0
102
RTVSPost2010PropOp45
 70
     1
102
RTVSPost2010Prop46
 90
       50
102
RTVSPost2010PropOp46
 70
     1
102
RTVSPost2010Prop47
 90
       50
102
RTVSPost2010PropOp47
 70
     1
102
RTVSPost2010Prop48
 90
       50
102
RTVSPost2010PropOp48
 70
     1
102
RTVSPost2010Prop49
280
     0
102
RTVSPost2010PropOp49
 70
     1
102
RTVSPost2010Prop50
 90
       50
102
RTVSPost2010PropOp50
 70
     1
102
RTVSPost2010Prop51ColorIndex
 90
      256
102
RTVSPost2010Prop51ColorRGB
 90
-16777216
102
RTVSPost2010PropOp51
 70
     0
102
RTVSPost2010Prop52
140
1.0
102
RTVSPost2010PropOp52
 70
     0
102
RTVSPost2010Prop53
 90
        2
102
RTVSPost2010PropOp53
 70
     1
102
RTVSPost2010Prop54
  1
strokes_ogs.tif
102
RTVSPost2010PropOp54
 70
     1
102
RTVSPost2010Prop55
280
     0
102
RTVSPost2010PropOp55
 70
     1
102
RTVSPost2010Prop56
140
1.0
102
RTVSPost2010PropOp56
 70
     1
102
RTVSPost2010Prop57
140
1.0
102
RTVSPost2010PropOp57
 70
     1
  0
XRECORD
  5
DC
102
{ACAD_REACTORS
330
DB
102
}
330
DB
100
AcDbXrecord
280
     1
102
RTVSPropertyOp0
 70
     1
102
RTVSPropertyOp1
 70
     1
102
RTVSPropertyOp2
 70
     1
102
RTVSPropertyOp3
 70
     1
102
RTVSPropertyOp4
 70
     1
102
RTVSPropertyOp5
 70
     1
102
RTVSPropertyOp6
 70
     1
102
RTVSPropertyOp7
 70
     1
102
RTVSPropertyOp8
 70
     1
102
RTVSPropertyOp9
 70
     1
102
RTVSPropertyOp10
 70
     1
102
RTVSPropertyOp11
 70
     1
102
RTVSPropertyOp12
 70
     1
102
RTVSPropertyOp13
 70
     1
102
RTVSPropertyOp14
 70
     1
102
RTVSPropertyOp15
 70
     1
102
RTVSPropertyOp16
 70
     1
102
RTVSPropertyOp17
 70
     1
102
RTVSPropertyOp18
 70
     1
102
RTVSPropertyOp19
 70
     1
102
RTVSPropertyOp20
 70
     1
102
RTVSPropertyOp21
 70
     1
102
RTVSPropertyOp22
 70
     1
102
RTVSPropertyOp23
 70
     1
102
RTVSPropertyOp24
 70
     1
102
RTVSPropertyOp25
 70
     1
102
RTVSPropertyOp26
 70
     1
102
RTVSPropertyOp27
 70
     1
102
RTVSPropertyOp28
 70
     1
102
RTVSPropertyOp29
 70
     1
102
RTVSPropertyOp30
 70
     1
102
RTVSPropertyOp31
 70
     1
102
RTVSPropertyOp32
 70
     1
102
RTVSPropertyOp33
 70
     1
102
RTVSPropertyOp34
 70
     1
102
RTVSPropertyOp35
 70
     1
102
RTVSPropertyOp36
 70
     1
102
RTVSPropertyOp37
 70
     1
102
RTVSPropertyOp38
 70
     1
102
RTVSPropertyOp39
 70
     1
102
RTVSPropertyOp40
 70
     1
102
RTVSPropertyOp41
 70
     1
102
RTVSPropertyOp42
 70
     1
102
RTVSPropertyOp43
 70
     1
102
RTVSPropertyOp44
 70
     1
102
RTVSPropertyOp45
 70
     1
102
RTVSPropertyOp46
 70
     1
102
RTVSPropertyOp47
 70
     1
102
RTVSPropertyOp48
 70
     1
102
RTVSPropertyOp49
 70
     1
102
RTVSPropertyOp50
 70
     1
102
RTVSPropertyOp51
 70
     0
102
RTVSPropertyOp52
 70
     0
102
RTVSPropertyOp53
 70
     1
102
RTVSPropertyOp54
 70
     1
102
RTVSPropertyOp55
 70
     1
102
RTVSPropertyOp56
 70
     1
102
RTVSPropertyOp57
 70
     1
102
RTVSPost2010Prop28
280
     0
102
RTVSPost2010PropOp28
 70
     1
102
RTVSPost2010Prop29
280
     1
102
RTVSPost2010PropOp29
 70
     1
102
RTVSPost2010Prop30
280
     1
102
RTVSPost2010PropOp30
 70
     1
102
RTVSPost2010Prop31
280
     0
102
RTVSPost2010PropOp31
 70
     1
102
RTVSPost2010Prop32
280
     0
102
RTVSPost2010PropOp32
 70
     1
102
RTVSPost2010Prop33
280
     0
102
RTVSPost2010PropOp33
 70
     1
102
RTVSPost2010Prop34
280
     0
102
RTVSPost2010PropOp34
 70
     1
102
RTVSPost2010Prop35
280
     0
102
RTVSPost2010PropOp35
 70
     1
102
RTVSPost2010Prop36
280
     0
102
RTVSPost2010PropOp36
 70
     1
102
RTVSPost2010Prop37
 90
       50
102
RTVSPost2010PropOp37
 70
     1
102
RTVSPost2010Prop38
140
0.0
102
RTVSPost2010PropOp38
 70
     1
102
RTVSPost2010Prop39
140
1.0
102
RTVSPost2010PropOp39
 70
     1
102
RTVSPost2010Prop40
 90
        0
102
RTVSPost2010PropOp40
 70
     1
102
RTVSPost2010Prop41ColorIndex
 90
       18
102
RTVSPost2010Prop41ColorRGB
 90
        0
102
RTVSPost2010PropOp41
 70
     1
102
RTVSPost2010Prop42
 90
       50
102
RTVSPost2010PropOp42
 70
     1
102
RTVSPost2010Prop43
 90
        3
102
RTVSPost2010PropOp43
 70
     1
102
RTVSPost2010Prop44ColorIndex
 90
        5
102
RTVSPost2010Prop44ColorRGB
 90
      255
102
RTVSPost2010PropOp44
 70
     1
102
RTVSPost2010Prop45
280
     0
102
RTVSPost2010PropOp45
 70
     1
102
RTVSPost2010Prop46
 90
       50
102
RTVSPost2010PropOp46
 70
     1
102
RTVSPost2010Prop47
 90
       50
102
RTVSPost2010PropOp47
 70
     1
102
RTVSPost2010Prop48
 90
       50
102
RTVSPost2010PropOp48
 70
     1
102
RTVSPost2010Prop49
280
     0
102
RTVSPost2010PropOp49
 70
     1
102
RTVSPost2010Prop50
 90
       50
102
RTVSPost2010PropOp50
 70
     1
102
RTVSPost2010Prop51ColorIndex
 90
      256
102
RTVSPost2010Prop51ColorRGB
 90
-16777216
102
RTVSPost2010PropOp51
 70
     0
102
RTVSPost2010Prop52
140
1.0
102
RTVSPost2010PropOp52
 70
     0
102
RTVSPost2010Prop53
 90
        2
102
RTVSPost2010PropOp53
 70
     1
102
RTVSPost2010Prop54
  1
strokes_ogs.tif
102
RTVSPost2010PropOp54
 70
     1
102
RTVSPost2010Prop55
280
     0
102
RTVSPost2010PropOp55
 70
     1
102
RTVSPost2010Prop56
140
1.0
102
RTVSPost2010PropOp56
 70
     1
102
RTVSPost2010Prop57
140
1.0
102
RTVSPost2010PropOp57
 70
     1
  0
XRECORD
  5
EC
102
{ACAD_REACTORS
330
EB
102
}
330
EB
100
AcDbXrecord
280
     1
102
RTVSPropertyOp0
 70
     0
102
RTVSPropertyOp1
 70
     0
102
RTVSPropertyOp2
 70
     0
102
RTVSPropertyOp3
 70
     0
102
RTVSPropertyOp4
 70
     0
102
RTVSPropertyOp5
 70
     0
102
RTVSPropertyOp6
 70
     0
102
RTVSPropertyOp7
 70
     0
102
RTVSPropertyOp8
 70
     0
102
RTVSPropertyOp9
 70
     0
102
RTVSPropertyOp10
 70
     0
102
RTVSPropertyOp11
 70
     0
102
RTVSPropertyOp12
 70
     0
102
RTVSPropertyOp13
 70
     0
102
RTVSPropertyOp14
 70
     2
102
RTVSPropertyOp15
 70
     0
102
RTVSPropertyOp16
 70
     0
102
RTVSPropertyOp17
 70
     0
102
RTVSPropertyOp18
 70
     0
102
RTVSPropertyOp19
 70
     0
102
RTVSPropertyOp20
 70
     0
102
RTVSPropertyOp21
 70
     0
102
RTVSPropertyOp22
 70
     0
102
RTVSPropertyOp23
 70
     0
102
RTVSPropertyOp24
 70
     0
102
RTVSPropertyOp25
 70
     0
102
RTVSPropertyOp26
 70
     0
102
RTVSPropertyOp27
 70
     0
102
RTVSPropertyOp28
 70
     0
102
RTVSPropertyOp29
 70
     0
102
RTVSPropertyOp30
 70
     0
102
RTVSPropertyOp31
 70
     0
102
RTVSPropertyOp32
 70
     0
102
RTVSPropertyOp33
 70
     0
102
RTVSPropertyOp34
 70
     0
102
RTVSPropertyOp35
 70
     0
102
RTVSPropertyOp36
 70
     0
102
RTVSPropertyOp37
 70
     0
102
RTVSPropertyOp38
 70
     0
102
RTVSPropertyOp39
 70
     0
102
RTVSPropertyOp40
 70
     0
102
RTVSPropertyOp41
 70
     0
102
RTVSPropertyOp42
 70
     0
102
RTVSPropertyOp43
 70
     0
102
RTVSPropertyOp44
 70
     0
102
RTVSPropertyOp45
 70
     0
102
RTVSPropertyOp46
 70
     0
102
RTVSPropertyOp47
 70
     0
102
RTVSPropertyOp48
 70
     0
102
RTVSPropertyOp49
 70
     0
102
RTVSPropertyOp50
 70
     0
102
RTVSPropertyOp51
 70
     0
102
RTVSPropertyOp52
 70
     0
102
RTVSPropertyOp53
 70
     0
102
RTVSPropertyOp54
 70
     0
102
RTVSPropertyOp55
 70
     0
102
RTVSPropertyOp56
 70
     0
102
RTVSPropertyOp57
 70
     0
102
RTVSPost2010Prop28
280
     0
102
RTVSPost2010PropOp28
 70
     0
102
RTVSPost2010Prop29
280
     1
102
RTVSPost2010PropOp29
 70
     0
102
RTVSPost2010Prop30
280
     1
102
RTVSPost2010PropOp30
 70
     0
102
RTVSPost2010Prop31
280
     0
102
RTVSPost2010PropOp31
 70
     0
102
RTVSPost2010Prop32
280
     0
102
RTVSPost2010PropOp32
 70
     0
102
RTVSPost2010Prop33
280
     0
102
RTVSPost2010PropOp33
 70
     0
102
RTVSPost2010Prop34
280
     0
102
RTVSPost2010PropOp34
 70
     0
102
RTVSPost2010Prop35
280
     0
102
RTVSPost2010PropOp35
 70
     0
102
RTVSPost2010Prop36
280
     0
102
RTVSPost2010PropOp36
 70
     0
102
RTVSPost2010Prop37
 90
       50
102
RTVSPost2010PropOp37
 70
     0
102
RTVSPost2010Prop38
140
0.0
102
RTVSPost2010PropOp38
 70
     0
102
RTVSPost2010Prop39
140
1.0
102
RTVSPost2010PropOp39
 70
     0
102
RTVSPost2010Prop40
 90
        0
102
RTVSPost2010PropOp40
 70
     0
102
RTVSPost2010Prop41ColorIndex
 90
       18
102
RTVSPost2010Prop41ColorRGB
 90
        0
102
RTVSPost2010PropOp41
 70
     0
102
RTVSPost2010Prop42
 90
       50
102
RTVSPost2010PropOp42
 70
     0
102
RTVSPost2010Prop43
 90
        3
102
RTVSPost2010PropOp43
 70
     0
102
RTVSPost2010Prop44ColorIndex
 90
        5
102
RTVSPost2010Prop44ColorRGB
 90
      255
102
RTVSPost2010PropOp44
 70
     0
102
RTVSPost2010Prop45
280
     0
102
RTVSPost2010PropOp45
 70
     0
102
RTVSPost2010Prop46
 90
       50
102
RTVSPost2010PropOp46
 70
     0
102
RTVSPost2010Prop47
 90
       50
102
RTVSPost2010PropOp47
 70
     0
102
RTVSPost2010Prop48
 90
       50
102
RTVSPost2010PropOp48
 70
     0
102
RTVSPost2010Prop49
280
     0
102
RTVSPost2010PropOp49
 70
     0
102
RTVSPost2010Prop50
 90
       50
102
RTVSPost2010PropOp50
 70
     0
102
RTVSPost2010Prop51ColorIndex
 90
      256
102
RTVSPost2010Prop51ColorRGB
 90
-16777216
102
RTVSPost2010PropOp51
 70
     0
102
RTVSPost2010Prop52
140
1.0
102
RTVSPost2010PropOp52
 70
     0
102
RTVSPost2010Prop53
 90
        2
102
RTVSPost2010PropOp53
 70
     0
102
RTVSPost2010Prop54
  1
strokes_ogs.tif
102
RTVSPost2010PropOp54
 70
     0
102
RTVSPost2010Prop55
280
     0
102
RTVSPost2010PropOp55
 70
     0
102
RTVSPost2010Prop56
140
1.0
102
RTVSPost2010PropOp56
 70
     0
102
RTVSPost2010Prop57
140
1.0
102
RTVSPost2010PropOp57
 70
     0
  0
XRECORD
  5
E4
102
{ACAD_REACTORS
330
E3
102
}
330
E3
100
AcDbXrecord
280
     1
102
RTVSPropertyOp0
 70
     1
102
RTVSPropertyOp1
 70
     1
102
RTVSPropertyOp2
 70
     1
102
RTVSPropertyOp3
 70
     1
102
RTVSPropertyOp4
 70
     1
102
RTVSPropertyOp5
 70
     1
102
RTVSPropertyOp6
 70
     1
102
RTVSPropertyOp7
 70
     1
102
RTVSPropertyOp8
 70
     1
102
RTVSPropertyOp9
 70
     1
102
RTVSPropertyOp10
 70
     1
102
RTVSPropertyOp11
 70
     1
102
RTVSPropertyOp12
 70
     1
102
RTVSPropertyOp13
 70
     1
102
RTVSPropertyOp14
 70
     1
102
RTVSPropertyOp15
 70
     1
102
RTVSPropertyOp16
 70
     1
102
RTVSPropertyOp17
 70
     1
102
RTVSPropertyOp18
 70
     1
102
RTVSPropertyOp19
 70
     1
102
RTVSPropertyOp20
 70
     1
102
RTVSPropertyOp21
 70
     1
102
RTVSPropertyOp22
 70
     1
102
RTVSPropertyOp23
 70
     1
102
RTVSPropertyOp24
 70
     1
102
RTVSPropertyOp25
 70
     1
102
RTVSPropertyOp26
 70
     1
102
RTVSPropertyOp27
 70
     1
102
RTVSPropertyOp28
 70
     1
102
RTVSPropertyOp29
 70
     1
102
RTVSPropertyOp30
 70
     1
102
RTVSPropertyOp31
 70
     1
102
RTVSPropertyOp32
 70
     1
102
RTVSPropertyOp33
 70
     1
102
RTVSPropertyOp34
 70
     1
102
RTVSPropertyOp35
 70
     1
102
RTVSPropertyOp36
 70
     1
102
RTVSPropertyOp37
 70
     1
102
RTVSPropertyOp38
 70
     1
102
RTVSPropertyOp39
 70
     1
102
RTVSPropertyOp40
 70
     1
102
RTVSPropertyOp41
 70
     1
102
RTVSPropertyOp42
 70
     1
102
RTVSPropertyOp43
 70
     1
102
RTVSPropertyOp44
 70
     1
102
RTVSPropertyOp45
 70
     1
102
RTVSPropertyOp46
 70
     1
102
RTVSPropertyOp47
 70
     1
102
RTVSPropertyOp48
 70
     1
102
RTVSPropertyOp49
 70
     1
102
RTVSPropertyOp50
 70
     1
102
RTVSPropertyOp51
 70
     0
102
RTVSPropertyOp52
 70
     0
102
RTVSPropertyOp53
 70
     1
102
RTVSPropertyOp54
 70
     1
102
RTVSPropertyOp55
 70
     1
102
RTVSPropertyOp56
 70
     1
102
RTVSPropertyOp57
 70
     1
102
RTVSPost2010Prop28
280
     0
102
RTVSPost2010PropOp28
 70
     1
102
RTVSPost2010Prop29
280
     1
102
RTVSPost2010PropOp29
 70
     1
102
RTVSPost2010Prop30
280
     1
102
RTVSPost2010PropOp30
 70
     1
102
RTVSPost2010Prop31
280
     0
102
RTVSPost2010PropOp31
 70
     1
102
RTVSPost2010Prop32
280
     0
102
RTVSPost2010PropOp32
 70
     1
102
RTVSPost2010Prop33
280
     0
102
RTVSPost2010PropOp33
 70
     1
102
RTVSPost2010Prop34
280
     0
102
RTVSPost2010PropOp34
 70
     1
102
RTVSPost2010Prop35
280
     0
102
RTVSPost2010PropOp35
 70
     1
102
RTVSPost2010Prop36
280
     0
102
RTVSPost2010PropOp36
 70
     1
102
RTVSPost2010Prop37
 90
       50
102
RTVSPost2010PropOp37
 70
     1
102
RTVSPost2010Prop38
140
0.0
102
RTVSPost2010PropOp38
 70
     1
102
RTVSPost2010Prop39
140
1.0
102
RTVSPost2010PropOp39
 70
     1
102
RTVSPost2010Prop40
 90
        0
102
RTVSPost2010PropOp40
 70
     1
102
RTVSPost2010Prop41ColorIndex
 90
       18
102
RTVSPost2010Prop41ColorRGB
 90
        0
102
RTVSPost2010PropOp41
 70
     1
102
RTVSPost2010Prop42
 90
       50
102
RTVSPost2010PropOp42
 70
     1
102
RTVSPost2010Prop43
 90
        3
102
RTVSPost2010PropOp43
 70
     1
102
RTVSPost2010Prop44ColorIndex
 90
        5
102
RTVSPost2010Prop44ColorRGB
 90
      255
102
RTVSPost2010PropOp44
 70
     1
102
RTVSPost2010Prop45
280
     0
102
RTVSPost2010PropOp45
 70
     1
102
RTVSPost2010Prop46
 90
       50
102
RTVSPost2010PropOp46
 70
     1
102
RTVSPost2010Prop47
 90
       50
102
RTVSPost2010PropOp47
 70
     1
102
RTVSPost2010Prop48
 90
       50
102
RTVSPost2010PropOp48
 70
     1
102
RTVSPost2010Prop49
280
     0
102
RTVSPost2010PropOp49
 70
     1
102
RTVSPost2010Prop50
 90
       50
102
RTVSPost2010PropOp50
 70
     1
102
RTVSPost2010Prop51ColorIndex
 90
      256
102
RTVSPost2010Prop51ColorRGB
 90
-16777216
102
RTVSPost2010PropOp51
 70
     0
102
RTVSPost2010Prop52
140
1.0
102
RTVSPost2010PropOp52
 70
     0
102
RTVSPost2010Prop53
 90
        2
102
RTVSPost2010PropOp53
 70
     1
102
RTVSPost2010Prop54
  1
strokes_ogs.tif
102
RTVSPost2010PropOp54
 70
     1
102
RTVSPost2010Prop55
280
     0
102
RTVSPost2010PropOp55
 70
     1
102
RTVSPost2010Prop56
140
1.0
102
RTVSPost2010PropOp56
 70
     1
102
RTVSPost2010Prop57
140
1.0
102
RTVSPost2010PropOp57
 70
     1
  0
XRECORD
  5
CA
102
{ACAD_REACTORS
330
C9
102
}
330
C9
100
AcDbXrecord
280
     1
102
RTVSPropertyOp0
 70
     1
102
RTVSPropertyOp1
 70
     1
102
RTVSPropertyOp2
 70
     1
102
RTVSPropertyOp3
 70
     1
102
RTVSPropertyOp4
 70
     1
102
RTVSPropertyOp5
 70
     1
102
RTVSPropertyOp6
 70
     1
102
RTVSPropertyOp7
 70
     1
102
RTVSPropertyOp8
 70
     1
102
RTVSPropertyOp9
 70
     1
102
RTVSPropertyOp10
 70
     1
102
RTVSPropertyOp11
 70
     1
102
RTVSPropertyOp12
 70
     1
102
RTVSPropertyOp13
 70
     1
102
RTVSPropertyOp14
 70
     1
102
RTVSPropertyOp15
 70
     1
102
RTVSPropertyOp16
 70
     1
102
RTVSPropertyOp17
 70
     1
102
RTVSPropertyOp18
 70
     1
102
RTVSPropertyOp19
 70
     1
102
RTVSPropertyOp20
 70
     1
102
RTVSPropertyOp21
 70
     1
102
RTVSPropertyOp22
 70
     1
102
RTVSPropertyOp23
 70
     1
102
RTVSPropertyOp24
 70
     1
102
RTVSPropertyOp25
 70
     1
102
RTVSPropertyOp26
 70
     1
102
RTVSPropertyOp27
 70
     1
102
RTVSPropertyOp28
 70
     1
102
RTVSPropertyOp29
 70
     1
102
RTVSPropertyOp30
 70
     1
102
RTVSPropertyOp31
 70
     1
102
RTVSPropertyOp32
 70
     1
102
RTVSPropertyOp33
 70
     1
102
RTVSPropertyOp34
 70
     1
102
RTVSPropertyOp35
 70
     1
102
RTVSPropertyOp36
 70
     1
102
RTVSPropertyOp37
 70
     1
102
RTVSPropertyOp38
 70
     1
102
RTVSPropertyOp39
 70
     1
102
RTVSPropertyOp40
 70
     1
102
RTVSPropertyOp41
 70
     1
102
RTVSPropertyOp42
 70
     1
102
RTVSPropertyOp43
 70
     1
102
RTVSPropertyOp44
 70
     1
102
RTVSPropertyOp45
 70
     1
102
RTVSPropertyOp46
 70
     1
102
RTVSPropertyOp47
 70
     1
102
RTVSPropertyOp48
 70
     1
102
RTVSPropertyOp49
 70
     1
102
RTVSPropertyOp50
 70
     1
102
RTVSPropertyOp51
 70
     0
102
RTVSPropertyOp52
 70
     0
102
RTVSPropertyOp53
 70
     1
102
RTVSPropertyOp54
 70
     1
102
RTVSPropertyOp55
 70
     1
102
RTVSPropertyOp56
 70
     1
102
RTVSPropertyOp57
 70
     1
102
RTVSPost2010Prop28
280
     0
102
RTVSPost2010PropOp28
 70
     1
102
RTVSPost2010Prop29
280
     1
102
RTVSPost2010PropOp29
 70
     1
102
RTVSPost2010Prop30
280
     1
102
RTVSPost2010PropOp30
 70
     1
102
RTVSPost2010Prop31
280
     0
102
RTVSPost2010PropOp31
 70
     1
102
RTVSPost2010Prop32
280
     0
102
RTVSPost2010PropOp32
 70
     1
102
RTVSPost2010Prop33
280
     0
102
RTVSPost2010PropOp33
 70
     1
102
RTVSPost2010Prop34
280
     0
102
RTVSPost2010PropOp34
 70
     1
102
RTVSPost2010Prop35
280
     0
102
RTVSPost2010PropOp35
 70
     1
102
RTVSPost2010Prop36
280
     0
102
RTVSPost2010PropOp36
 70
     1
102
RTVSPost2010Prop37
 90
       50
102
RTVSPost2010PropOp37
 70
     1
102
RTVSPost2010Prop38
140
0.0
102
RTVSPost2010PropOp38
 70
     1
102
RTVSPost2010Prop39
140
1.0
102
RTVSPost2010PropOp39
 70
     1
102
RTVSPost2010Prop40
 90
        0
102
RTVSPost2010PropOp40
 70
     1
102
RTVSPost2010Prop41ColorIndex
 90
       18
102
RTVSPost2010Prop41ColorRGB
 90
        0
102
RTVSPost2010PropOp41
 70
     1
102
RTVSPost2010Prop42
 90
       50
102
RTVSPost2010PropOp42
 70
     1
102
RTVSPost2010Prop43
 90
        3
102
RTVSPost2010PropOp43
 70
     1
102
RTVSPost2010Prop44ColorIndex
 90
        5
102
RTVSPost2010Prop44ColorRGB
 90
      255
102
RTVSPost2010PropOp44
 70
     1
102
RTVSPost2010Prop45
280
     0
102
RTVSPost2010PropOp45
 70
     1
102
RTVSPost2010Prop46
 90
       50
102
RTVSPost2010PropOp46
 70
     1
102
RTVSPost2010Prop47
 90
       50
102
RTVSPost2010PropOp47
 70
     1
102
RTVSPost2010Prop48
 90
       50
102
RTVSPost2010PropOp48
 70
     1
102
RTVSPost2010Prop49
280
     0
102
RTVSPost2010PropOp49
 70
     1
102
RTVSPost2010Prop50
 90
       50
102
RTVSPost2010PropOp50
 70
     1
102
RTVSPost2010Prop51ColorIndex
 90
      256
102
RTVSPost2010Prop51ColorRGB
 90
-16777216
102
RTVSPost2010PropOp51
 70
     0
102
RTVSPost2010Prop52
140
1.0
102
RTVSPost2010PropOp52
 70
     0
102
RTVSPost2010Prop53
 90
        2
102
RTVSPost2010PropOp53
 70
     1
102
RTVSPost2010Prop54
  1
strokes_ogs.tif
102
RTVSPost2010PropOp54
 70
     1
102
RTVSPost2010Prop55
280
     0
102
RTVSPost2010PropOp55
 70
     1
102
RTVSPost2010Prop56
140
1.0
102
RTVSPost2010PropOp56
 70
     1
102
RTVSPost2010Prop57
140
1.0
102
RTVSPost2010PropOp57
 70
     1
  0
XRECORD
  5
CC
102
{ACAD_REACTORS
330
CB
102
}
330
CB
100
AcDbXrecord
280
     1
102
RTVSPropertyOp0
 70
     1
102
RTVSPropertyOp1
 70
     1
102
RTVSPropertyOp2
 70
     1
102
RTVSPropertyOp3
 70
     1
102
RTVSPropertyOp4
 70
     1
102
RTVSPropertyOp5
 70
     1
102
RTVSPropertyOp6
 70
     1
102
RTVSPropertyOp7
 70
     1
102
RTVSPropertyOp8
 70
     1
102
RTVSPropertyOp9
 70
     1
102
RTVSPropertyOp10
 70
     1
102
RTVSPropertyOp11
 70
     1
102
RTVSPropertyOp12
 70
     1
102
RTVSPropertyOp13
 70
     1
102
RTVSPropertyOp14
 70
     1
102
RTVSPropertyOp15
 70
     1
102
RTVSPropertyOp16
 70
     1
102
RTVSPropertyOp17
 70
     1
102
RTVSPropertyOp18
 70
     1
102
RTVSPropertyOp19
 70
     1
102
RTVSPropertyOp20
 70
     1
102
RTVSPropertyOp21
 70
     1
102
RTVSPropertyOp22
 70
     1
102
RTVSPropertyOp23
 70
     1
102
RTVSPropertyOp24
 70
     1
102
RTVSPropertyOp25
 70
     1
102
RTVSPropertyOp26
 70
     1
102
RTVSPropertyOp27
 70
     1
102
RTVSPropertyOp28
 70
     1
102
RTVSPropertyOp29
 70
     1
102
RTVSPropertyOp30
 70
     1
102
RTVSPropertyOp31
 70
     1
102
RTVSPropertyOp32
 70
     1
102
RTVSPropertyOp33
 70
     1
102
RTVSPropertyOp34
 70
     1
102
RTVSPropertyOp35
 70
     1
102
RTVSPropertyOp36
 70
     1
102
RTVSPropertyOp37
 70
     1
102
RTVSPropertyOp38
 70
     1
102
RTVSPropertyOp39
 70
     1
102
RTVSPropertyOp40
 70
     1
102
RTVSPropertyOp41
 70
     1
102
RTVSPropertyOp42
 70
     1
102
RTVSPropertyOp43
 70
     1
102
RTVSPropertyOp44
 70
     1
102
RTVSPropertyOp45
 70
     1
102
RTVSPropertyOp46
 70
     1
102
RTVSPropertyOp47
 70
     1
102
RTVSPropertyOp48
 70
     1
102
RTVSPropertyOp49
 70
     1
102
RTVSPropertyOp50
 70
     1
102
RTVSPropertyOp51
 70
     0
102
RTVSPropertyOp52
 70
     0
102
RTVSPropertyOp53
 70
     1
102
RTVSPropertyOp54
 70
     1
102
RTVSPropertyOp55
 70
     1
102
RTVSPropertyOp56
 70
     1
102
RTVSPropertyOp57
 70
     1
102
RTVSPost2010Prop28
280
     0
102
RTVSPost2010PropOp28
 70
     1
102
RTVSPost2010Prop29
280
     1
102
RTVSPost2010PropOp29
 70
     1
102
RTVSPost2010Prop30
280
     1
102
RTVSPost2010PropOp30
 70
     1
102
RTVSPost2010Prop31
280
     0
102
RTVSPost2010PropOp31
 70
     1
102
RTVSPost2010Prop32
280
     0
102
RTVSPost2010PropOp32
 70
     1
102
RTVSPost2010Prop33
280
     0
102
RTVSPost2010PropOp33
 70
     1
102
RTVSPost2010Prop34
280
     0
102
RTVSPost2010PropOp34
 70
     1
102
RTVSPost2010Prop35
280
     0
102
RTVSPost2010PropOp35
 70
     1
102
RTVSPost2010Prop36
280
     0
102
RTVSPost2010PropOp36
 70
     1
102
RTVSPost2010Prop37
 90
       50
102
RTVSPost2010PropOp37
 70
     1
102
RTVSPost2010Prop38
140
0.0
102
RTVSPost2010PropOp38
 70
     1
102
RTVSPost2010Prop39
140
1.0
102
RTVSPost2010PropOp39
 70
     1
102
RTVSPost2010Prop40
 90
        0
102
RTVSPost2010PropOp40
 70
     1
102
RTVSPost2010Prop41ColorIndex
 90
       18
102
RTVSPost2010Prop41ColorRGB
 90
        0
102
RTVSPost2010PropOp41
 70
     1
102
RTVSPost2010Prop42
 90
       50
102
RTVSPost2010PropOp42
 70
     1
102
RTVSPost2010Prop43
 90
        3
102
RTVSPost2010PropOp43
 70
     1
102
RTVSPost2010Prop44ColorIndex
 90
        5
102
RTVSPost2010Prop44ColorRGB
 90
      255
102
RTVSPost2010PropOp44
 70
     1
102
RTVSPost2010Prop45
280
     0
102
RTVSPost2010PropOp45
 70
     1
102
RTVSPost2010Prop46
 90
       50
102
RTVSPost2010PropOp46
 70
     1
102
RTVSPost2010Prop47
 90
       50
102
RTVSPost2010PropOp47
 70
     1
102
RTVSPost2010Prop48
 90
       50
102
RTVSPost2010PropOp48
 70
     1
102
RTVSPost2010Prop49
280
     0
102
RTVSPost2010PropOp49
 70
     1
102
RTVSPost2010Prop50
 90
       50
102
RTVSPost2010PropOp50
 70
     1
102
RTVSPost2010Prop51ColorIndex
 90
      256
102
RTVSPost2010Prop51ColorRGB
 90
-16777216
102
RTVSPost2010PropOp51
 70
     0
102
RTVSPost2010Prop52
140
1.0
102
RTVSPost2010PropOp52
 70
     0
102
RTVSPost2010Prop53
 90
        2
102
RTVSPost2010PropOp53
 70
     1
102
RTVSPost2010Prop54
  1
strokes_ogs.tif
102
RTVSPost2010PropOp54
 70
     1
102
RTVSPost2010Prop55
280
     0
102
RTVSPost2010PropOp55
 70
     1
102
RTVSPost2010Prop56
140
1.0
102
RTVSPost2010PropOp56
 70
     1
102
RTVSPost2010Prop57
140
1.0
102
RTVSPost2010PropOp57
 70
     1
  0
XRECORD
  5
CE
102
{ACAD_REACTORS
330
CD
102
}
330
CD
100
AcDbXrecord
280
     1
102
RTVSPropertyOp0
 70
     1
102
RTVSPropertyOp1
 70
     1
102
RTVSPropertyOp2
 70
     1
102
RTVSPropertyOp3
 70
     1
102
RTVSPropertyOp4
 70
     1
102
RTVSPropertyOp5
 70
     1
102
RTVSPropertyOp6
 70
     1
102
RTVSPropertyOp7
 70
     1
102
RTVSPropertyOp8
 70
     1
102
RTVSPropertyOp9
 70
     1
102
RTVSPropertyOp10
 70
     1
102
RTVSPropertyOp11
 70
     1
102
RTVSPropertyOp12
 70
     1
102
RTVSPropertyOp13
 70
     1
102
RTVSPropertyOp14
 70
     1
102
RTVSPropertyOp15
 70
     1
102
RTVSPropertyOp16
 70
     1
102
RTVSPropertyOp17
 70
     1
102
RTVSPropertyOp18
 70
     1
102
RTVSPropertyOp19
 70
     1
102
RTVSPropertyOp20
 70
     1
102
RTVSPropertyOp21
 70
     1
102
RTVSPropertyOp22
 70
     1
102
RTVSPropertyOp23
 70
     1
102
RTVSPropertyOp24
 70
     1
102
RTVSPropertyOp25
 70
     1
102
RTVSPropertyOp26
 70
     1
102
RTVSPropertyOp27
 70
     1
102
RTVSPropertyOp28
 70
     1
102
RTVSPropertyOp29
 70
     1
102
RTVSPropertyOp30
 70
     1
102
RTVSPropertyOp31
 70
     1
102
RTVSPropertyOp32
 70
     1
102
RTVSPropertyOp33
 70
     1
102
RTVSPropertyOp34
 70
     1
102
RTVSPropertyOp35
 70
     1
102
RTVSPropertyOp36
 70
     1
102
RTVSPropertyOp37
 70
     1
102
RTVSPropertyOp38
 70
     1
102
RTVSPropertyOp39
 70
     1
102
RTVSPropertyOp40
 70
     1
102
RTVSPropertyOp41
 70
     1
102
RTVSPropertyOp42
 70
     1
102
RTVSPropertyOp43
 70
     1
102
RTVSPropertyOp44
 70
     1
102
RTVSPropertyOp45
 70
     1
102
RTVSPropertyOp46
 70
     1
102
RTVSPropertyOp47
 70
     1
102
RTVSPropertyOp48
 70
     1
102
RTVSPropertyOp49
 70
     1
102
RTVSPropertyOp50
 70
     1
102
RTVSPropertyOp51
 70
     0
102
RTVSPropertyOp52
 70
     0
102
RTVSPropertyOp53
 70
     1
102
RTVSPropertyOp54
 70
     1
102
RTVSPropertyOp55
 70
     1
102
RTVSPropertyOp56
 70
     1
102
RTVSPropertyOp57
 70
     1
102
RTVSPost2010Prop28
280
     0
102
RTVSPost2010PropOp28
 70
     1
102
RTVSPost2010Prop29
280
     1
102
RTVSPost2010PropOp29
 70
     1
102
RTVSPost2010Prop30
280
     1
102
RTVSPost2010PropOp30
 70
     1
102
RTVSPost2010Prop31
280
     0
102
RTVSPost2010PropOp31
 70
     1
102
RTVSPost2010Prop32
280
     0
102
RTVSPost2010PropOp32
 70
     1
102
RTVSPost2010Prop33
280
     0
102
RTVSPost2010PropOp33
 70
     1
102
RTVSPost2010Prop34
280
     0
102
RTVSPost2010PropOp34
 70
     1
102
RTVSPost2010Prop35
280
     0
102
RTVSPost2010PropOp35
 70
     1
102
RTVSPost2010Prop36
280
     0
102
RTVSPost2010PropOp36
 70
     1
102
RTVSPost2010Prop37
 90
       50
102
RTVSPost2010PropOp37
 70
     1
102
RTVSPost2010Prop38
140
0.0
102
RTVSPost2010PropOp38
 70
     1
102
RTVSPost2010Prop39
140
1.0
102
RTVSPost2010PropOp39
 70
     1
102
RTVSPost2010Prop40
 90
        0
102
RTVSPost2010PropOp40
 70
     1
102
RTVSPost2010Prop41ColorIndex
 90
       18
102
RTVSPost2010Prop41ColorRGB
 90
        0
102
RTVSPost2010PropOp41
 70
     1
102
RTVSPost2010Prop42
 90
       50
102
RTVSPost2010PropOp42
 70
     1
102
RTVSPost2010Prop43
 90
        3
102
RTVSPost2010PropOp43
 70
     1
102
RTVSPost2010Prop44ColorIndex
 90
        5
102
RTVSPost2010Prop44ColorRGB
 90
      255
102
RTVSPost2010PropOp44
 70
     1
102
RTVSPost2010Prop45
280
     0
102
RTVSPost2010PropOp45
 70
     1
102
RTVSPost2010Prop46
 90
       50
102
RTVSPost2010PropOp46
 70
     1
102
RTVSPost2010Prop47
 90
       50
102
RTVSPost2010PropOp47
 70
     1
102
RTVSPost2010Prop48
 90
       50
102
RTVSPost2010PropOp48
 70
     1
102
RTVSPost2010Prop49
280
     0
102
RTVSPost2010PropOp49
 70
     1
102
RTVSPost2010Prop50
 90
       50
102
RTVSPost2010PropOp50
 70
     1
102
RTVSPost2010Prop51ColorIndex
 90
      256
102
RTVSPost2010Prop51ColorRGB
 90
-16777216
102
RTVSPost2010PropOp51
 70
     0
102
RTVSPost2010Prop52
140
1.0
102
RTVSPost2010PropOp52
 70
     0
102
RTVSPost2010Prop53
 90
        2
102
RTVSPost2010PropOp53
 70
     1
102
RTVSPost2010Prop54
  1
strokes_ogs.tif
102
RTVSPost2010PropOp54
 70
     1
102
RTVSPost2010Prop55
280
     0
102
RTVSPost2010PropOp55
 70
     1
102
RTVSPost2010Prop56
140
1.0
102
RTVSPost2010PropOp56
 70
     1
102
RTVSPost2010Prop57
140
1.0
102
RTVSPost2010PropOp57
 70
     1
  0
XRECORD
  5
D0
102
{ACAD_REACTORS
330
CF
102
}
330
CF
100
AcDbXrecord
280
     1
102
RTVSPropertyOp0
 70
     1
102
RTVSPropertyOp1
 70
     1
102
RTVSPropertyOp2
 70
     1
102
RTVSPropertyOp3
 70
     1
102
RTVSPropertyOp4
 70
     1
102
RTVSPropertyOp5
 70
     1
102
RTVSPropertyOp6
 70
     1
102
RTVSPropertyOp7
 70
     1
102
RTVSPropertyOp8
 70
     1
102
RTVSPropertyOp9
 70
     1
102
RTVSPropertyOp10
 70
     1
102
RTVSPropertyOp11
 70
     1
102
RTVSPropertyOp12
 70
     1
102
RTVSPropertyOp13
 70
     1
102
RTVSPropertyOp14
 70
     1
102
RTVSPropertyOp15
 70
     1
102
RTVSPropertyOp16
 70
     1
102
RTVSPropertyOp17
 70
     1
102
RTVSPropertyOp18
 70
     1
102
RTVSPropertyOp19
 70
     1
102
RTVSPropertyOp20
 70
     1
102
RTVSPropertyOp21
 70
     1
102
RTVSPropertyOp22
 70
     1
102
RTVSPropertyOp23
 70
     1
102
RTVSPropertyOp24
 70
     1
102
RTVSPropertyOp25
 70
     1
102
RTVSPropertyOp26
 70
     1
102
RTVSPropertyOp27
 70
     1
102
RTVSPropertyOp28
 70
     1
102
RTVSPropertyOp29
 70
     1
102
RTVSPropertyOp30
 70
     1
102
RTVSPropertyOp31
 70
     1
102
RTVSPropertyOp32
 70
     1
102
RTVSPropertyOp33
 70
     1
102
RTVSPropertyOp34
 70
     1
102
RTVSPropertyOp35
 70
     1
102
RTVSPropertyOp36
 70
     1
102
RTVSPropertyOp37
 70
     1
102
RTVSPropertyOp38
 70
     1
102
RTVSPropertyOp39
 70
     1
102
RTVSPropertyOp40
 70
     1
102
RTVSPropertyOp41
 70
     1
102
RTVSPropertyOp42
 70
     1
102
RTVSPropertyOp43
 70
     1
102
RTVSPropertyOp44
 70
     1
102
RTVSPropertyOp45
 70
     1
102
RTVSPropertyOp46
 70
     1
102
RTVSPropertyOp47
 70
     1
102
RTVSPropertyOp48
 70
     1
102
RTVSPropertyOp49
 70
     1
102
RTVSPropertyOp50
 70
     1
102
RTVSPropertyOp51
 70
     0
102
RTVSPropertyOp52
 70
     0
102
RTVSPropertyOp53
 70
     1
102
RTVSPropertyOp54
 70
     1
102
RTVSPropertyOp55
 70
     1
102
RTVSPropertyOp56
 70
     1
102
RTVSPropertyOp57
 70
     1
102
RTVSPost2010Prop28
280
     0
102
RTVSPost2010PropOp28
 70
     1
102
RTVSPost2010Prop29
280
     1
102
RTVSPost2010PropOp29
 70
     1
102
RTVSPost2010Prop30
280
     1
102
RTVSPost2010PropOp30
 70
     1
102
RTVSPost2010Prop31
280
     0
102
RTVSPost2010PropOp31
 70
     1
102
RTVSPost2010Prop32
280
     0
102
RTVSPost2010PropOp32
 70
     1
102
RTVSPost2010Prop33
280
     0
102
RTVSPost2010PropOp33
 70
     1
102
RTVSPost2010Prop34
280
     0
102
RTVSPost2010PropOp34
 70
     1
102
RTVSPost2010Prop35
280
     0
102
RTVSPost2010PropOp35
 70
     1
102
RTVSPost2010Prop36
280
     0
102
RTVSPost2010PropOp36
 70
     1
102
RTVSPost2010Prop37
 90
       50
102
RTVSPost2010PropOp37
 70
     1
102
RTVSPost2010Prop38
140
0.0
102
RTVSPost2010PropOp38
 70
     1
102
RTVSPost2010Prop39
140
1.0
102
RTVSPost2010PropOp39
 70
     1
102
RTVSPost2010Prop40
 90
        0
102
RTVSPost2010PropOp40
 70
     1
102
RTVSPost2010Prop41ColorIndex
 90
       18
102
RTVSPost2010Prop41ColorRGB
 90
        0
102
RTVSPost2010PropOp41
 70
     1
102
RTVSPost2010Prop42
 90
       50
102
RTVSPost2010PropOp42
 70
     1
102
RTVSPost2010Prop43
 90
        3
102
RTVSPost2010PropOp43
 70
     1
102
RTVSPost2010Prop44ColorIndex
 90
        5
102
RTVSPost2010Prop44ColorRGB
 90
      255
102
RTVSPost2010PropOp44
 70
     1
102
RTVSPost2010Prop45
280
     0
102
RTVSPost2010PropOp45
 70
     1
102
RTVSPost2010Prop46
 90
       50
102
RTVSPost2010PropOp46
 70
     1
102
RTVSPost2010Prop47
 90
       50
102
RTVSPost2010PropOp47
 70
     1
102
RTVSPost2010Prop48
 90
       50
102
RTVSPost2010PropOp48
 70
     1
102
RTVSPost2010Prop49
280
     0
102
RTVSPost2010PropOp49
 70
     1
102
RTVSPost2010Prop50
 90
       50
102
RTVSPost2010PropOp50
 70
     1
102
RTVSPost2010Prop51ColorIndex
 90
      256
102
RTVSPost2010Prop51ColorRGB
 90
-16777216
102
RTVSPost2010PropOp51
 70
     0
102
RTVSPost2010Prop52
140
1.0
102
RTVSPost2010PropOp52
 70
     0
102
RTVSPost2010Prop53
 90
        2
102
RTVSPost2010PropOp53
 70
     1
102
RTVSPost2010Prop54
  1
strokes_ogs.tif
102
RTVSPost2010PropOp54
 70
     1
102
RTVSPost2010Prop55
280
     0
102
RTVSPost2010PropOp55
 70
     1
102
RTVSPost2010Prop56
140
1.0
102
RTVSPost2010PropOp56
 70
     1
102
RTVSPost2010Prop57
140
1.0
102
RTVSPost2010PropOp57
 70
     1
  0
XRECORD
  5
D4
102
{ACAD_REACTORS
330
D3
102
}
330
D3
100
AcDbXrecord
280
     1
102
RTVSPropertyOp0
 70
     1
102
RTVSPropertyOp1
 70
     1
102
RTVSPropertyOp2
 70
     1
102
RTVSPropertyOp3
 70
     1
102
RTVSPropertyOp4
 70
     1
102
RTVSPropertyOp5
 70
     1
102
RTVSPropertyOp6
 70
     1
102
RTVSPropertyOp7
 70
     1
102
RTVSPropertyOp8
 70
     1
102
RTVSPropertyOp9
 70
     1
102
RTVSPropertyOp10
 70
     1
102
RTVSPropertyOp11
 70
     1
102
RTVSPropertyOp12
 70
     1
102
RTVSPropertyOp13
 70
     1
102
RTVSPropertyOp14
 70
     1
102
RTVSPropertyOp15
 70
     1
102
RTVSPropertyOp16
 70
     1
102
RTVSPropertyOp17
 70
     1
102
RTVSPropertyOp18
 70
     1
102
RTVSPropertyOp19
 70
     1
102
RTVSPropertyOp20
 70
     1
102
RTVSPropertyOp21
 70
     1
102
RTVSPropertyOp22
 70
     1
102
RTVSPropertyOp23
 70
     1
102
RTVSPropertyOp24
 70
     1
102
RTVSPropertyOp25
 70
     1
102
RTVSPropertyOp26
 70
     1
102
RTVSPropertyOp27
 70
     1
102
RTVSPropertyOp28
 70
     1
102
RTVSPropertyOp29
 70
     1
102
RTVSPropertyOp30
 70
     1
102
RTVSPropertyOp31
 70
     1
102
RTVSPropertyOp32
 70
     1
102
RTVSPropertyOp33
 70
     1
102
RTVSPropertyOp34
 70
     1
102
RTVSPropertyOp35
 70
     1
102
RTVSPropertyOp36
 70
     1
102
RTVSPropertyOp37
 70
     1
102
RTVSPropertyOp38
 70
     1
102
RTVSPropertyOp39
 70
     1
102
RTVSPropertyOp40
 70
     1
102
RTVSPropertyOp41
 70
     1
102
RTVSPropertyOp42
 70
     1
102
RTVSPropertyOp43
 70
     1
102
RTVSPropertyOp44
 70
     1
102
RTVSPropertyOp45
 70
     1
102
RTVSPropertyOp46
 70
     1
102
RTVSPropertyOp47
 70
     1
102
RTVSPropertyOp48
 70
     1
102
RTVSPropertyOp49
 70
     1
102
RTVSPropertyOp50
 70
     1
102
RTVSPropertyOp51
 70
     0
102
RTVSPropertyOp52
 70
     0
102
RTVSPropertyOp53
 70
     1
102
RTVSPropertyOp54
 70
     1
102
RTVSPropertyOp55
 70
     1
102
RTVSPropertyOp56
 70
     1
102
RTVSPropertyOp57
 70
     1
102
RTVSPost2010Prop28
280
     0
102
RTVSPost2010PropOp28
 70
     1
102
RTVSPost2010Prop29
280
     1
102
RTVSPost2010PropOp29
 70
     1
102
RTVSPost2010Prop30
280
     1
102
RTVSPost2010PropOp30
 70
     1
102
RTVSPost2010Prop31
280
     0
102
RTVSPost2010PropOp31
 70
     1
102
RTVSPost2010Prop32
280
     0
102
RTVSPost2010PropOp32
 70
     1
102
RTVSPost2010Prop33
280
     0
102
RTVSPost2010PropOp33
 70
     1
102
RTVSPost2010Prop34
280
     0
102
RTVSPost2010PropOp34
 70
     1
102
RTVSPost2010Prop35
280
     0
102
RTVSPost2010PropOp35
 70
     1
102
RTVSPost2010Prop36
280
     0
102
RTVSPost2010PropOp36
 70
     1
102
RTVSPost2010Prop37
 90
       50
102
RTVSPost2010PropOp37
 70
     1
102
RTVSPost2010Prop38
140
0.0
102
RTVSPost2010PropOp38
 70
     1
102
RTVSPost2010Prop39
140
1.0
102
RTVSPost2010PropOp39
 70
     1
102
RTVSPost2010Prop40
 90
        0
102
RTVSPost2010PropOp40
 70
     1
102
RTVSPost2010Prop41ColorIndex
 90
       18
102
RTVSPost2010Prop41ColorRGB
 90
        0
102
RTVSPost2010PropOp41
 70
     1
102
RTVSPost2010Prop42
 90
       50
102
RTVSPost2010PropOp42
 70
     1
102
RTVSPost2010Prop43
 90
        3
102
RTVSPost2010PropOp43
 70
     1
102
RTVSPost2010Prop44ColorIndex
 90
        5
102
RTVSPost2010Prop44ColorRGB
 90
      255
102
RTVSPost2010PropOp44
 70
     1
102
RTVSPost2010Prop45
280
     0
102
RTVSPost2010PropOp45
 70
     1
102
RTVSPost2010Prop46
 90
       50
102
RTVSPost2010PropOp46
 70
     1
102
RTVSPost2010Prop47
 90
       50
102
RTVSPost2010PropOp47
 70
     1
102
RTVSPost2010Prop48
 90
       50
102
RTVSPost2010PropOp48
 70
     1
102
RTVSPost2010Prop49
280
     0
102
RTVSPost2010PropOp49
 70
     1
102
RTVSPost2010Prop50
 90
       50
102
RTVSPost2010PropOp50
 70
     1
102
RTVSPost2010Prop51ColorIndex
 90
      256
102
RTVSPost2010Prop51ColorRGB
 90
-16777216
102
RTVSPost2010PropOp51
 70
     0
102
RTVSPost2010Prop52
140
1.0
102
RTVSPost2010PropOp52
 70
     0
102
RTVSPost2010Prop53
 90
        2
102
RTVSPost2010PropOp53
 70
     1
102
RTVSPost2010Prop54
  1
strokes_ogs.tif
102
RTVSPost2010PropOp54
 70
     1
102
RTVSPost2010Prop55
280
     0
102
RTVSPost2010PropOp55
 70
     1
102
RTVSPost2010Prop56
140
1.0
102
RTVSPost2010PropOp56
 70
     1
102
RTVSPost2010Prop57
140
1.0
102
RTVSPost2010PropOp57
 70
     1
  0
XRECORD
  5
E8
102
{ACAD_REACTORS
330
E7
102
}
330
E7
100
AcDbXrecord
280
     1
102
RTVSPropertyOp0
 70
     0
102
RTVSPropertyOp1
 70
     0
102
RTVSPropertyOp2
 70
     0
102
RTVSPropertyOp3
 70
     0
102
RTVSPropertyOp4
 70
     0
102
RTVSPropertyOp5
 70
     0
102
RTVSPropertyOp6
 70
     0
102
RTVSPropertyOp7
 70
     0
102
RTVSPropertyOp8
 70
     0
102
RTVSPropertyOp9
 70
     0
102
RTVSPropertyOp10
 70
     0
102
RTVSPropertyOp11
 70
     0
102
RTVSPropertyOp12
 70
     0
102
RTVSPropertyOp13
 70
     0
102
RTVSPropertyOp14
 70
     2
102
RTVSPropertyOp15
 70
     0
102
RTVSPropertyOp16
 70
     0
102
RTVSPropertyOp17
 70
     0
102
RTVSPropertyOp18
 70
     0
102
RTVSPropertyOp19
 70
     0
102
RTVSPropertyOp20
 70
     0
102
RTVSPropertyOp21
 70
     0
102
RTVSPropertyOp22
 70
     0
102
RTVSPropertyOp23
 70
     0
102
RTVSPropertyOp24
 70
     0
102
RTVSPropertyOp25
 70
     0
102
RTVSPropertyOp26
 70
     0
102
RTVSPropertyOp27
 70
     0
102
RTVSPropertyOp28
 70
     0
102
RTVSPropertyOp29
 70
     0
102
RTVSPropertyOp30
 70
     0
102
RTVSPropertyOp31
 70
     0
102
RTVSPropertyOp32
 70
     0
102
RTVSPropertyOp33
 70
     0
102
RTVSPropertyOp34
 70
     0
102
RTVSPropertyOp35
 70
     0
102
RTVSPropertyOp36
 70
     0
102
RTVSPropertyOp37
 70
     0
102
RTVSPropertyOp38
 70
     0
102
RTVSPropertyOp39
 70
     0
102
RTVSPropertyOp40
 70
     0
102
RTVSPropertyOp41
 70
     0
102
RTVSPropertyOp42
 70
     0
102
RTVSPropertyOp43
 70
     0
102
RTVSPropertyOp44
 70
     0
102
RTVSPropertyOp45
 70
     0
102
RTVSPropertyOp46
 70
     0
102
RTVSPropertyOp47
 70
     0
102
RTVSPropertyOp48
 70
     0
102
RTVSPropertyOp49
 70
     0
102
RTVSPropertyOp50
 70
     0
102
RTVSPropertyOp51
 70
     0
102
RTVSPropertyOp52
 70
     0
102
RTVSPropertyOp53
 70
     0
102
RTVSPropertyOp54
 70
     0
102
RTVSPropertyOp55
 70
     0
102
RTVSPropertyOp56
 70
     0
102
RTVSPropertyOp57
 70
     0
102
RTVSPost2010Prop28
280
     0
102
RTVSPost2010PropOp28
 70
     0
102
RTVSPost2010Prop29
280
     1
102
RTVSPost2010PropOp29
 70
     0
102
RTVSPost2010Prop30
280
     1
102
RTVSPost2010PropOp30
 70
     0
102
RTVSPost2010Prop31
280
     0
102
RTVSPost2010PropOp31
 70
     0
102
RTVSPost2010Prop32
280
     0
102
RTVSPost2010PropOp32
 70
     0
102
RTVSPost2010Prop33
280
     0
102
RTVSPost2010PropOp33
 70
     0
102
RTVSPost2010Prop34
280
     0
102
RTVSPost2010PropOp34
 70
     0
102
RTVSPost2010Prop35
280
     0
102
RTVSPost2010PropOp35
 70
     0
102
RTVSPost2010Prop36
280
     0
102
RTVSPost2010PropOp36
 70
     0
102
RTVSPost2010Prop37
 90
       50
102
RTVSPost2010PropOp37
 70
     0
102
RTVSPost2010Prop38
140
0.0
102
RTVSPost2010PropOp38
 70
     0
102
RTVSPost2010Prop39
140
1.0
102
RTVSPost2010PropOp39
 70
     0
102
RTVSPost2010Prop40
 90
        0
102
RTVSPost2010PropOp40
 70
     0
102
RTVSPost2010Prop41ColorIndex
 90
       18
102
RTVSPost2010Prop41ColorRGB
 90
        0
102
RTVSPost2010PropOp41
 70
     0
102
RTVSPost2010Prop42
 90
       50
102
RTVSPost2010PropOp42
 70
     0
102
RTVSPost2010Prop43
 90
        3
102
RTVSPost2010PropOp43
 70
     0
102
RTVSPost2010Prop44ColorIndex
 90
        5
102
RTVSPost2010Prop44ColorRGB
 90
      255
102
RTVSPost2010PropOp44
 70
     0
102
RTVSPost2010Prop45
280
     0
102
RTVSPost2010PropOp45
 70
     0
102
RTVSPost2010Prop46
 90
       50
102
RTVSPost2010PropOp46
 70
     0
102
RTVSPost2010Prop47
 90
       50
102
RTVSPost2010PropOp47
 70
     0
102
RTVSPost2010Prop48
 90
       50
102
RTVSPost2010PropOp48
 70
     0
102
RTVSPost2010Prop49
280
     0
102
RTVSPost2010PropOp49
 70
     0
102
RTVSPost2010Prop50
 90
       50
102
RTVSPost2010PropOp50
 70
     0
102
RTVSPost2010Prop51ColorIndex
 90
      256
102
RTVSPost2010Prop51ColorRGB
 90
-16777216
102
RTVSPost2010PropOp51
 70
     0
102
RTVSPost2010Prop52
140
1.0
102
RTVSPost2010PropOp52
 70
     0
102
RTVSPost2010Prop53
 90
        2
102
RTVSPost2010PropOp53
 70
     0
102
RTVSPost2010Prop54
  1
strokes_ogs.tif
102
RTVSPost2010PropOp54
 70
     0
102
RTVSPost2010Prop55
280
     0
102
RTVSPost2010PropOp55
 70
     0
102
RTVSPost2010Prop56
140
1.0
102
RTVSPost2010PropOp56
 70
     0
102
RTVSPost2010Prop57
140
1.0
102
RTVSPost2010PropOp57
 70
     0
  0
XRECORD
  5
E2
102
{ACAD_REACTORS
330
E1
102
}
330
E1
100
AcDbXrecord
280
     1
102
RTVSPropertyOp0
 70
     1
102
RTVSPropertyOp1
 70
     1
102
RTVSPropertyOp2
 70
     1
102
RTVSPropertyOp3
 70
     1
102
RTVSPropertyOp4
 70
     1
102
RTVSPropertyOp5
 70
     1
102
RTVSPropertyOp6
 70
     1
102
RTVSPropertyOp7
 70
     1
102
RTVSPropertyOp8
 70
     1
102
RTVSPropertyOp9
 70
     1
102
RTVSPropertyOp10
 70
     1
102
RTVSPropertyOp11
 70
     1
102
RTVSPropertyOp12
 70
     1
102
RTVSPropertyOp13
 70
     1
102
RTVSPropertyOp14
 70
     1
102
RTVSPropertyOp15
 70
     1
102
RTVSPropertyOp16
 70
     1
102
RTVSPropertyOp17
 70
     1
102
RTVSPropertyOp18
 70
     1
102
RTVSPropertyOp19
 70
     1
102
RTVSPropertyOp20
 70
     1
102
RTVSPropertyOp21
 70
     1
102
RTVSPropertyOp22
 70
     1
102
RTVSPropertyOp23
 70
     1
102
RTVSPropertyOp24
 70
     1
102
RTVSPropertyOp25
 70
     1
102
RTVSPropertyOp26
 70
     1
102
RTVSPropertyOp27
 70
     1
102
RTVSPropertyOp28
 70
     1
102
RTVSPropertyOp29
 70
     1
102
RTVSPropertyOp30
 70
     1
102
RTVSPropertyOp31
 70
     1
102
RTVSPropertyOp32
 70
     1
102
RTVSPropertyOp33
 70
     1
102
RTVSPropertyOp34
 70
     1
102
RTVSPropertyOp35
 70
     1
102
RTVSPropertyOp36
 70
     1
102
RTVSPropertyOp37
 70
     1
102
RTVSPropertyOp38
 70
     1
102
RTVSPropertyOp39
 70
     1
102
RTVSPropertyOp40
 70
     1
102
RTVSPropertyOp41
 70
     1
102
RTVSPropertyOp42
 70
     1
102
RTVSPropertyOp43
 70
     1
102
RTVSPropertyOp44
 70
     1
102
RTVSPropertyOp45
 70
     1
102
RTVSPropertyOp46
 70
     1
102
RTVSPropertyOp47
 70
     1
102
RTVSPropertyOp48
 70
     1
102
RTVSPropertyOp49
 70
     1
102
RTVSPropertyOp50
 70
     1
102
RTVSPropertyOp51
 70
     0
102
RTVSPropertyOp52
 70
     0
102
RTVSPropertyOp53
 70
     1
102
RTVSPropertyOp54
 70
     1
102
RTVSPropertyOp55
 70
     1
102
RTVSPropertyOp56
 70
     1
102
RTVSPropertyOp57
 70
     1
102
RTVSPost2010Prop28
280
     0
102
RTVSPost2010PropOp28
 70
     1
102
RTVSPost2010Prop29
280
     1
102
RTVSPost2010PropOp29
 70
     1
102
RTVSPost2010Prop30
280
     1
102
RTVSPost2010PropOp30
 70
     1
102
RTVSPost2010Prop31
280
     0
102
RTVSPost2010PropOp31
 70
     1
102
RTVSPost2010Prop32
280
     0
102
RTVSPost2010PropOp32
 70
     1
102
RTVSPost2010Prop33
280
     0
102
RTVSPost2010PropOp33
 70
     1
102
RTVSPost2010Prop34
280
     0
102
RTVSPost2010PropOp34
 70
     1
102
RTVSPost2010Prop35
280
     0
102
RTVSPost2010PropOp35
 70
     1
102
RTVSPost2010Prop36
280
     0
102
RTVSPost2010PropOp36
 70
     1
102
RTVSPost2010Prop37
 90
       50
102
RTVSPost2010PropOp37
 70
     1
102
RTVSPost2010Prop38
140
0.0
102
RTVSPost2010PropOp38
 70
     1
102
RTVSPost2010Prop39
140
1.0
102
RTVSPost2010PropOp39
 70
     1
102
RTVSPost2010Prop40
 90
        0
102
RTVSPost2010PropOp40
 70
     1
102
RTVSPost2010Prop41ColorIndex
 90
       18
102
RTVSPost2010Prop41ColorRGB
 90
        0
102
RTVSPost2010PropOp41
 70
     1
102
RTVSPost2010Prop42
 90
       50
102
RTVSPost2010PropOp42
 70
     1
102
RTVSPost2010Prop43
 90
        3
102
RTVSPost2010PropOp43
 70
     1
102
RTVSPost2010Prop44ColorIndex
 90
        5
102
RTVSPost2010Prop44ColorRGB
 90
      255
102
RTVSPost2010PropOp44
 70
     1
102
RTVSPost2010Prop45
280
     0
102
RTVSPost2010PropOp45
 70
     1
102
RTVSPost2010Prop46
 90
       50
102
RTVSPost2010PropOp46
 70
     1
102
RTVSPost2010Prop47
 90
       50
102
RTVSPost2010PropOp47
 70
     1
102
RTVSPost2010Prop48
 90
       50
102
RTVSPost2010PropOp48
 70
     1
102
RTVSPost2010Prop49
280
     0
102
RTVSPost2010PropOp49
 70
     1
102
RTVSPost2010Prop50
 90
       50
102
RTVSPost2010PropOp50
 70
     1
102
RTVSPost2010Prop51ColorIndex
 90
      256
102
RTVSPost2010Prop51ColorRGB
 90
-16777216
102
RTVSPost2010PropOp51
 70
     0
102
RTVSPost2010Prop52
140
1.0
102
RTVSPost2010PropOp52
 70
     0
102
RTVSPost2010Prop53
 90
        2
102
RTVSPost2010PropOp53
 70
     1
102
RTVSPost2010Prop54
  1
strokes_ogs.tif
102
RTVSPost2010PropOp54
 70
     1
102
RTVSPost2010Prop55
280
     0
102
RTVSPost2010PropOp55
 70
     1
102
RTVSPost2010Prop56
140
1.0
102
RTVSPost2010PropOp56
 70
     1
102
RTVSPost2010Prop57
140
1.0
102
RTVSPost2010PropOp57
 70
     1
  0
XRECORD
  5
EA
102
{ACAD_REACTORS
330
E9
102
}
330
E9
100
AcDbXrecord
280
     1
102
RTVSPropertyOp0
 70
     0
102
RTVSPropertyOp1
 70
     0
102
RTVSPropertyOp2
 70
     0
102
RTVSPropertyOp3
 70
     0
102
RTVSPropertyOp4
 70
     0
102
RTVSPropertyOp5
 70
     0
102
RTVSPropertyOp6
 70
     0
102
RTVSPropertyOp7
 70
     0
102
RTVSPropertyOp8
 70
     0
102
RTVSPropertyOp9
 70
     0
102
RTVSPropertyOp10
 70
     0
102
RTVSPropertyOp11
 70
     0
102
RTVSPropertyOp12
 70
     0
102
RTVSPropertyOp13
 70
     0
102
RTVSPropertyOp14
 70
     2
102
RTVSPropertyOp15
 70
     0
102
RTVSPropertyOp16
 70
     0
102
RTVSPropertyOp17
 70
     0
102
RTVSPropertyOp18
 70
     0
102
RTVSPropertyOp19
 70
     0
102
RTVSPropertyOp20
 70
     0
102
RTVSPropertyOp21
 70
     0
102
RTVSPropertyOp22
 70
     0
102
RTVSPropertyOp23
 70
     0
102
RTVSPropertyOp24
 70
     0
102
RTVSPropertyOp25
 70
     0
102
RTVSPropertyOp26
 70
     0
102
RTVSPropertyOp27
 70
     0
102
RTVSPropertyOp28
 70
     0
102
RTVSPropertyOp29
 70
     0
102
RTVSPropertyOp30
 70
     0
102
RTVSPropertyOp31
 70
     0
102
RTVSPropertyOp32
 70
     0
102
RTVSPropertyOp33
 70
     0
102
RTVSPropertyOp34
 70
     0
102
RTVSPropertyOp35
 70
     0
102
RTVSPropertyOp36
 70
     0
102
RTVSPropertyOp37
 70
     0
102
RTVSPropertyOp38
 70
     0
102
RTVSPropertyOp39
 70
     0
102
RTVSPropertyOp40
 70
     0
102
RTVSPropertyOp41
 70
     0
102
RTVSPropertyOp42
 70
     0
102
RTVSPropertyOp43
 70
     0
102
RTVSPropertyOp44
 70
     0
102
RTVSPropertyOp45
 70
     0
102
RTVSPropertyOp46
 70
     0
102
RTVSPropertyOp47
 70
     0
102
RTVSPropertyOp48
 70
     0
102
RTVSPropertyOp49
 70
     0
102
RTVSPropertyOp50
 70
     0
102
RTVSPropertyOp51
 70
     0
102
RTVSPropertyOp52
 70
     0
102
RTVSPropertyOp53
 70
     0
102
RTVSPropertyOp54
 70
     0
102
RTVSPropertyOp55
 70
     0
102
RTVSPropertyOp56
 70
     0
102
RTVSPropertyOp57
 70
     0
102
RTVSPost2010Prop28
280
     0
102
RTVSPost2010PropOp28
 70
     0
102
RTVSPost2010Prop29
280
     1
102
RTVSPost2010PropOp29
 70
     0
102
RTVSPost2010Prop30
280
     1
102
RTVSPost2010PropOp30
 70
     0
102
RTVSPost2010Prop31
280
     0
102
RTVSPost2010PropOp31
 70
     0
102
RTVSPost2010Prop32
280
     0
102
RTVSPost2010PropOp32
 70
     0
102
RTVSPost2010Prop33
280
     0
102
RTVSPost2010PropOp33
 70
     0
102
RTVSPost2010Prop34
280
     0
102
RTVSPost2010PropOp34
 70
     0
102
RTVSPost2010Prop35
280
     0
102
RTVSPost2010PropOp35
 70
     0
102
RTVSPost2010Prop36
280
     0
102
RTVSPost2010PropOp36
 70
     0
102
RTVSPost2010Prop37
 90
       50
102
RTVSPost2010PropOp37
 70
     0
102
RTVSPost2010Prop38
140
0.0
102
RTVSPost2010PropOp38
 70
     0
102
RTVSPost2010Prop39
140
1.0
102
RTVSPost2010PropOp39
 70
     0
102
RTVSPost2010Prop40
 90
        0
102
RTVSPost2010PropOp40
 70
     0
102
RTVSPost2010Prop41ColorIndex
 90
       18
102
RTVSPost2010Prop41ColorRGB
 90
        0
102
RTVSPost2010PropOp41
 70
     0
102
RTVSPost2010Prop42
 90
       50
102
RTVSPost2010PropOp42
 70
     0
102
RTVSPost2010Prop43
 90
        3
102
RTVSPost2010PropOp43
 70
     0
102
RTVSPost2010Prop44ColorIndex
 90
        5
102
RTVSPost2010Prop44ColorRGB
 90
      255
102
RTVSPost2010PropOp44
 70
     0
102
RTVSPost2010Prop45
280
     0
102
RTVSPost2010PropOp45
 70
     0
102
RTVSPost2010Prop46
 90
       50
102
RTVSPost2010PropOp46
 70
     0
102
RTVSPost2010Prop47
 90
       50
102
RTVSPost2010PropOp47
 70
     0
102
RTVSPost2010Prop48
 90
       50
102
RTVSPost2010PropOp48
 70
     0
102
RTVSPost2010Prop49
280
     0
102
RTVSPost2010PropOp49
 70
     0
102
RTVSPost2010Prop50
 90
       50
102
RTVSPost2010PropOp50
 70
     0
102
RTVSPost2010Prop51ColorIndex
 90
      256
102
RTVSPost2010Prop51ColorRGB
 90
-16777216
102
RTVSPost2010PropOp51
 70
     0
102
RTVSPost2010Prop52
140
1.0
102
RTVSPost2010PropOp52
 70
     0
102
RTVSPost2010Prop53
 90
        2
102
RTVSPost2010PropOp53
 70
     0
102
RTVSPost2010Prop54
  1
strokes_ogs.tif
102
RTVSPost2010PropOp54
 70
     0
102
RTVSPost2010Prop55
280
     0
102
RTVSPost2010PropOp55
 70
     0
102
RTVSPost2010Prop56
140
1.0
102
RTVSPost2010PropOp56
 70
     0
102
RTVSPost2010Prop57
140
1.0
102
RTVSPost2010PropOp57
 70
     0
  0
XRECORD
  5
D8
102
{ACAD_REACTORS
330
D7
102
}
330
D7
100
AcDbXrecord
280
     1
102
RTVSPropertyOp0
 70
     1
102
RTVSPropertyOp1
 70
     1
102
RTVSPropertyOp2
 70
     1
102
RTVSPropertyOp3
 70
     1
102
RTVSPropertyOp4
 70
     1
102
RTVSPropertyOp5
 70
     1
102
RTVSPropertyOp6
 70
     1
102
RTVSPropertyOp7
 70
     1
102
RTVSPropertyOp8
 70
     1
102
RTVSPropertyOp9
 70
     1
102
RTVSPropertyOp10
 70
     1
102
RTVSPropertyOp11
 70
     1
102
RTVSPropertyOp12
 70
     1
102
RTVSPropertyOp13
 70
     1
102
RTVSPropertyOp14
 70
     1
102
RTVSPropertyOp15
 70
     1
102
RTVSPropertyOp16
 70
     1
102
RTVSPropertyOp17
 70
     1
102
RTVSPropertyOp18
 70
     1
102
RTVSPropertyOp19
 70
     1
102
RTVSPropertyOp20
 70
     1
102
RTVSPropertyOp21
 70
     1
102
RTVSPropertyOp22
 70
     1
102
RTVSPropertyOp23
 70
     1
102
RTVSPropertyOp24
 70
     1
102
RTVSPropertyOp25
 70
     1
102
RTVSPropertyOp26
 70
     1
102
RTVSPropertyOp27
 70
     1
102
RTVSPropertyOp28
 70
     1
102
RTVSPropertyOp29
 70
     1
102
RTVSPropertyOp30
 70
     1
102
RTVSPropertyOp31
 70
     1
102
RTVSPropertyOp32
 70
     1
102
RTVSPropertyOp33
 70
     1
102
RTVSPropertyOp34
 70
     1
102
RTVSPropertyOp35
 70
     1
102
RTVSPropertyOp36
 70
     1
102
RTVSPropertyOp37
 70
     1
102
RTVSPropertyOp38
 70
     1
102
RTVSPropertyOp39
 70
     1
102
RTVSPropertyOp40
 70
     1
102
RTVSPropertyOp41
 70
     1
102
RTVSPropertyOp42
 70
     1
102
RTVSPropertyOp43
 70
     1
102
RTVSPropertyOp44
 70
     1
102
RTVSPropertyOp45
 70
     1
102
RTVSPropertyOp46
 70
     1
102
RTVSPropertyOp47
 70
     1
102
RTVSPropertyOp48
 70
     1
102
RTVSPropertyOp49
 70
     1
102
RTVSPropertyOp50
 70
     1
102
RTVSPropertyOp51
 70
     0
102
RTVSPropertyOp52
 70
     0
102
RTVSPropertyOp53
 70
     1
102
RTVSPropertyOp54
 70
     1
102
RTVSPropertyOp55
 70
     1
102
RTVSPropertyOp56
 70
     1
102
RTVSPropertyOp57
 70
     1
102
RTVSPost2010Prop28
280
     0
102
RTVSPost2010PropOp28
 70
     1
102
RTVSPost2010Prop29
280
     1
102
RTVSPost2010PropOp29
 70
     1
102
RTVSPost2010Prop30
280
     1
102
RTVSPost2010PropOp30
 70
     1
102
RTVSPost2010Prop31
280
     0
102
RTVSPost2010PropOp31
 70
     1
102
RTVSPost2010Prop32
280
     0
102
RTVSPost2010PropOp32
 70
     1
102
RTVSPost2010Prop33
280
     0
102
RTVSPost2010PropOp33
 70
     1
102
RTVSPost2010Prop34
280
     0
102
RTVSPost2010PropOp34
 70
     1
102
RTVSPost2010Prop35
280
     0
102
RTVSPost2010PropOp35
 70
     1
102
RTVSPost2010Prop36
280
     0
102
RTVSPost2010PropOp36
 70
     1
102
RTVSPost2010Prop37
 90
       50
102
RTVSPost2010PropOp37
 70
     1
102
RTVSPost2010Prop38
140
0.0
102
RTVSPost2010PropOp38
 70
     1
102
RTVSPost2010Prop39
140
1.0
102
RTVSPost2010PropOp39
 70
     1
102
RTVSPost2010Prop40
 90
        0
102
RTVSPost2010PropOp40
 70
     1
102
RTVSPost2010Prop41ColorIndex
 90
       18
102
RTVSPost2010Prop41ColorRGB
 90
        0
102
RTVSPost2010PropOp41
 70
     1
102
RTVSPost2010Prop42
 90
       50
102
RTVSPost2010PropOp42
 70
     1
102
RTVSPost2010Prop43
 90
        3
102
RTVSPost2010PropOp43
 70
     1
102
RTVSPost2010Prop44ColorIndex
 90
        5
102
RTVSPost2010Prop44ColorRGB
 90
      255
102
RTVSPost2010PropOp44
 70
     1
102
RTVSPost2010Prop45
280
     0
102
RTVSPost2010PropOp45
 70
     1
102
RTVSPost2010Prop46
 90
       50
102
RTVSPost2010PropOp46
 70
     1
102
RTVSPost2010Prop47
 90
       50
102
RTVSPost2010PropOp47
 70
     1
102
RTVSPost2010Prop48
 90
       50
102
RTVSPost2010PropOp48
 70
     1
102
RTVSPost2010Prop49
280
     0
102
RTVSPost2010PropOp49
 70
     1
102
RTVSPost2010Prop50
 90
       50
102
RTVSPost2010PropOp50
 70
     1
102
RTVSPost2010Prop51ColorIndex
 90
      256
102
RTVSPost2010Prop51ColorRGB
 90
-16777216
102
RTVSPost2010PropOp51
 70
     0
102
RTVSPost2010Prop52
140
1.0
102
RTVSPost2010PropOp52
 70
     0
102
RTVSPost2010Prop53
 90
        2
102
RTVSPost2010PropOp53
 70
     1
102
RTVSPost2010Prop54
  1
strokes_ogs.tif
102
RTVSPost2010PropOp54
 70
     1
102
RTVSPost2010Prop55
280
     0
102
RTVSPost2010PropOp55
 70
     1
102
RTVSPost2010Prop56
140
1.0
102
RTVSPost2010PropOp56
 70
     1
102
RTVSPost2010Prop57
140
1.0
102
RTVSPost2010PropOp57
 70
     1
  0
XRECORD
  5
F6
102
{ACAD_REACTORS
330
F5
102
}
330
F5
100
AcDbXrecord
280
     1
102
RTVSPropertyOp0
 70
     1
102
RTVSPropertyOp1
 70
     1
102
RTVSPropertyOp2
 70
     1
102
RTVSPropertyOp3
 70
     1
102
RTVSPropertyOp4
 70
     1
102
RTVSPropertyOp5
 70
     1
102
RTVSPropertyOp6
 70
     1
102
RTVSPropertyOp7
 70
     1
102
RTVSPropertyOp8
 70
     1
102
RTVSPropertyOp9
 70
     1
102
RTVSPropertyOp10
 70
     1
102
RTVSPropertyOp11
 70
     1
102
RTVSPropertyOp12
 70
     1
102
RTVSPropertyOp13
 70
     1
102
RTVSPropertyOp14
 70
     1
102
RTVSPropertyOp15
 70
     1
102
RTVSPropertyOp16
 70
     1
102
RTVSPropertyOp17
 70
     1
102
RTVSPropertyOp18
 70
     1
102
RTVSPropertyOp19
 70
     1
102
RTVSPropertyOp20
 70
     1
102
RTVSPropertyOp21
 70
     1
102
RTVSPropertyOp22
 70
     1
102
RTVSPropertyOp23
 70
     1
102
RTVSPropertyOp24
 70
     1
102
RTVSPropertyOp25
 70
     1
102
RTVSPropertyOp26
 70
     1
102
RTVSPropertyOp27
 70
     1
102
RTVSPropertyOp28
 70
     1
102
RTVSPropertyOp29
 70
     1
102
RTVSPropertyOp30
 70
     1
102
RTVSPropertyOp31
 70
     1
102
RTVSPropertyOp32
 70
     1
102
RTVSPropertyOp33
 70
     1
102
RTVSPropertyOp34
 70
     1
102
RTVSPropertyOp35
 70
     1
102
RTVSPropertyOp36
 70
     1
102
RTVSPropertyOp37
 70
     1
102
RTVSPropertyOp38
 70
     1
102
RTVSPropertyOp39
 70
     1
102
RTVSPropertyOp40
 70
     1
102
RTVSPropertyOp41
 70
     1
102
RTVSPropertyOp42
 70
     1
102
RTVSPropertyOp43
 70
     1
102
RTVSPropertyOp44
 70
     1
102
RTVSPropertyOp45
 70
     1
102
RTVSPropertyOp46
 70
     1
102
RTVSPropertyOp47
 70
     1
102
RTVSPropertyOp48
 70
     1
102
RTVSPropertyOp49
 70
     1
102
RTVSPropertyOp50
 70
     1
102
RTVSPropertyOp51
 70
     0
102
RTVSPropertyOp52
 70
     0
102
RTVSPropertyOp53
 70
     1
102
RTVSPropertyOp54
 70
     1
102
RTVSPropertyOp55
 70
     1
102
RTVSPropertyOp56
 70
     1
102
RTVSPropertyOp57
 70
     1
102
RTVSPost2010Prop28
280
     0
102
RTVSPost2010PropOp28
 70
     1
102
RTVSPost2010Prop29
280
     1
102
RTVSPost2010PropOp29
 70
     1
102
RTVSPost2010Prop30
280
     1
102
RTVSPost2010PropOp30
 70
     1
102
RTVSPost2010Prop31
280
     0
102
RTVSPost2010PropOp31
 70
     1
102
RTVSPost2010Prop32
280
     0
102
RTVSPost2010PropOp32
 70
     1
102
RTVSPost2010Prop33
280
     0
102
RTVSPost2010PropOp33
 70
     1
102
RTVSPost2010Prop34
280
     0
102
RTVSPost2010PropOp34
 70
     1
102
RTVSPost2010Prop35
280
     0
102
RTVSPost2010PropOp35
 70
     1
102
RTVSPost2010Prop36
280
     0
102
RTVSPost2010PropOp36
 70
     1
102
RTVSPost2010Prop37
 90
       50
102
RTVSPost2010PropOp37
 70
     1
102
RTVSPost2010Prop38
140
0.0
102
RTVSPost2010PropOp38
 70
     1
102
RTVSPost2010Prop39
140
1.0
102
RTVSPost2010PropOp39
 70
     1
102
RTVSPost2010Prop40
 90
        0
102
RTVSPost2010PropOp40
 70
     1
102
RTVSPost2010Prop41ColorIndex
 90
       18
102
RTVSPost2010Prop41ColorRGB
 90
        0
102
RTVSPost2010PropOp41
 70
     1
102
RTVSPost2010Prop42
 90
       50
102
RTVSPost2010PropOp42
 70
     1
102
RTVSPost2010Prop43
 90
        3
102
RTVSPost2010PropOp43
 70
     1
102
RTVSPost2010Prop44ColorIndex
 90
        5
102
RTVSPost2010Prop44ColorRGB
 90
      255
102
RTVSPost2010PropOp44
 70
     1
102
RTVSPost2010Prop45
280
     0
102
RTVSPost2010PropOp45
 70
     1
102
RTVSPost2010Prop46
 90
       50
102
RTVSPost2010PropOp46
 70
     1
102
RTVSPost2010Prop47
 90
       50
102
RTVSPost2010PropOp47
 70
     1
102
RTVSPost2010Prop48
 90
       50
102
RTVSPost2010PropOp48
 70
     1
102
RTVSPost2010Prop49
280
     0
102
RTVSPost2010PropOp49
 70
     1
102
RTVSPost2010Prop50
 90
       50
102
RTVSPost2010PropOp50
 70
     1
102
RTVSPost2010Prop51ColorIndex
 90
      256
102
RTVSPost2010Prop51ColorRGB
 90
-16777216
102
RTVSPost2010PropOp51
 70
     0
102
RTVSPost2010Prop52
140
1.0
102
RTVSPost2010PropOp52
 70
     0
102
RTVSPost2010Prop53
 90
        2
102
RTVSPost2010PropOp53
 70
     1
102
RTVSPost2010Prop54
  1
strokes_ogs.tif
102
RTVSPost2010PropOp54
 70
     1
102
RTVSPost2010Prop55
280
     0
102
RTVSPost2010PropOp55
 70
     1
102
RTVSPost2010Prop56
140
1.0
102
RTVSPost2010PropOp56
 70
     1
102
RTVSPost2010Prop57
140
1.0
102
RTVSPost2010PropOp57
 70
     1
  0
XRECORD
  5
F4
102
{ACAD_REACTORS
330
F3
102
}
330
F3
100
AcDbXrecord
280
     1
102
RTVSPropertyOp0
 70
     1
102
RTVSPropertyOp1
 70
     1
102
RTVSPropertyOp2
 70
     1
102
RTVSPropertyOp3
 70
     1
102
RTVSPropertyOp4
 70
     1
102
RTVSPropertyOp5
 70
     1
102
RTVSPropertyOp6
 70
     1
102
RTVSPropertyOp7
 70
     1
102
RTVSPropertyOp8
 70
     1
102
RTVSPropertyOp9
 70
     1
102
RTVSPropertyOp10
 70
     1
102
RTVSPropertyOp11
 70
     1
102
RTVSPropertyOp12
 70
     1
102
RTVSPropertyOp13
 70
     1
102
RTVSPropertyOp14
 70
     1
102
RTVSPropertyOp15
 70
     1
102
RTVSPropertyOp16
 70
     1
102
RTVSPropertyOp17
 70
     1
102
RTVSPropertyOp18
 70
     1
102
RTVSPropertyOp19
 70
     1
102
RTVSPropertyOp20
 70
     1
102
RTVSPropertyOp21
 70
     1
102
RTVSPropertyOp22
 70
     1
102
RTVSPropertyOp23
 70
     1
102
RTVSPropertyOp24
 70
     1
102
RTVSPropertyOp25
 70
     1
102
RTVSPropertyOp26
 70
     1
102
RTVSPropertyOp27
 70
     1
102
RTVSPropertyOp28
 70
     1
102
RTVSPropertyOp29
 70
     1
102
RTVSPropertyOp30
 70
     1
102
RTVSPropertyOp31
 70
     1
102
RTVSPropertyOp32
 70
     1
102
RTVSPropertyOp33
 70
     1
102
RTVSPropertyOp34
 70
     1
102
RTVSPropertyOp35
 70
     1
102
RTVSPropertyOp36
 70
     1
102
RTVSPropertyOp37
 70
     1
102
RTVSPropertyOp38
 70
     1
102
RTVSPropertyOp39
 70
     1
102
RTVSPropertyOp40
 70
     1
102
RTVSPropertyOp41
 70
     1
102
RTVSPropertyOp42
 70
     1
102
RTVSPropertyOp43
 70
     1
102
RTVSPropertyOp44
 70
     1
102
RTVSPropertyOp45
 70
     1
102
RTVSPropertyOp46
 70
     1
102
RTVSPropertyOp47
 70
     1
102
RTVSPropertyOp48
 70
     1
102
RTVSPropertyOp49
 70
     1
102
RTVSPropertyOp50
 70
     1
102
RTVSPropertyOp51
 70
     0
102
RTVSPropertyOp52
 70
     0
102
RTVSPropertyOp53
 70
     1
102
RTVSPropertyOp54
 70
     1
102
RTVSPropertyOp55
 70
     1
102
RTVSPropertyOp56
 70
     1
102
RTVSPropertyOp57
 70
     1
102
RTVSPost2010Prop28
280
     0
102
RTVSPost2010PropOp28
 70
     1
102
RTVSPost2010Prop29
280
     1
102
RTVSPost2010PropOp29
 70
     1
102
RTVSPost2010Prop30
280
     1
102
RTVSPost2010PropOp30
 70
     1
102
RTVSPost2010Prop31
280
     0
102
RTVSPost2010PropOp31
 70
     1
102
RTVSPost2010Prop32
280
     0
102
RTVSPost2010PropOp32
 70
     1
102
RTVSPost2010Prop33
280
     0
102
RTVSPost2010PropOp33
 70
     1
102
RTVSPost2010Prop34
280
     0
102
RTVSPost2010PropOp34
 70
     1
102
RTVSPost2010Prop35
280
     0
102
RTVSPost2010PropOp35
 70
     1
102
RTVSPost2010Prop36
280
     0
102
RTVSPost2010PropOp36
 70
     1
102
RTVSPost2010Prop37
 90
       50
102
RTVSPost2010PropOp37
 70
     1
102
RTVSPost2010Prop38
140
0.0
102
RTVSPost2010PropOp38
 70
     1
102
RTVSPost2010Prop39
140
1.0
102
RTVSPost2010PropOp39
 70
     1
102
RTVSPost2010Prop40
 90
        0
102
RTVSPost2010PropOp40
 70
     1
102
RTVSPost2010Prop41ColorIndex
 90
       18
102
RTVSPost2010Prop41ColorRGB
 90
        0
102
RTVSPost2010PropOp41
 70
     1
102
RTVSPost2010Prop42
 90
       50
102
RTVSPost2010PropOp42
 70
     1
102
RTVSPost2010Prop43
 90
        3
102
RTVSPost2010PropOp43
 70
     1
102
RTVSPost2010Prop44ColorIndex
 90
        5
102
RTVSPost2010Prop44ColorRGB
 90
      255
102
RTVSPost2010PropOp44
 70
     1
102
RTVSPost2010Prop45
280
     0
102
RTVSPost2010PropOp45
 70
     1
102
RTVSPost2010Prop46
 90
       50
102
RTVSPost2010PropOp46
 70
     1
102
RTVSPost2010Prop47
 90
       50
102
RTVSPost2010PropOp47
 70
     1
102
RTVSPost2010Prop48
 90
       50
102
RTVSPost2010PropOp48
 70
     1
102
RTVSPost2010Prop49
280
     0
102
RTVSPost2010PropOp49
 70
     1
102
RTVSPost2010Prop50
 90
       50
102
RTVSPost2010PropOp50
 70
     1
102
RTVSPost2010Prop51ColorIndex
 90
      256
102
RTVSPost2010Prop51ColorRGB
 90
-16777216
102
RTVSPost2010PropOp51
 70
     0
102
RTVSPost2010Prop52
140
1.0
102
RTVSPost2010PropOp52
 70
     0
102
RTVSPost2010Prop53
 90
        2
102
RTVSPost2010PropOp53
 70
     1
102
RTVSPost2010Prop54
  1
strokes_ogs.tif
102
RTVSPost2010PropOp54
 70
     1
102
RTVSPost2010Prop55
280
     0
102
RTVSPost2010PropOp55
 70
     1
102
RTVSPost2010Prop56
140
1.0
102
RTVSPost2010PropOp56
 70
     1
102
RTVSPost2010Prop57
140
1.0
102
RTVSPost2010PropOp57
 70
     1
  0
XRECORD
  5
EE
102
{ACAD_REACTORS
330
ED
102
}
330
ED
100
AcDbXrecord
280
     1
102
RTVSPropertyOp0
 70
     1
102
RTVSPropertyOp1
 70
     1
102
RTVSPropertyOp2
 70
     1
102
RTVSPropertyOp3
 70
     1
102
RTVSPropertyOp4
 70
     1
102
RTVSPropertyOp5
 70
     1
102
RTVSPropertyOp6
 70
     1
102
RTVSPropertyOp7
 70
     1
102
RTVSPropertyOp8
 70
     1
102
RTVSPropertyOp9
 70
     1
102
RTVSPropertyOp10
 70
     1
102
RTVSPropertyOp11
 70
     1
102
RTVSPropertyOp12
 70
     1
102
RTVSPropertyOp13
 70
     1
102
RTVSPropertyOp14
 70
     1
102
RTVSPropertyOp15
 70
     1
102
RTVSPropertyOp16
 70
     1
102
RTVSPropertyOp17
 70
     1
102
RTVSPropertyOp18
 70
     1
102
RTVSPropertyOp19
 70
     1
102
RTVSPropertyOp20
 70
     1
102
RTVSPropertyOp21
 70
     1
102
RTVSPropertyOp22
 70
     1
102
RTVSPropertyOp23
 70
     1
102
RTVSPropertyOp24
 70
     1
102
RTVSPropertyOp25
 70
     1
102
RTVSPropertyOp26
 70
     1
102
RTVSPropertyOp27
 70
     1
102
RTVSPropertyOp28
 70
     1
102
RTVSPropertyOp29
 70
     1
102
RTVSPropertyOp30
 70
     1
102
RTVSPropertyOp31
 70
     1
102
RTVSPropertyOp32
 70
     1
102
RTVSPropertyOp33
 70
     1
102
RTVSPropertyOp34
 70
     1
102
RTVSPropertyOp35
 70
     1
102
RTVSPropertyOp36
 70
     1
102
RTVSPropertyOp37
 70
     1
102
RTVSPropertyOp38
 70
     1
102
RTVSPropertyOp39
 70
     1
102
RTVSPropertyOp40
 70
     1
102
RTVSPropertyOp41
 70
     1
102
RTVSPropertyOp42
 70
     1
102
RTVSPropertyOp43
 70
     1
102
RTVSPropertyOp44
 70
     1
102
RTVSPropertyOp45
 70
     1
102
RTVSPropertyOp46
 70
     1
102
RTVSPropertyOp47
 70
     1
102
RTVSPropertyOp48
 70
     1
102
RTVSPropertyOp49
 70
     1
102
RTVSPropertyOp50
 70
     1
102
RTVSPropertyOp51
 70
     0
102
RTVSPropertyOp52
 70
     0
102
RTVSPropertyOp53
 70
     1
102
RTVSPropertyOp54
 70
     1
102
RTVSPropertyOp55
 70
     1
102
RTVSPropertyOp56
 70
     1
102
RTVSPropertyOp57
 70
     1
102
RTVSPost2010Prop28
280
     0
102
RTVSPost2010PropOp28
 70
     1
102
RTVSPost2010Prop29
280
     1
102
RTVSPost2010PropOp29
 70
     1
102
RTVSPost2010Prop30
280
     1
102
RTVSPost2010PropOp30
 70
     1
102
RTVSPost2010Prop31
280
     0
102
RTVSPost2010PropOp31
 70
     1
102
RTVSPost2010Prop32
280
     0
102
RTVSPost2010PropOp32
 70
     1
102
RTVSPost2010Prop33
280
     0
102
RTVSPost2010PropOp33
 70
     1
102
RTVSPost2010Prop34
280
     0
102
RTVSPost2010PropOp34
 70
     1
102
RTVSPost2010Prop35
280
     0
102
RTVSPost2010PropOp35
 70
     1
102
RTVSPost2010Prop36
280
     0
102
RTVSPost2010PropOp36
 70
     1
102
RTVSPost2010Prop37
 90
       50
102
RTVSPost2010PropOp37
 70
     1
102
RTVSPost2010Prop38
140
0.0
102
RTVSPost2010PropOp38
 70
     1
102
RTVSPost2010Prop39
140
1.0
102
RTVSPost2010PropOp39
 70
     1
102
RTVSPost2010Prop40
 90
        0
102
RTVSPost2010PropOp40
 70
     1
102
RTVSPost2010Prop41ColorIndex
 90
       18
102
RTVSPost2010Prop41ColorRGB
 90
        0
102
RTVSPost2010PropOp41
 70
     1
102
RTVSPost2010Prop42
 90
       50
102
RTVSPost2010PropOp42
 70
     1
102
RTVSPost2010Prop43
 90
        3
102
RTVSPost2010PropOp43
 70
     1
102
RTVSPost2010Prop44ColorIndex
 90
        5
102
RTVSPost2010Prop44ColorRGB
 90
      255
102
RTVSPost2010PropOp44
 70
     1
102
RTVSPost2010Prop45
280
     0
102
RTVSPost2010PropOp45
 70
     1
102
RTVSPost2010Prop46
 90
       50
102
RTVSPost2010PropOp46
 70
     1
102
RTVSPost2010Prop47
 90
       50
102
RTVSPost2010PropOp47
 70
     1
102
RTVSPost2010Prop48
 90
       50
102
RTVSPost2010PropOp48
 70
     1
102
RTVSPost2010Prop49
280
     0
102
RTVSPost2010PropOp49
 70
     1
102
RTVSPost2010Prop50
 90
       50
102
RTVSPost2010PropOp50
 70
     1
102
RTVSPost2010Prop51ColorIndex
 90
      256
102
RTVSPost2010Prop51ColorRGB
 90
-16777216
102
RTVSPost2010PropOp51
 70
     0
102
RTVSPost2010Prop52
140
1.0
102
RTVSPost2010PropOp52
 70
     0
102
RTVSPost2010Prop53
 90
        2
102
RTVSPost2010PropOp53
 70
     1
102
RTVSPost2010Prop54
  1
strokes_ogs.tif
102
RTVSPost2010PropOp54
 70
     1
102
RTVSPost2010Prop55
280
     0
102
RTVSPost2010PropOp55
 70
     1
102
RTVSPost2010Prop56
140
1.0
102
RTVSPost2010PropOp56
 70
     1
102
RTVSPost2010Prop57
140
1.0
102
RTVSPost2010PropOp57
 70
     1
  0
XRECORD
  5
F0
102
{ACAD_REACTORS
330
EF
102
}
330
EF
100
AcDbXrecord
280
     1
102
RTVSPropertyOp0
 70
     1
102
RTVSPropertyOp1
 70
     1
102
RTVSPropertyOp2
 70
     1
102
RTVSPropertyOp3
 70
     1
102
RTVSPropertyOp4
 70
     1
102
RTVSPropertyOp5
 70
     1
102
RTVSPropertyOp6
 70
     1
102
RTVSPropertyOp7
 70
     1
102
RTVSPropertyOp8
 70
     1
102
RTVSPropertyOp9
 70
     1
102
RTVSPropertyOp10
 70
     1
102
RTVSPropertyOp11
 70
     1
102
RTVSPropertyOp12
 70
     1
102
RTVSPropertyOp13
 70
     1
102
RTVSPropertyOp14
 70
     1
102
RTVSPropertyOp15
 70
     1
102
RTVSPropertyOp16
 70
     1
102
RTVSPropertyOp17
 70
     1
102
RTVSPropertyOp18
 70
     1
102
RTVSPropertyOp19
 70
     1
102
RTVSPropertyOp20
 70
     1
102
RTVSPropertyOp21
 70
     1
102
RTVSPropertyOp22
 70
     1
102
RTVSPropertyOp23
 70
     1
102
RTVSPropertyOp24
 70
     1
102
RTVSPropertyOp25
 70
     1
102
RTVSPropertyOp26
 70
     1
102
RTVSPropertyOp27
 70
     1
102
RTVSPropertyOp28
 70
     1
102
RTVSPropertyOp29
 70
     1
102
RTVSPropertyOp30
 70
     1
102
RTVSPropertyOp31
 70
     1
102
RTVSPropertyOp32
 70
     1
102
RTVSPropertyOp33
 70
     1
102
RTVSPropertyOp34
 70
     1
102
RTVSPropertyOp35
 70
     1
102
RTVSPropertyOp36
 70
     1
102
RTVSPropertyOp37
 70
     1
102
RTVSPropertyOp38
 70
     1
102
RTVSPropertyOp39
 70
     1
102
RTVSPropertyOp40
 70
     1
102
RTVSPropertyOp41
 70
     1
102
RTVSPropertyOp42
 70
     1
102
RTVSPropertyOp43
 70
     1
102
RTVSPropertyOp44
 70
     1
102
RTVSPropertyOp45
 70
     1
102
RTVSPropertyOp46
 70
     1
102
RTVSPropertyOp47
 70
     1
102
RTVSPropertyOp48
 70
     1
102
RTVSPropertyOp49
 70
     1
102
RTVSPropertyOp50
 70
     1
102
RTVSPropertyOp51
 70
     0
102
RTVSPropertyOp52
 70
     0
102
RTVSPropertyOp53
 70
     1
102
RTVSPropertyOp54
 70
     1
102
RTVSPropertyOp55
 70
     1
102
RTVSPropertyOp56
 70
     1
102
RTVSPropertyOp57
 70
     1
102
RTVSPost2010Prop28
280
     0
102
RTVSPost2010PropOp28
 70
     1
102
RTVSPost2010Prop29
280
     1
102
RTVSPost2010PropOp29
 70
     1
102
RTVSPost2010Prop30
280
     1
102
RTVSPost2010PropOp30
 70
     1
102
RTVSPost2010Prop31
280
     0
102
RTVSPost2010PropOp31
 70
     1
102
RTVSPost2010Prop32
280
     0
102
RTVSPost2010PropOp32
 70
     1
102
RTVSPost2010Prop33
280
     0
102
RTVSPost2010PropOp33
 70
     1
102
RTVSPost2010Prop34
280
     0
102
RTVSPost2010PropOp34
 70
     1
102
RTVSPost2010Prop35
280
     0
102
RTVSPost2010PropOp35
 70
     1
102
RTVSPost2010Prop36
280
     0
102
RTVSPost2010PropOp36
 70
     1
102
RTVSPost2010Prop37
 90
       50
102
RTVSPost2010PropOp37
 70
     1
102
RTVSPost2010Prop38
140
0.0
102
RTVSPost2010PropOp38
 70
     1
102
RTVSPost2010Prop39
140
1.0
102
RTVSPost2010PropOp39
 70
     1
102
RTVSPost2010Prop40
 90
        0
102
RTVSPost2010PropOp40
 70
     1
102
RTVSPost2010Prop41ColorIndex
 90
       18
102
RTVSPost2010Prop41ColorRGB
 90
        0
102
RTVSPost2010PropOp41
 70
     1
102
RTVSPost2010Prop42
 90
       50
102
RTVSPost2010PropOp42
 70
     1
102
RTVSPost2010Prop43
 90
        3
102
RTVSPost2010PropOp43
 70
     1
102
RTVSPost2010Prop44ColorIndex
 90
        5
102
RTVSPost2010Prop44ColorRGB
 90
      255
102
RTVSPost2010PropOp44
 70
     1
102
RTVSPost2010Prop45
280
     0
102
RTVSPost2010PropOp45
 70
     1
102
RTVSPost2010Prop46
 90
       50
102
RTVSPost2010PropOp46
 70
     1
102
RTVSPost2010Prop47
 90
       50
102
RTVSPost2010PropOp47
 70
     1
102
RTVSPost2010Prop48
 90
       50
102
RTVSPost2010PropOp48
 70
     1
102
RTVSPost2010Prop49
280
     0
102
RTVSPost2010PropOp49
 70
     1
102
RTVSPost2010Prop50
 90
       50
102
RTVSPost2010PropOp50
 70
     1
102
RTVSPost2010Prop51ColorIndex
 90
      256
102
RTVSPost2010Prop51ColorRGB
 90
-16777216
102
RTVSPost2010PropOp51
 70
     0
102
RTVSPost2010Prop52
140
1.0
102
RTVSPost2010PropOp52
 70
     0
102
RTVSPost2010Prop53
 90
        2
102
RTVSPost2010PropOp53
 70
     1
102
RTVSPost2010Prop54
  1
strokes_ogs.tif
102
RTVSPost2010PropOp54
 70
     1
102
RTVSPost2010Prop55
280
     0
102
RTVSPost2010PropOp55
 70
     1
102
RTVSPost2010Prop56
140
1.0
102
RTVSPost2010PropOp56
 70
     1
102
RTVSPost2010Prop57
140
1.0
102
RTVSPost2010PropOp57
 70
     1
  0
XRECORD
  5
E0
102
{ACAD_REACTORS
330
DF
102
}
330
DF
100
AcDbXrecord
280
     1
102
RTVSPropertyOp0
 70
     1
102
RTVSPropertyOp1
 70
     1
102
RTVSPropertyOp2
 70
     1
102
RTVSPropertyOp3
 70
     1
102
RTVSPropertyOp4
 70
     1
102
RTVSPropertyOp5
 70
     1
102
RTVSPropertyOp6
 70
     1
102
RTVSPropertyOp7
 70
     1
102
RTVSPropertyOp8
 70
     1
102
RTVSPropertyOp9
 70
     1
102
RTVSPropertyOp10
 70
     1
102
RTVSPropertyOp11
 70
     1
102
RTVSPropertyOp12
 70
     1
102
RTVSPropertyOp13
 70
     1
102
RTVSPropertyOp14
 70
     1
102
RTVSPropertyOp15
 70
     1
102
RTVSPropertyOp16
 70
     1
102
RTVSPropertyOp17
 70
     1
102
RTVSPropertyOp18
 70
     1
102
RTVSPropertyOp19
 70
     1
102
RTVSPropertyOp20
 70
     1
102
RTVSPropertyOp21
 70
     1
102
RTVSPropertyOp22
 70
     1
102
RTVSPropertyOp23
 70
     1
102
RTVSPropertyOp24
 70
     1
102
RTVSPropertyOp25
 70
     1
102
RTVSPropertyOp26
 70
     1
102
RTVSPropertyOp27
 70
     1
102
RTVSPropertyOp28
 70
     1
102
RTVSPropertyOp29
 70
     1
102
RTVSPropertyOp30
 70
     1
102
RTVSPropertyOp31
 70
     1
102
RTVSPropertyOp32
 70
     1
102
RTVSPropertyOp33
 70
     1
102
RTVSPropertyOp34
 70
     1
102
RTVSPropertyOp35
 70
     1
102
RTVSPropertyOp36
 70
     1
102
RTVSPropertyOp37
 70
     1
102
RTVSPropertyOp38
 70
     1
102
RTVSPropertyOp39
 70
     1
102
RTVSPropertyOp40
 70
     1
102
RTVSPropertyOp41
 70
     1
102
RTVSPropertyOp42
 70
     1
102
RTVSPropertyOp43
 70
     1
102
RTVSPropertyOp44
 70
     1
102
RTVSPropertyOp45
 70
     1
102
RTVSPropertyOp46
 70
     1
102
RTVSPropertyOp47
 70
     1
102
RTVSPropertyOp48
 70
     1
102
RTVSPropertyOp49
 70
     1
102
RTVSPropertyOp50
 70
     1
102
RTVSPropertyOp51
 70
     0
102
RTVSPropertyOp52
 70
     0
102
RTVSPropertyOp53
 70
     1
102
RTVSPropertyOp54
 70
     1
102
RTVSPropertyOp55
 70
     1
102
RTVSPropertyOp56
 70
     1
102
RTVSPropertyOp57
 70
     1
102
RTVSPost2010Prop28
280
     0
102
RTVSPost2010PropOp28
 70
     1
102
RTVSPost2010Prop29
280
     1
102
RTVSPost2010PropOp29
 70
     1
102
RTVSPost2010Prop30
280
     1
102
RTVSPost2010PropOp30
 70
     1
102
RTVSPost2010Prop31
280
     0
102
RTVSPost2010PropOp31
 70
     1
102
RTVSPost2010Prop32
280
     0
102
RTVSPost2010PropOp32
 70
     1
102
RTVSPost2010Prop33
280
     0
102
RTVSPost2010PropOp33
 70
     1
102
RTVSPost2010Prop34
280
     0
102
RTVSPost2010PropOp34
 70
     1
102
RTVSPost2010Prop35
280
     0
102
RTVSPost2010PropOp35
 70
     1
102
RTVSPost2010Prop36
280
     0
102
RTVSPost2010PropOp36
 70
     1
102
RTVSPost2010Prop37
 90
       50
102
RTVSPost2010PropOp37
 70
     1
102
RTVSPost2010Prop38
140
0.0
102
RTVSPost2010PropOp38
 70
     1
102
RTVSPost2010Prop39
140
1.0
102
RTVSPost2010PropOp39
 70
     1
102
RTVSPost2010Prop40
 90
        0
102
RTVSPost2010PropOp40
 70
     1
102
RTVSPost2010Prop41ColorIndex
 90
       18
102
RTVSPost2010Prop41ColorRGB
 90
        0
102
RTVSPost2010PropOp41
 70
     1
102
RTVSPost2010Prop42
 90
       50
102
RTVSPost2010PropOp42
 70
     1
102
RTVSPost2010Prop43
 90
        3
102
RTVSPost2010PropOp43
 70
     1
102
RTVSPost2010Prop44ColorIndex
 90
        5
102
RTVSPost2010Prop44ColorRGB
 90
      255
102
RTVSPost2010PropOp44
 70
     1
102
RTVSPost2010Prop45
280
     0
102
RTVSPost2010PropOp45
 70
     1
102
RTVSPost2010Prop46
 90
       50
102
RTVSPost2010PropOp46
 70
     1
102
RTVSPost2010Prop47
 90
       50
102
RTVSPost2010PropOp47
 70
     1
102
RTVSPost2010Prop48
 90
       50
102
RTVSPost2010PropOp48
 70
     1
102
RTVSPost2010Prop49
280
     0
102
RTVSPost2010PropOp49
 70
     1
102
RTVSPost2010Prop50
 90
       50
102
RTVSPost2010PropOp50
 70
     1
102
RTVSPost2010Prop51ColorIndex
 90
      256
102
RTVSPost2010Prop51ColorRGB
 90
-16777216
102
RTVSPost2010PropOp51
 70
     0
102
RTVSPost2010Prop52
140
1.0
102
RTVSPost2010PropOp52
 70
     0
102
RTVSPost2010Prop53
 90
        2
102
RTVSPost2010PropOp53
 70
     1
102
RTVSPost2010Prop54
  1
strokes_ogs.tif
102
RTVSPost2010PropOp54
 70
     1
102
RTVSPost2010Prop55
280
     0
102
RTVSPost2010PropOp55
 70
     1
102
RTVSPost2010Prop56
140
1.0
102
RTVSPost2010PropOp56
 70
     1
102
RTVSPost2010Prop57
140
1.0
102
RTVSPost2010PropOp57
 70
     1
  0
XRECORD
  5
D2
102
{ACAD_REACTORS
330
D1
102
}
330
D1
100
AcDbXrecord
280
     1
102
RTVSPropertyOp0
 70
     1
102
RTVSPropertyOp1
 70
     1
102
RTVSPropertyOp2
 70
     1
102
RTVSPropertyOp3
 70
     1
102
RTVSPropertyOp4
 70
     1
102
RTVSPropertyOp5
 70
     1
102
RTVSPropertyOp6
 70
     1
102
RTVSPropertyOp7
 70
     1
102
RTVSPropertyOp8
 70
     1
102
RTVSPropertyOp9
 70
     1
102
RTVSPropertyOp10
 70
     1
102
RTVSPropertyOp11
 70
     1
102
RTVSPropertyOp12
 70
     1
102
RTVSPropertyOp13
 70
     1
102
RTVSPropertyOp14
 70
     1
102
RTVSPropertyOp15
 70
     1
102
RTVSPropertyOp16
 70
     1
102
RTVSPropertyOp17
 70
     1
102
RTVSPropertyOp18
 70
     1
102
RTVSPropertyOp19
 70
     1
102
RTVSPropertyOp20
 70
     1
102
RTVSPropertyOp21
 70
     1
102
RTVSPropertyOp22
 70
     1
102
RTVSPropertyOp23
 70
     1
102
RTVSPropertyOp24
 70
     1
102
RTVSPropertyOp25
 70
     1
102
RTVSPropertyOp26
 70
     1
102
RTVSPropertyOp27
 70
     1
102
RTVSPropertyOp28
 70
     1
102
RTVSPropertyOp29
 70
     1
102
RTVSPropertyOp30
 70
     1
102
RTVSPropertyOp31
 70
     1
102
RTVSPropertyOp32
 70
     1
102
RTVSPropertyOp33
 70
     1
102
RTVSPropertyOp34
 70
     1
102
RTVSPropertyOp35
 70
     1
102
RTVSPropertyOp36
 70
     1
102
RTVSPropertyOp37
 70
     1
102
RTVSPropertyOp38
 70
     1
102
RTVSPropertyOp39
 70
     1
102
RTVSPropertyOp40
 70
     1
102
RTVSPropertyOp41
 70
     1
102
RTVSPropertyOp42
 70
     1
102
RTVSPropertyOp43
 70
     1
102
RTVSPropertyOp44
 70
     1
102
RTVSPropertyOp45
 70
     1
102
RTVSPropertyOp46
 70
     1
102
RTVSPropertyOp47
 70
     1
102
RTVSPropertyOp48
 70
     1
102
RTVSPropertyOp49
 70
     1
102
RTVSPropertyOp50
 70
     1
102
RTVSPropertyOp51
 70
     0
102
RTVSPropertyOp52
 70
     0
102
RTVSPropertyOp53
 70
     1
102
RTVSPropertyOp54
 70
     1
102
RTVSPropertyOp55
 70
     1
102
RTVSPropertyOp56
 70
     1
102
RTVSPropertyOp57
 70
     1
102
RTVSPost2010Prop28
280
     0
102
RTVSPost2010PropOp28
 70
     1
102
RTVSPost2010Prop29
280
     1
102
RTVSPost2010PropOp29
 70
     1
102
RTVSPost2010Prop30
280
     1
102
RTVSPost2010PropOp30
 70
     1
102
RTVSPost2010Prop31
280
     0
102
RTVSPost2010PropOp31
 70
     1
102
RTVSPost2010Prop32
280
     0
102
RTVSPost2010PropOp32
 70
     1
102
RTVSPost2010Prop33
280
     0
102
RTVSPost2010PropOp33
 70
     1
102
RTVSPost2010Prop34
280
     0
102
RTVSPost2010PropOp34
 70
     1
102
RTVSPost2010Prop35
280
     0
102
RTVSPost2010PropOp35
 70
     1
102
RTVSPost2010Prop36
280
     0
102
RTVSPost2010PropOp36
 70
     1
102
RTVSPost2010Prop37
 90
       50
102
RTVSPost2010PropOp37
 70
     1
102
RTVSPost2010Prop38
140
0.0
102
RTVSPost2010PropOp38
 70
     1
102
RTVSPost2010Prop39
140
1.0
102
RTVSPost2010PropOp39
 70
     1
102
RTVSPost2010Prop40
 90
        0
102
RTVSPost2010PropOp40
 70
     1
102
RTVSPost2010Prop41ColorIndex
 90
       18
102
RTVSPost2010Prop41ColorRGB
 90
        0
102
RTVSPost2010PropOp41
 70
     1
102
RTVSPost2010Prop42
 90
       50
102
RTVSPost2010PropOp42
 70
     1
102
RTVSPost2010Prop43
 90
        3
102
RTVSPost2010PropOp43
 70
     1
102
RTVSPost2010Prop44ColorIndex
 90
        5
102
RTVSPost2010Prop44ColorRGB
 90
      255
102
RTVSPost2010PropOp44
 70
     1
102
RTVSPost2010Prop45
280
     0
102
RTVSPost2010PropOp45
 70
     1
102
RTVSPost2010Prop46
 90
       50
102
RTVSPost2010PropOp46
 70
     1
102
RTVSPost2010Prop47
 90
       50
102
RTVSPost2010PropOp47
 70
     1
102
RTVSPost2010Prop48
 90
       50
102
RTVSPost2010PropOp48
 70
     1
102
RTVSPost2010Prop49
280
     0
102
RTVSPost2010PropOp49
 70
     1
102
RTVSPost2010Prop50
 90
       50
102
RTVSPost2010PropOp50
 70
     1
102
RTVSPost2010Prop51ColorIndex
 90
      256
102
RTVSPost2010Prop51ColorRGB
 90
-16777216
102
RTVSPost2010PropOp51
 70
     0
102
RTVSPost2010Prop52
140
1.0
102
RTVSPost2010PropOp52
 70
     0
102
RTVSPost2010Prop53
 90
        2
102
RTVSPost2010PropOp53
 70
     1
102
RTVSPost2010Prop54
  1
strokes_ogs.tif
102
RTVSPost2010PropOp54
 70
     1
102
RTVSPost2010Prop55
280
     0
102
RTVSPost2010PropOp55
 70
     1
102
RTVSPost2010Prop56
140
1.0
102
RTVSPost2010PropOp56
 70
     1
102
RTVSPost2010Prop57
140
1.0
102
RTVSPost2010PropOp57
 70
     1
  0
XRECORD
  5
F2
102
{ACAD_REACTORS
330
F1
102
}
330
F1
100
AcDbXrecord
280
     1
102
RTVSPropertyOp0
 70
     1
102
RTVSPropertyOp1
 70
     1
102
RTVSPropertyOp2
 70
     1
102
RTVSPropertyOp3
 70
     1
102
RTVSPropertyOp4
 70
     1
102
RTVSPropertyOp5
 70
     1
102
RTVSPropertyOp6
 70
     1
102
RTVSPropertyOp7
 70
     1
102
RTVSPropertyOp8
 70
     1
102
RTVSPropertyOp9
 70
     1
102
RTVSPropertyOp10
 70
     1
102
RTVSPropertyOp11
 70
     1
102
RTVSPropertyOp12
 70
     1
102
RTVSPropertyOp13
 70
     1
102
RTVSPropertyOp14
 70
     1
102
RTVSPropertyOp15
 70
     1
102
RTVSPropertyOp16
 70
     1
102
RTVSPropertyOp17
 70
     1
102
RTVSPropertyOp18
 70
     1
102
RTVSPropertyOp19
 70
     1
102
RTVSPropertyOp20
 70
     1
102
RTVSPropertyOp21
 70
     1
102
RTVSPropertyOp22
 70
     1
102
RTVSPropertyOp23
 70
     1
102
RTVSPropertyOp24
 70
     1
102
RTVSPropertyOp25
 70
     1
102
RTVSPropertyOp26
 70
     1
102
RTVSPropertyOp27
 70
     1
102
RTVSPropertyOp28
 70
     1
102
RTVSPropertyOp29
 70
     1
102
RTVSPropertyOp30
 70
     1
102
RTVSPropertyOp31
 70
     1
102
RTVSPropertyOp32
 70
     1
102
RTVSPropertyOp33
 70
     1
102
RTVSPropertyOp34
 70
     1
102
RTVSPropertyOp35
 70
     1
102
RTVSPropertyOp36
 70
     1
102
RTVSPropertyOp37
 70
     1
102
RTVSPropertyOp38
 70
     1
102
RTVSPropertyOp39
 70
     1
102
RTVSPropertyOp40
 70
     1
102
RTVSPropertyOp41
 70
     1
102
RTVSPropertyOp42
 70
     1
102
RTVSPropertyOp43
 70
     1
102
RTVSPropertyOp44
 70
     1
102
RTVSPropertyOp45
 70
     1
102
RTVSPropertyOp46
 70
     1
102
RTVSPropertyOp47
 70
     1
102
RTVSPropertyOp48
 70
     1
102
RTVSPropertyOp49
 70
     1
102
RTVSPropertyOp50
 70
     1
102
RTVSPropertyOp51
 70
     0
102
RTVSPropertyOp52
 70
     0
102
RTVSPropertyOp53
 70
     1
102
RTVSPropertyOp54
 70
     1
102
RTVSPropertyOp55
 70
     1
102
RTVSPropertyOp56
 70
     1
102
RTVSPropertyOp57
 70
     1
102
RTVSPost2010Prop28
280
     0
102
RTVSPost2010PropOp28
 70
     1
102
RTVSPost2010Prop29
280
     1
102
RTVSPost2010PropOp29
 70
     1
102
RTVSPost2010Prop30
280
     1
102
RTVSPost2010PropOp30
 70
     1
102
RTVSPost2010Prop31
280
     0
102
RTVSPost2010PropOp31
 70
     1
102
RTVSPost2010Prop32
280
     0
102
RTVSPost2010PropOp32
 70
     1
102
RTVSPost2010Prop33
280
     0
102
RTVSPost2010PropOp33
 70
     1
102
RTVSPost2010Prop34
280
     0
102
RTVSPost2010PropOp34
 70
     1
102
RTVSPost2010Prop35
280
     0
102
RTVSPost2010PropOp35
 70
     1
102
RTVSPost2010Prop36
280
     0
102
RTVSPost2010PropOp36
 70
     1
102
RTVSPost2010Prop37
 90
       50
102
RTVSPost2010PropOp37
 70
     1
102
RTVSPost2010Prop38
140
0.0
102
RTVSPost2010PropOp38
 70
     1
102
RTVSPost2010Prop39
140
1.0
102
RTVSPost2010PropOp39
 70
     1
102
RTVSPost2010Prop40
 90
        0
102
RTVSPost2010PropOp40
 70
     1
102
RTVSPost2010Prop41ColorIndex
 90
       18
102
RTVSPost2010Prop41ColorRGB
 90
        0
102
RTVSPost2010PropOp41
 70
     1
102
RTVSPost2010Prop42
 90
       50
102
RTVSPost2010PropOp42
 70
     1
102
RTVSPost2010Prop43
 90
        3
102
RTVSPost2010PropOp43
 70
     1
102
RTVSPost2010Prop44ColorIndex
 90
        5
102
RTVSPost2010Prop44ColorRGB
 90
      255
102
RTVSPost2010PropOp44
 70
     1
102
RTVSPost2010Prop45
280
     0
102
RTVSPost2010PropOp45
 70
     1
102
RTVSPost2010Prop46
 90
       50
102
RTVSPost2010PropOp46
 70
     1
102
RTVSPost2010Prop47
 90
       50
102
RTVSPost2010PropOp47
 70
     1
102
RTVSPost2010Prop48
 90
       50
102
RTVSPost2010PropOp48
 70
     1
102
RTVSPost2010Prop49
280
     0
102
RTVSPost2010PropOp49
 70
     1
102
RTVSPost2010Prop50
 90
       50
102
RTVSPost2010PropOp50
 70
     1
102
RTVSPost2010Prop51ColorIndex
 90
      256
102
RTVSPost2010Prop51ColorRGB
 90
-16777216
102
RTVSPost2010PropOp51
 70
     0
102
RTVSPost2010Prop52
140
1.0
102
RTVSPost2010PropOp52
 70
     0
102
RTVSPost2010Prop53
 90
        2
102
RTVSPost2010PropOp53
 70
     1
102
RTVSPost2010Prop54
  1
strokes_ogs.tif
102
RTVSPost2010PropOp54
 70
     1
102
RTVSPost2010Prop55
280
     0
102
RTVSPost2010PropOp55
 70
     1
102
RTVSPost2010Prop56
140
1.0
102
RTVSPost2010PropOp56
 70
     1
102
RTVSPost2010Prop57
140
1.0
102
RTVSPost2010PropOp57
 70
     1
  0
ENDSEC
  0
EOF
