  0
SECTION
  2
HEADER
  9
$ACADVER
  1
AC1015
  9
$ACADMAINTVER
 70
     6
  9
$DWGCODEPAGE
  3
ANSI_1252
  9
$INSBASE
 10
306.2694922629817
 20
392.5194900841234
 30
0.0
  9
$EXTMIN
 10
284.410192815194
 20
380.8926235972278
 30
0.0
  9
$EXTMAX
 10
326.3208618899032
 20
401.978489845169
 30
0.0
  9
$LIMMIN
 10
0.0
 20
0.0
  9
$LIMMAX
 10
12.0
 20
9.0
  9
$ORTHOMODE
 70
     0
  9
$REGENMODE
 70
     1
  9
$FILLMODE
 70
     1
  9
$QTEXTMODE
 70
     0
  9
$MIRRTEXT
 70
     1
  9
$LTSCALE
 40
1.0
  9
$ATTMODE
 70
     1
  9
$TEXTSIZE
 40
0.2
  9
$TRACEWID
 40
0.05
  9
$TEXTSTYLE
  7
Standard
  9
$CLAYER
  8
0
  9
$CELTYPE
  6
ByLayer
  9
$CECOLOR
 62
   256
  9
$CELTSCALE
 40
1.0
  9
$DISPSILH
 70
     0
  9
$DIMSCALE
 40
1.0
  9
$DIMASZ
 40
0.18
  9
$DIMEXO
 40
0.0625
  9
$DIMDLI
 40
0.38
  9
$DIMRND
 40
0.0
  9
$DIMDLE
 40
0.0
  9
$DIMEXE
 40
0.18
  9
$DIMTP
 40
0.0
  9
$DIMTM
 40
0.0
  9
$DIMTXT
 40
0.18
  9
$DIMCEN
 40
0.09
  9
$DIMTSZ
 40
0.0
  9
$DIMTOL
 70
     0
  9
$DIMLIM
 70
     0
  9
$DIMTIH
 70
     1
  9
$DIMTOH
 70
     1
  9
$DIMSE1
 70
     0
  9
$DIMSE2
 70
     0
  9
$DIMTAD
 70
     0
  9
$DIMZIN
 70
     0
  9
$DIMBLK
  1

  9
$DIMASO
 70
     1
  9
$DIMSHO
 70
     1
  9
$DIMPOST
  1

  9
$DIMAPOST
  1

  9
$DIMALT
 70
     0
  9
$DIMALTD
 70
     2
  9
$DIMALTF
 40
25.4
  9
$DIMLFAC
 40
1.0
  9
$DIMTOFL
 70
     0
  9
$DIMTVP
 40
0.0
  9
$DIMTIX
 70
     0
  9
$DIMSOXD
 70
     0
  9
$DIMSAH
 70
     0
  9
$DIMBLK1
  1

  9
$DIMBLK2
  1

  9
$DIMSTYLE
  2
Standard
  9
$DIMCLRD
 70
     0
  9
$DIMCLRE
 70
     0
  9
$DIMCLRT
 70
     0
  9
$DIMTFAC
 40
1.0
  9
$DIMGAP
 40
0.09
  9
$DIMJUST
 70
     0
  9
$DIMSD1
 70
     0
  9
$DIMSD2
 70
     0
  9
$DIMTOLJ
 70
     1
  9
$DIMTZIN
 70
     0
  9
$DIMALTZ
 70
     0
  9
$DIMALTTZ
 70
     0
  9
$DIMUPT
 70
     0
  9
$DIMDEC
 70
     4
  9
$DIMTDEC
 70
     4
  9
$DIMALTU
 70
     2
  9
$DIMALTTD
 70
     2
  9
$DIMTXSTY
  7
Standard
  9
$DIMAUNIT
 70
     0
  9
$DIMADEC
 70
     0
  9
$DIMALTRND
 40
0.0
  9
$DIMAZIN
 70
     0
  9
$DIMDSEP
 70
    46
  9
$DIMATFIT
 70
     3
  9
$DIMFRAC
 70
     0
  9
$DIMLDRBLK
  1

  9
$DIMLUNIT
 70
     2
  9
$DIMLWD
 70
    -2
  9
$DIMLWE
 70
    -2
  9
$DIMTMOVE
 70
     0
  9
$LUNITS
 70
     2
  9
$LUPREC
 70
     4
  9
$SKETCHINC
 40
0.1
  9
$FILLETRAD
 40
0.5
  9
$AUNITS
 70
     0
  9
$AUPREC
 70
     0
  9
$MENU
  1
.
  9
$ELEVATION
 40
0.0
  9
$PELEVATION
 40
0.0
  9
$THICKNESS
 40
0.0
  9
$LIMCHECK
 70
     0
  9
$CHAMFERA
 40
0.5
  9
$CHAMFERB
 40
0.5
  9
$CHAMFERC
 40
1.0
  9
$CHAMFERD
 40
0.0
  9
$SKPOLY
 70
     0
  9
$TDCREATE
 40
2458676.485268229
  9
$TDUCREATE
 40
2458676.651934896
  9
$TDUPDATE
 40
2458708.512753577
  9
$TDUUPDATE
 40
2458708.679420243
  9
$TDINDWG
 40
0.0866415162
  9
$TDUSRTIMER
 40
0.0866415162
  9
$USRTIMER
 70
     1
  9
$ANGBASE
 50
0.0
  9
$ANGDIR
 70
     0
  9
$PDMODE
 70
     0
  9
$PDSIZE
 40
0.0
  9
$PLINEWID
 40
0.0
  9
$SPLFRAME
 70
     0
  9
$SPLINETYPE
 70
     6
  9
$SPLINESEGS
 70
     8
  9
$HANDSEED
  5
11F
  9
$SURFTAB1
 70
     6
  9
$SURFTAB2
 70
     6
  9
$SURFTYPE
 70
     6
  9
$SURFU
 70
     6
  9
$SURFV
 70
     6
  9
$UCSBASE
  2

  9
$UCSNAME
  2

  9
$UCSORG
 10
0.0
 20
0.0
 30
0.0
  9
$UCSXDIR
 10
1.0
 20
0.0
 30
0.0
  9
$UCSYDIR
 10
0.0
 20
1.0
 30
0.0
  9
$UCSORTHOREF
  2

  9
$UCSORTHOVIEW
 70
     0
  9
$UCSORGTOP
 10
0.0
 20
0.0
 30
0.0
  9
$UCSORGBOTTOM
 10
0.0
 20
0.0
 30
0.0
  9
$UCSORGLEFT
 10
0.0
 20
0.0
 30
0.0
  9
$UCSORGRIGHT
 10
0.0
 20
0.0
 30
0.0
  9
$UCSORGFRONT
 10
0.0
 20
0.0
 30
0.0
  9
$UCSORGBACK
 10
0.0
 20
0.0
 30
0.0
  9
$PUCSBASE
  2

  9
$PUCSNAME
  2

  9
$PUCSORG
 10
0.0
 20
0.0
 30
0.0
  9
$PUCSXDIR
 10
1.0
 20
0.0
 30
0.0
  9
$PUCSYDIR
 10
0.0
 20
1.0
 30
0.0
  9
$PUCSORTHOREF
  2

  9
$PUCSORTHOVIEW
 70
     0
  9
$PUCSORGTOP
 10
0.0
 20
0.0
 30
0.0
  9
$PUCSORGBOTTOM
 10
0.0
 20
0.0
 30
0.0
  9
$PUCSORGLEFT
 10
0.0
 20
0.0
 30
0.0
  9
$PUCSORGRIGHT
 10
0.0
 20
0.0
 30
0.0
  9
$PUCSORGFRONT
 10
0.0
 20
0.0
 30
0.0
  9
$PUCSORGBACK
 10
0.0
 20
0.0
 30
0.0
  9
$USERI1
 70
     0
  9
$USERI2
 70
     0
  9
$USERI3
 70
     0
  9
$USERI4
 70
     0
  9
$USERI5
 70
     0
  9
$USERR1
 40
0.0
  9
$USERR2
 40
0.0
  9
$USERR3
 40
0.0
  9
$USERR4
 40
0.0
  9
$USERR5
 40
0.0
  9
$WORLDVIEW
 70
     1
  9
$SHADEDGE
 70
     3
  9
$SHADEDIF
 70
    70
  9
$TILEMODE
 70
     1
  9
$MAXACTVP
 70
    64
  9
$PINSBASE
 10
0.0
 20
0.0
 30
0.0
  9
$PLIMCHECK
 70
     0
  9
$PEXTMIN
 10
1.000000000000000E+20
 20
1.000000000000000E+20
 30
1.000000000000000E+20
  9
$PEXTMAX
 10
-1.000000000000000E+20
 20
-1.000000000000000E+20
 30
-1.000000000000000E+20
  9
$PLIMMIN
 10
-0.25
 20
-0.25
  9
$PLIMMAX
 10
10.75
 20
8.25
  9
$UNITMODE
 70
     0
  9
$VISRETAIN
 70
     1
  9
$PLINEGEN
 70
     0
  9
$PSLTSCALE
 70
     1
  9
$TREEDEPTH
 70
  3020
  9
$CMLSTYLE
  2
Standard
  9
$CMLJUST
 70
     0
  9
$CMLSCALE
 40
1.0
  9
$PROXYGRAPHICS
 70
     1
  9
$MEASUREMENT
 70
     0
  9
$CELWEIGHT
370
    -1
  9
$ENDCAPS
280
     0
  9
$JOINSTYLE
280
     0
  9
$LWDISPLAY
290
     1
  9
$INSUNITS
 70
     1
  9
$HYPERLINKBASE
  1

  9
$STYLESHEET
  1

  9
$XEDIT
290
     1
  9
$CEPSNTYPE
380
     0
  9
$PSTYLEMODE
290
     1
  9
$FINGERPRINTGUID
  2
{3FF96223-F9C2-48F7-A4C5-C732E40B2087}
  9
$VERSIONGUID
  2
{FAEB1C32-E019-11D5-929B-00C0DF256EC4}
  9
$EXTNAMES
290
     1
  9
$PSVPSCALE
 40
0.0
  9
$OLESTARTUP
290
     0
  0
ENDSEC
  0
SECTION
  2
CLASSES
  0
CLASS
  1
ACDBDICTIONARYWDFLT
  2
AcDbDictionaryWithDefault
  3
ObjectDBX Classes
 90
        0
280
     0
281
     0
  0
CLASS
  1
MATERIAL
  2
AcDbMaterial
  3
ObjectDBX Classes
 90
     1153
280
     0
281
     0
  0
CLASS
  1
VISUALSTYLE
  2
AcDbVisualStyle
  3
ObjectDBX Classes
 90
     4095
280
     0
281
     0
  0
CLASS
  1
SUN
  2
AcDbSun
  3
SCENEOE
 90
     1153
280
     0
281
     0
  0
CLASS
  1
SCALE
  2
AcDbScale
  3
ObjectDBX Classes
 90
     1153
280
     0
281
     0
  0
CLASS
  1
DICTIONARYVAR
  2
AcDbDictionaryVar
  3
ObjectDBX Classes
 90
        0
280
     0
281
     0
  0
CLASS
  1
MLEADERSTYLE
  2
AcDbMLeaderStyle
  3
ACDB_MLEADERSTYLE_CLASS
 90
     4095
280
     0
281
     0
  0
CLASS
  1
TABLESTYLE
  2
AcDbTableStyle
  3
ObjectDBX Classes
 90
     4095
280
     0
281
     0
  0
CLASS
  1
ACDBPLACEHOLDER
  2
AcDbPlaceHolder
  3
ObjectDBX Classes
 90
        0
280
     0
281
     0
  0
CLASS
  1
LAYOUT
  2
AcDbLayout
  3
ObjectDBX Classes
 90
        0
280
     0
281
     0
  0
ENDSEC
  0
SECTION
  2
TABLES
  0
TABLE
  2
VPORT
  5
1F
102
{ACAD_XDICTIONARY
360
E3
102
}
330
0
100
AcDbSymbolTable
 70
     1
  0
VPORT
  5
25
330
1F
100
AcDbSymbolTableRecord
100
AcDbViewportTableRecord
  2
*Active
 70
     0
 10
0.0
 20
0.0
 11
1.0
 21
1.0
 12
305.3655273525486
 22
391.4355567211984
 13
0.0
 23
0.0
 14
0.5
 24
0.5
 15
0.5
 25
0.5
 16
0.0
 26
0.0
 36
1.0
 17
0.0
 27
0.0
 37
0.0
 40
21.50758357289994
 41
1.987619032668457
 42
50.0
 43
0.0
 44
0.0
 50
0.0
 51
0.0
 71
    16
 72
   100
 73
     1
 74
     3
 75
     0
 76
     0
 77
     0
 78
     0
281
     0
 65
     1
110
0.0
120
0.0
130
0.0
111
1.0
121
0.0
131
0.0
112
0.0
122
1.0
132
0.0
 79
     0
146
0.0
  0
ENDTAB
  0
TABLE
  2
LTYPE
  5
9
330
0
100
AcDbSymbolTable
 70
     1
  0
LTYPE
  5
A
330
9
100
AcDbSymbolTableRecord
100
AcDbLinetypeTableRecord
  2
ByBlock
 70
     0
  3

 72
    65
 73
     0
 40
0.0
  0
LTYPE
  5
B
330
9
100
AcDbSymbolTableRecord
100
AcDbLinetypeTableRecord
  2
ByLayer
 70
     0
  3

 72
    65
 73
     0
 40
0.0
  0
LTYPE
  5
8
330
9
100
AcDbSymbolTableRecord
100
AcDbLinetypeTableRecord
  2
Continuous
 70
     0
  3
Solid line
 72
    65
 73
     0
 40
0.0
  0
ENDTAB
  0
TABLE
  2
LAYER
  5
2
330
0
100
AcDbSymbolTable
 70
     2
  0
LAYER
  5
1
330
2
100
AcDbSymbolTableRecord
100
AcDbLayerTableRecord
  2
0
 70
     0
 62
     7
  6
Continuous
370
    -3
390
3
  0
LAYER
  5
4E
330
2
100
AcDbSymbolTableRecord
100
AcDbLayerTableRecord
  2
Layer 1
 70
     0
 62
     7
  6
Continuous
370
    -3
390
3
  0
ENDTAB
  0
TABLE
  2
STYLE
  5
D
330
0
100
AcDbSymbolTable
 70
     1
  0
STYLE
  5
C
330
D
100
AcDbSymbolTableRecord
100
AcDbTextStyleTableRecord
  2
Standard
 70
     0
 40
0.0
 41
1.0
 50
0.0
 71
     0
 42
0.2
  3
txt
  4

  0
ENDTAB
  0
TABLE
  2
VIEW
  5
1D
330
0
100
AcDbSymbolTable
 70
     0
  0
ENDTAB
  0
TABLE
  2
UCS
  5
1E
330
0
100
AcDbSymbolTable
 70
     0
  0
ENDTAB
  0
TABLE
  2
APPID
  5
20
330
0
100
AcDbSymbolTable
 70
     2
  0
APPID
  5
24
330
20
100
AcDbSymbolTableRecord
100
AcDbRegAppTableRecord
  2
ACAD
 70
     0
  0
APPID
  5
11C
330
20
100
AcDbSymbolTableRecord
100
AcDbRegAppTableRecord
  2
ACAD_MLEADERVER
 70
     0
  0
ENDTAB
  0
TABLE
  2
DIMSTYLE
  5
10
330
0
100
AcDbSymbolTable
 70
     1
100
AcDbDimStyleTable
  0
DIMSTYLE
105
F
330
10
100
AcDbSymbolTableRecord
100
AcDbDimStyleTableRecord
  2
Standard
 70
     0
178
     0
340
C
  0
ENDTAB
  0
TABLE
  2
BLOCK_RECORD
  5
13
330
0
100
AcDbSymbolTable
 70
     0
  0
BLOCK_RECORD
  5
14
330
13
100
AcDbSymbolTableRecord
100
AcDbBlockTableRecord
  2
*Model_Space
340
17
  0
BLOCK_RECORD
  5
19
330
13
100
AcDbSymbolTableRecord
100
AcDbBlockTableRecord
  2
*Paper_Space
340
1C
  0
ENDTAB
  0
ENDSEC
  0
SECTION
  2
BLOCKS
  0
BLOCK
  5
15
330
14
100
AcDbEntity
  8
0
100
AcDbBlockBegin
  2
*Model_Space
 70
     0
 10
0.0
 20
0.0
 30
0.0
  3
*Model_Space
  1

  0
ENDBLK
  5
16
330
14
100
AcDbEntity
  8
0
100
AcDbBlockEnd
  0
BLOCK
  5
1A
330
19
100
AcDbEntity
 67
     1
  8
0
100
AcDbBlockBegin
  2
*Paper_Space
 70
     0
 10
0.0
 20
0.0
 30
0.0
  3
*Paper_Space
  1

  0
ENDBLK
  5
1B
330
19
100
AcDbEntity
 67
     1
  8
0
100
AcDbBlockEnd
  0
ENDSEC
  0
SECTION
  2
ENTITIES
  0
SPLINE
  5
4D
330
14
100
AcDbEntity
  8
Layer 1
370
     0
100
AcDbSpline
210
0.0
220
0.0
230
1.0
 70
    11
 71
     3
 72
    32
 73
    28
 74
     0
 42
0.000000001
 43
0.0000000001
 40
0.0
 40
0.0
 40
0.0
 40
0.0
 40
1.0
 40
1.0
 40
1.0
 40
2.0
 40
2.0
 40
2.0
 40
3.0
 40
3.0
 40
3.0
 40
4.0
 40
4.0
 40
4.0
 40
5.0
 40
5.0
 40
5.0
 40
6.0
 40
6.0
 40
6.0
 40
7.0
 40
7.0
 40
7.0
 40
8.0
 40
8.0
 40
8.0
 40
9.0
 40
9.0
 40
9.0
 40
9.0
 10
315.0077920422336
 20
383.0966903221633
 30
0.0
 10
314.8603920459573
 20
383.2431903184624
 30
0.0
 10
314.6562920511133
 20
383.3340000000007
 30
0.0
 10
314.4315920567897
 20
383.3340000000007
 30
0.0
 10
314.2070000000003
 20
383.3340000000007
 30
0.0
 10
314.0020000000004
 20
383.2431903184624
 30
0.0
 10
313.8554920713432
 20
383.0966903221633
 30
0.0
 10
313.7090000000007
 20
382.9491903258895
 30
0.0
 10
313.6181920773379
 20
382.7460903310202
 30
0.0
 10
313.6181920773379
 20
382.5204903367194
 30
0.0
 10
313.6181920773379
 20
382.2948903424185
 30
0.0
 10
313.7090000000007
 20
382.0917903475492
 30
0.0
 10
313.8554920713432
 20
381.9452903512502
 30
0.0
 10
314.0020000000004
 20
381.7978903549738
 30
0.0
 10
314.2070000000003
 20
381.7080000000005
 30
0.0
 10
314.4315920567897
 20
381.7080000000005
 30
0.0
 10
314.6562920511133
 20
381.7080000000005
 30
0.0
 10
314.8603920459573
 20
381.7978903549738
 30
0.0
 10
315.0077920422336
 20
381.9452903512502
 30
0.0
 10
315.1542920385327
 20
382.0917903475492
 30
0.0
 10
315.2450920362389
 20
382.2948903424185
 30
0.0
 10
315.2450920362389
 20
382.5204903367194
 30
0.0
 10
315.2450920362389
 20
382.7460903310202
 30
0.0
 10
315.1542920385327
 20
382.9491903258895
 30
0.0
 10
315.0077920422336
 20
383.0966903221633
 30
0.0
 10
315.0077920422336
 20
383.0966903221633
 30
0.0
 10
315.0077920422336
 20
383.0966903221633
 30
0.0
 10
315.0077920422336
 20
383.0966903221633
 30
0.0
  0
SPLINE
  5
4F
330
14
100
AcDbEntity
  8
Layer 1
370
     0
100
AcDbSpline
210
0.0
220
0.0
230
1.0
 70
    11
 71
     3
 72
    29
 73
    25
 74
     0
 42
0.000000001
 43
0.0000000001
 40
0.0
 40
0.0
 40
0.0
 40
0.0
 40
1.0
 40
1.0
 40
1.0
 40
2.0
 40
2.0
 40
2.0
 40
3.0
 40
3.0
 40
3.0
 40
4.0
 40
4.0
 40
4.0
 40
5.0
 40
5.0
 40
5.0
 40
6.0
 40
6.0
 40
6.0
 40
7.0
 40
7.0
 40
7.0
 40
8.0
 40
8.0
 40
8.0
 40
8.0
 10
313.2968920854546
 20
383.685490307289
 30
0.0
 10
313.2968920854546
 20
383.685490307289
 30
0.0
 10
312.3349999999991
 20
383.685490307289
 30
0.0
 10
312.3349999999991
 20
383.685490307289
 30
0.0
 10
312.3349999999991
 20
383.685490307289
 30
0.0
 10
312.3495921093854
 20
383.6718903076326
 30
0.0
 10
312.3495921093854
 20
383.6718903076326
 30
0.0
 10
312.3495921093854
 20
383.6718903076326
 30
0.0
 10
312.3505921093602
 20
383.6698903076831
 30
0.0
 10
312.3505921093602
 20
383.6698903076831
 30
0.0
 10
312.6015921030194
 20
383.4188903140239
 30
0.0
 10
312.7704920987526
 20
383.0878903223856
 30
0.0
 10
312.8163920975931
 20
382.7177903317352
 30
0.0
 10
312.8603920964815
 20
383.0878903223856
 30
0.0
 10
313.0292920922147
 20
383.4188903140239
 30
0.0
 10
313.2812920858487
 20
383.6698903076831
 30
0.0
 10
313.2812920858487
 20
383.6698903076831
 30
0.0
 10
313.2812920858487
 20
383.6718903076326
 30
0.0
 10
313.2812920858487
 20
383.6718903076326
 30
0.0
 10
313.2812920858487
 20
383.6718903076326
 30
0.0
 10
313.2968920854546
 20
383.685490307289
 30
0.0
 10
313.2968920854546
 20
383.685490307289
 30
0.0
 10
313.2968920854546
 20
383.685490307289
 30
0.0
 10
313.2968920854546
 20
383.685490307289
 30
0.0
 10
313.2968920854546
 20
383.685490307289
 30
0.0
  0
POLYLINE
  5
50
330
14
100
AcDbEntity
  8
Layer 1
370
     0
100
AcDb2dPolyline
 66
     1
 10
0.0
 20
0.0
 30
0.0
  0
VERTEX
  5
51
330
50
100
AcDbEntity
  8
Layer 1
370
     0
100
AcDbVertex
100
AcDb2dVertex
 10
319.6347919253458
 20
392.3847900875262
 30
0.0
  0
VERTEX
  5
52
330
50
100
AcDbEntity
  8
Layer 1
370
     0
100
AcDbVertex
100
AcDb2dVertex
 10
317.1337919885264
 20
392.3847900875262
 30
0.0
  0
VERTEX
  5
53
330
50
100
AcDbEntity
  8
Layer 1
370
     0
100
AcDbVertex
100
AcDb2dVertex
 10
317.1337919885264
 20
383.8144903040302
 30
0.0
  0
VERTEX
  5
54
330
50
100
AcDbEntity
  8
Layer 1
370
     0
100
AcDbVertex
100
AcDb2dVertex
 10
319.6347919253458
 20
383.8144903040302
 30
0.0
  0
VERTEX
  5
55
330
50
100
AcDbEntity
  8
Layer 1
370
     0
100
AcDbVertex
100
AcDb2dVertex
 10
319.6347919253458
 20
392.3847900875262
 30
0.0
  0
VERTEX
  5
56
330
50
100
AcDbEntity
  8
Layer 1
370
     0
100
AcDbVertex
100
AcDb2dVertex
 10
319.6347919253458
 20
392.3847900875262
 30
0.0
  0
SEQEND
  5
57
330
50
100
AcDbEntity
  8
Layer 1
370
     0
  0
SPLINE
  5
58
330
14
100
AcDbEntity
  8
Layer 1
370
     0
100
AcDbSpline
210
0.0
220
0.0
230
1.0
 70
    11
 71
     3
 72
    32
 73
    28
 74
     0
 42
0.000000001
 43
0.0000000001
 40
0.0
 40
0.0
 40
0.0
 40
0.0
 40
1.0
 40
1.0
 40
1.0
 40
2.0
 40
2.0
 40
2.0
 40
3.0
 40
3.0
 40
3.0
 40
4.0
 40
4.0
 40
4.0
 40
5.0
 40
5.0
 40
5.0
 40
6.0
 40
6.0
 40
6.0
 40
7.0
 40
7.0
 40
7.0
 40
8.0
 40
8.0
 40
8.0
 40
9.0
 40
9.0
 40
9.0
 40
9.0
 10
317.8495919704437
 20
391.8778901003316
 30
0.0
 10
317.644491975625
 20
391.8778901003316
 30
0.0
 10
317.4765919798665
 20
391.689490105091
 30
0.0
 10
317.4765919798665
 20
391.4590000000007
 30
0.0
 10
317.4765919798665
 20
391.4590000000007
 30
0.0
 10
317.4765919798665
 20
388.2860901910681
 30
0.0
 10
317.4765919798665
 20
388.2860901910681
 30
0.0
 10
317.4765919798665
 20
388.0565901968657
 30
0.0
 10
317.644491975625
 20
387.8671902016504
 30
0.0
 10
317.8495919704437
 20
387.8671902016504
 30
0.0
 10
317.8495919704437
 20
387.8671902016504
 30
0.0
 10
317.8495919704437
 20
387.8671902016504
 30
0.0
 10
317.8495919704437
 20
387.8671902016504
 30
0.0
 10
318.0565919652145
 20
387.8671902016504
 30
0.0
 10
318.2245919609704
 20
388.0565901968657
 30
0.0
 10
318.2245919609704
 20
388.2860901910681
 30
0.0
 10
318.2245919609704
 20
388.2860901910681
 30
0.0
 10
318.2245919609704
 20
391.4590000000007
 30
0.0
 10
318.2245919609704
 20
391.4590000000007
 30
0.0
 10
318.2245919609704
 20
391.689490105091
 30
0.0
 10
318.0565919652145
 20
391.8778901003316
 30
0.0
 10
317.8495919704437
 20
391.8778901003316
 30
0.0
 10
317.8495919704437
 20
391.8778901003316
 30
0.0
 10
317.8495919704437
 20
391.8778901003316
 30
0.0
 10
317.8495919704437
 20
391.8778901003316
 30
0.0
 10
317.8495919704437
 20
391.8778901003316
 30
0.0
 10
317.8495919704437
 20
391.8778901003316
 30
0.0
 10
317.8495919704437
 20
391.8778901003316
 30
0.0
  0
SPLINE
  5
59
330
14
100
AcDbEntity
  8
Layer 1
370
     0
100
AcDbSpline
210
0.0
220
0.0
230
1.0
 70
    11
 71
     3
 72
    32
 73
    28
 74
     0
 42
0.000000001
 43
0.0000000001
 40
0.0
 40
0.0
 40
0.0
 40
0.0
 40
1.0
 40
1.0
 40
1.0
 40
2.0
 40
2.0
 40
2.0
 40
3.0
 40
3.0
 40
3.0
 40
4.0
 40
4.0
 40
4.0
 40
5.0
 40
5.0
 40
5.0
 40
6.0
 40
6.0
 40
6.0
 40
7.0
 40
7.0
 40
7.0
 40
8.0
 40
8.0
 40
8.0
 40
9.0
 40
9.0
 40
9.0
 40
9.0
 10
317.8495919704437
 20
387.3515902146755
 30
0.0
 10
317.644491975625
 20
387.3515902146755
 30
0.0
 10
317.4765919798665
 20
387.1620902194627
 30
0.0
 10
317.4765919798665
 20
386.9315902252856
 30
0.0
 10
317.4765919798665
 20
386.9315902252856
 30
0.0
 10
317.4765919798665
 20
384.7753902797558
 30
0.0
 10
317.4765919798665
 20
384.7753902797558
 30
0.0
 10
317.4765919798665
 20
384.5448902855787
 30
0.0
 10
317.644491975625
 20
384.3563902903406
 30
0.0
 10
317.8495919704437
 20
384.3563902903406
 30
0.0
 10
317.8495919704437
 20
384.3563902903406
 30
0.0
 10
317.8495919704437
 20
384.3563902903406
 30
0.0
 10
317.8495919704437
 20
384.3563902903406
 30
0.0
 10
318.0565919652145
 20
384.3563902903406
 30
0.0
 10
318.2245919609704
 20
384.5448902855787
 30
0.0
 10
318.2245919609704
 20
384.7753902797558
 30
0.0
 10
318.2245919609704
 20
384.7753902797558
 30
0.0
 10
318.2245919609704
 20
386.9315902252856
 30
0.0
 10
318.2245919609704
 20
386.9315902252856
 30
0.0
 10
318.2245919609704
 20
387.1620902194627
 30
0.0
 10
318.0565919652145
 20
387.3515902146755
 30
0.0
 10
317.8495919704437
 20
387.3515902146755
 30
0.0
 10
317.8495919704437
 20
387.3515902146755
 30
0.0
 10
317.8495919704437
 20
387.3515902146755
 30
0.0
 10
317.8495919704437
 20
387.3515902146755
 30
0.0
 10
317.8495919704437
 20
387.3515902146755
 30
0.0
 10
317.8495919704437
 20
387.3515902146755
 30
0.0
 10
317.8495919704437
 20
387.3515902146755
 30
0.0
  0
SPLINE
  5
5A
330
14
100
AcDbEntity
  8
Layer 1
370
     0
100
AcDbSpline
210
0.0
220
0.0
230
1.0
 70
    11
 71
     3
 72
    32
 73
    28
 74
     0
 42
0.000000001
 43
0.0000000001
 40
0.0
 40
0.0
 40
0.0
 40
0.0
 40
1.0
 40
1.0
 40
1.0
 40
2.0
 40
2.0
 40
2.0
 40
3.0
 40
3.0
 40
3.0
 40
4.0
 40
4.0
 40
4.0
 40
5.0
 40
5.0
 40
5.0
 40
6.0
 40
6.0
 40
6.0
 40
7.0
 40
7.0
 40
7.0
 40
8.0
 40
8.0
 40
8.0
 40
9.0
 40
9.0
 40
9.0
 40
9.0
 10
318.8944919440473
 20
387.3515902146755
 30
0.0
 10
318.6894919492261
 20
387.3515902146755
 30
0.0
 10
318.5194919535206
 20
387.1620902194627
 30
0.0
 10
318.5194919535206
 20
386.9315902252856
 30
0.0
 10
318.5194919535206
 20
386.9315902252856
 30
0.0
 10
318.5194919535206
 20
384.7753902797558
 30
0.0
 10
318.5194919535206
 20
384.7753902797558
 30
0.0
 10
318.5194919535206
 20
384.5448902855787
 30
0.0
 10
318.6894919492261
 20
384.3563902903406
 30
0.0
 10
318.8944919440473
 20
384.3563902903406
 30
0.0
 10
318.8944919440473
 20
384.3563902903406
 30
0.0
 10
318.8944919440473
 20
384.3563902903406
 30
0.0
 10
318.8944919440473
 20
384.3563902903406
 30
0.0
 10
319.0995919388661
 20
384.3563902903406
 30
0.0
 10
319.269491934574
 20
384.5448902855787
 30
0.0
 10
319.269491934574
 20
384.7753902797558
 30
0.0
 10
319.269491934574
 20
384.7753902797558
 30
0.0
 10
319.269491934574
 20
386.9315902252856
 30
0.0
 10
319.269491934574
 20
386.9315902252856
 30
0.0
 10
319.269491934574
 20
387.1620902194627
 30
0.0
 10
319.0995919388661
 20
387.3515902146755
 30
0.0
 10
318.8944919440473
 20
387.3515902146755
 30
0.0
 10
318.8944919440473
 20
387.3515902146755
 30
0.0
 10
318.8944919440473
 20
387.3515902146755
 30
0.0
 10
318.8944919440473
 20
387.3515902146755
 30
0.0
 10
318.8944919440473
 20
387.3515902146755
 30
0.0
 10
318.8944919440473
 20
387.3515902146755
 30
0.0
 10
318.8944919440473
 20
387.3515902146755
 30
0.0
  0
SPLINE
  5
5B
330
14
100
AcDbEntity
  8
Layer 1
370
     0
100
AcDbSpline
210
0.0
220
0.0
230
1.0
 70
    11
 71
     3
 72
    32
 73
    28
 74
     0
 42
0.000000001
 43
0.0000000001
 40
0.0
 40
0.0
 40
0.0
 40
0.0
 40
1.0
 40
1.0
 40
1.0
 40
2.0
 40
2.0
 40
2.0
 40
3.0
 40
3.0
 40
3.0
 40
4.0
 40
4.0
 40
4.0
 40
5.0
 40
5.0
 40
5.0
 40
6.0
 40
6.0
 40
6.0
 40
7.0
 40
7.0
 40
7.0
 40
8.0
 40
8.0
 40
8.0
 40
9.0
 40
9.0
 40
9.0
 40
9.0
 10
318.8944919440473
 20
391.8778901003316
 30
0.0
 10
318.6894919492261
 20
391.8778901003316
 30
0.0
 10
318.5194919535206
 20
391.689490105091
 30
0.0
 10
318.5194919535206
 20
391.4590000000007
 30
0.0
 10
318.5194919535206
 20
391.4590000000007
 30
0.0
 10
318.5194919535206
 20
388.2860901910681
 30
0.0
 10
318.5194919535206
 20
388.2860901910681
 30
0.0
 10
318.5194919535206
 20
388.0565901968657
 30
0.0
 10
318.6894919492261
 20
387.8671902016504
 30
0.0
 10
318.8944919440473
 20
387.8671902016504
 30
0.0
 10
318.8944919440473
 20
387.8671902016504
 30
0.0
 10
318.8944919440473
 20
387.8671902016504
 30
0.0
 10
318.8944919440473
 20
387.8671902016504
 30
0.0
 10
319.0995919388661
 20
387.8671902016504
 30
0.0
 10
319.269491934574
 20
388.0565901968657
 30
0.0
 10
319.269491934574
 20
388.2860901910681
 30
0.0
 10
319.269491934574
 20
388.2860901910681
 30
0.0
 10
319.269491934574
 20
391.4590000000007
 30
0.0
 10
319.269491934574
 20
391.4590000000007
 30
0.0
 10
319.269491934574
 20
391.689490105091
 30
0.0
 10
319.0995919388661
 20
391.8778901003316
 30
0.0
 10
318.8944919440473
 20
391.8778901003316
 30
0.0
 10
318.8944919440473
 20
391.8778901003316
 30
0.0
 10
318.8944919440473
 20
391.8778901003316
 30
0.0
 10
318.8944919440473
 20
391.8778901003316
 30
0.0
 10
318.8944919440473
 20
391.8778901003316
 30
0.0
 10
318.8944919440473
 20
391.8778901003316
 30
0.0
 10
318.8944919440473
 20
391.8778901003316
 30
0.0
  0
POLYLINE
  5
5C
330
14
100
AcDbEntity
  8
Layer 1
370
     0
100
AcDb2dPolyline
 66
     1
 10
0.0
 20
0.0
 30
0.0
  0
VERTEX
  5
5D
330
5C
100
AcDbEntity
  8
Layer 1
370
     0
100
AcDbVertex
100
AcDb2dVertex
 10
319.875
 20
392.3847900875262
 30
0.0
  0
VERTEX
  5
5E
330
5C
100
AcDbEntity
  8
Layer 1
370
     0
100
AcDbVertex
100
AcDb2dVertex
 10
319.875
 20
383.8144903040302
 30
0.0
  0
VERTEX
  5
5F
330
5C
100
AcDbEntity
  8
Layer 1
370
     0
100
AcDbVertex
100
AcDb2dVertex
 10
322.375
 20
383.8144903040302
 30
0.0
  0
VERTEX
  5
60
330
5C
100
AcDbEntity
  8
Layer 1
370
     0
100
AcDbVertex
100
AcDb2dVertex
 10
322.375
 20
392.3847900875262
 30
0.0
  0
VERTEX
  5
61
330
5C
100
AcDbEntity
  8
Layer 1
370
     0
100
AcDbVertex
100
AcDb2dVertex
 10
319.875
 20
392.3847900875262
 30
0.0
  0
VERTEX
  5
62
330
5C
100
AcDbEntity
  8
Layer 1
370
     0
100
AcDbVertex
100
AcDb2dVertex
 10
319.875
 20
392.3847900875262
 30
0.0
  0
SEQEND
  5
63
330
5C
100
AcDbEntity
  8
Layer 1
370
     0
  0
SPLINE
  5
64
330
14
100
AcDbEntity
  8
Layer 1
370
     0
100
AcDbSpline
210
0.0
220
0.0
230
1.0
 70
    11
 71
     3
 72
    32
 73
    28
 74
     0
 42
0.000000001
 43
0.0000000001
 40
0.0
 40
0.0
 40
0.0
 40
0.0
 40
1.0
 40
1.0
 40
1.0
 40
2.0
 40
2.0
 40
2.0
 40
3.0
 40
3.0
 40
3.0
 40
4.0
 40
4.0
 40
4.0
 40
5.0
 40
5.0
 40
5.0
 40
6.0
 40
6.0
 40
6.0
 40
7.0
 40
7.0
 40
7.0
 40
8.0
 40
8.0
 40
8.0
 40
9.0
 40
9.0
 40
9.0
 40
9.0
 10
320.5917919011699
 20
391.8778901003316
 30
0.0
 10
320.3847919063992
 20
391.8778901003316
 30
0.0
 10
320.2167919106432
 20
391.689490105091
 30
0.0
 10
320.2167919106432
 20
391.4590000000007
 30
0.0
 10
320.2167919106432
 20
391.4590000000007
 30
0.0
 10
320.2167919106432
 20
388.2860901910681
 30
0.0
 10
320.2167919106432
 20
388.2860901910681
 30
0.0
 10
320.2167919106432
 20
388.0565901968657
 30
0.0
 10
320.3847919063992
 20
387.8671902016504
 30
0.0
 10
320.5917919011699
 20
387.8671902016504
 30
0.0
 10
320.5917919011699
 20
387.8671902016504
 30
0.0
 10
320.5917919011699
 20
387.8671902016504
 30
0.0
 10
320.5917919011699
 20
387.8671902016504
 30
0.0
 10
320.7968918959887
 20
387.8671902016504
 30
0.0
 10
320.9667918916966
 20
388.0565901968657
 30
0.0
 10
320.9667918916966
 20
388.2860901910681
 30
0.0
 10
320.9667918916966
 20
388.2860901910681
 30
0.0
 10
320.9667918916966
 20
391.4590000000007
 30
0.0
 10
320.9667918916966
 20
391.4590000000007
 30
0.0
 10
320.9667918916966
 20
391.689490105091
 30
0.0
 10
320.7968918959887
 20
391.8778901003316
 30
0.0
 10
320.5917919011699
 20
391.8778901003316
 30
0.0
 10
320.5917919011699
 20
391.8778901003316
 30
0.0
 10
320.5917919011699
 20
391.8778901003316
 30
0.0
 10
320.5917919011699
 20
391.8778901003316
 30
0.0
 10
320.5917919011699
 20
391.8778901003316
 30
0.0
 10
320.5917919011699
 20
391.8778901003316
 30
0.0
 10
320.5917919011699
 20
391.8778901003316
 30
0.0
  0
SPLINE
  5
65
330
14
100
AcDbEntity
  8
Layer 1
370
     0
100
AcDbSpline
210
0.0
220
0.0
230
1.0
 70
    11
 71
     3
 72
    32
 73
    28
 74
     0
 42
0.000000001
 43
0.0000000001
 40
0.0
 40
0.0
 40
0.0
 40
0.0
 40
1.0
 40
1.0
 40
1.0
 40
2.0
 40
2.0
 40
2.0
 40
3.0
 40
3.0
 40
3.0
 40
4.0
 40
4.0
 40
4.0
 40
5.0
 40
5.0
 40
5.0
 40
6.0
 40
6.0
 40
6.0
 40
7.0
 40
7.0
 40
7.0
 40
8.0
 40
8.0
 40
8.0
 40
9.0
 40
9.0
 40
9.0
 40
9.0
 10
320.5917919011699
 20
387.3515902146755
 30
0.0
 10
320.3847919063992
 20
387.3515902146755
 30
0.0
 10
320.2167919106432
 20
387.1620902194627
 30
0.0
 10
320.2167919106432
 20
386.9315902252856
 30
0.0
 10
320.2167919106432
 20
386.9315902252856
 30
0.0
 10
320.2167919106432
 20
384.7753902797558
 30
0.0
 10
320.2167919106432
 20
384.7753902797558
 30
0.0
 10
320.2167919106432
 20
384.5448902855787
 30
0.0
 10
320.3847919063992
 20
384.3563902903406
 30
0.0
 10
320.5917919011699
 20
384.3563902903406
 30
0.0
 10
320.5917919011699
 20
384.3563902903406
 30
0.0
 10
320.5917919011699
 20
384.3563902903406
 30
0.0
 10
320.5917919011699
 20
384.3563902903406
 30
0.0
 10
320.7968918959887
 20
384.3563902903406
 30
0.0
 10
320.9667918916966
 20
384.5448902855787
 30
0.0
 10
320.9667918916966
 20
384.7753902797558
 30
0.0
 10
320.9667918916966
 20
384.7753902797558
 30
0.0
 10
320.9667918916966
 20
386.9315902252856
 30
0.0
 10
320.9667918916966
 20
386.9315902252856
 30
0.0
 10
320.9667918916966
 20
387.1620902194627
 30
0.0
 10
320.7968918959887
 20
387.3515902146755
 30
0.0
 10
320.5917919011699
 20
387.3515902146755
 30
0.0
 10
320.5917919011699
 20
387.3515902146755
 30
0.0
 10
320.5917919011699
 20
387.3515902146755
 30
0.0
 10
320.5917919011699
 20
387.3515902146755
 30
0.0
 10
320.5917919011699
 20
387.3515902146755
 30
0.0
 10
320.5917919011699
 20
387.3515902146755
 30
0.0
 10
320.5917919011699
 20
387.3515902146755
 30
0.0
  0
SPLINE
  5
66
330
14
100
AcDbEntity
  8
Layer 1
370
     0
100
AcDbSpline
210
0.0
220
0.0
230
1.0
 70
    11
 71
     3
 72
    32
 73
    28
 74
     0
 42
0.000000001
 43
0.0000000001
 40
0.0
 40
0.0
 40
0.0
 40
0.0
 40
1.0
 40
1.0
 40
1.0
 40
2.0
 40
2.0
 40
2.0
 40
3.0
 40
3.0
 40
3.0
 40
4.0
 40
4.0
 40
4.0
 40
5.0
 40
5.0
 40
5.0
 40
6.0
 40
6.0
 40
6.0
 40
7.0
 40
7.0
 40
7.0
 40
8.0
 40
8.0
 40
8.0
 40
9.0
 40
9.0
 40
9.0
 40
9.0
 10
321.6347918748215
 20
387.3515902146755
 30
0.0
 10
321.4296918800028
 20
387.3515902146755
 30
0.0
 10
321.2606918842721
 20
387.1620902194627
 30
0.0
 10
321.2606918842721
 20
386.9315902252856
 30
0.0
 10
321.2606918842721
 20
386.9315902252856
 30
0.0
 10
321.2606918842721
 20
384.7753902797558
 30
0.0
 10
321.2606918842721
 20
384.7753902797558
 30
0.0
 10
321.2606918842721
 20
384.5448902855787
 30
0.0
 10
321.4296918800028
 20
384.3563902903406
 30
0.0
 10
321.6347918748215
 20
384.3563902903406
 30
0.0
 10
321.6347918748215
 20
384.3563902903406
 30
0.0
 10
321.6347918748215
 20
384.3563902903406
 30
0.0
 10
321.6347918748215
 20
384.3563902903406
 30
0.0
 10
321.8407918696175
 20
384.3563902903406
 30
0.0
 10
322.0097918653482
 20
384.5448902855787
 30
0.0
 10
322.0097918653482
 20
384.7753902797558
 30
0.0
 10
322.0097918653482
 20
384.7753902797558
 30
0.0
 10
322.0097918653482
 20
386.9315902252856
 30
0.0
 10
322.0097918653482
 20
386.9315902252856
 30
0.0
 10
322.0097918653482
 20
387.1620902194627
 30
0.0
 10
321.8407918696175
 20
387.3515902146755
 30
0.0
 10
321.6347918748215
 20
387.3515902146755
 30
0.0
 10
321.6347918748215
 20
387.3515902146755
 30
0.0
 10
321.6347918748215
 20
387.3515902146755
 30
0.0
 10
321.6347918748215
 20
387.3515902146755
 30
0.0
 10
321.6347918748215
 20
387.3515902146755
 30
0.0
 10
321.6347918748215
 20
387.3515902146755
 30
0.0
 10
321.6347918748215
 20
387.3515902146755
 30
0.0
  0
SPLINE
  5
67
330
14
100
AcDbEntity
  8
Layer 1
370
     0
100
AcDbSpline
210
0.0
220
0.0
230
1.0
 70
    11
 71
     3
 72
    32
 73
    28
 74
     0
 42
0.000000001
 43
0.0000000001
 40
0.0
 40
0.0
 40
0.0
 40
0.0
 40
1.0
 40
1.0
 40
1.0
 40
2.0
 40
2.0
 40
2.0
 40
3.0
 40
3.0
 40
3.0
 40
4.0
 40
4.0
 40
4.0
 40
5.0
 40
5.0
 40
5.0
 40
6.0
 40
6.0
 40
6.0
 40
7.0
 40
7.0
 40
7.0
 40
8.0
 40
8.0
 40
8.0
 40
9.0
 40
9.0
 40
9.0
 40
9.0
 10
321.6347918748215
 20
391.8778901003316
 30
0.0
 10
321.4296918800028
 20
391.8778901003316
 30
0.0
 10
321.2606918842721
 20
391.689490105091
 30
0.0
 10
321.2606918842721
 20
391.4590000000007
 30
0.0
 10
321.2606918842721
 20
391.4590000000007
 30
0.0
 10
321.2606918842721
 20
388.2860901910681
 30
0.0
 10
321.2606918842721
 20
388.2860901910681
 30
0.0
 10
321.2606918842721
 20
388.0565901968657
 30
0.0
 10
321.4296918800028
 20
387.8671902016504
 30
0.0
 10
321.6347918748215
 20
387.8671902016504
 30
0.0
 10
321.6347918748215
 20
387.8671902016504
 30
0.0
 10
321.6347918748215
 20
387.8671902016504
 30
0.0
 10
321.6347918748215
 20
387.8671902016504
 30
0.0
 10
321.8407918696175
 20
387.8671902016504
 30
0.0
 10
322.0097918653482
 20
388.0565901968657
 30
0.0
 10
322.0097918653482
 20
388.2860901910681
 30
0.0
 10
322.0097918653482
 20
388.2860901910681
 30
0.0
 10
322.0097918653482
 20
391.4590000000007
 30
0.0
 10
322.0097918653482
 20
391.4590000000007
 30
0.0
 10
322.0097918653482
 20
391.689490105091
 30
0.0
 10
321.8407918696175
 20
391.8778901003316
 30
0.0
 10
321.6347918748215
 20
391.8778901003316
 30
0.0
 10
321.6347918748215
 20
391.8778901003316
 30
0.0
 10
321.6347918748215
 20
391.8778901003316
 30
0.0
 10
321.6347918748215
 20
391.8778901003316
 30
0.0
 10
321.6347918748215
 20
391.8778901003316
 30
0.0
 10
321.6347918748215
 20
391.8778901003316
 30
0.0
 10
321.6347918748215
 20
391.8778901003316
 30
0.0
  0
SPLINE
  5
68
330
14
100
AcDbEntity
  8
Layer 1
370
     0
100
AcDbSpline
210
0.0
220
0.0
230
1.0
 70
    11
 71
     3
 72
    32
 73
    28
 74
     0
 42
0.000000001
 43
0.0000000001
 40
0.0
 40
0.0
 40
0.0
 40
0.0
 40
1.0
 40
1.0
 40
1.0
 40
2.0
 40
2.0
 40
2.0
 40
3.0
 40
3.0
 40
3.0
 40
4.0
 40
4.0
 40
4.0
 40
5.0
 40
5.0
 40
5.0
 40
6.0
 40
6.0
 40
6.0
 40
7.0
 40
7.0
 40
7.0
 40
8.0
 40
8.0
 40
8.0
 40
9.0
 40
9.0
 40
9.0
 40
9.0
 10
312.5429999999997
 20
392.5565900831862
 30
0.0
 10
312.2284921124447
 20
392.5565900831862
 30
0.0
 10
311.9726921189067
 20
392.301790089623
 30
0.0
 10
311.9726921189067
 20
391.9872900975679
 30
0.0
 10
311.9726921189067
 20
391.9872900975679
 30
0.0
 10
311.9726921189067
 20
388.2792901912399
 30
0.0
 10
311.9726921189067
 20
388.2792901912399
 30
0.0
 10
311.9726921189067
 20
387.9667901991343
 30
0.0
 10
312.2284921124447
 20
387.7090000000007
 30
0.0
 10
312.5429999999997
 20
387.7090000000007
 30
0.0
 10
312.5429999999997
 20
387.7090000000007
 30
0.0
 10
315.67969202526
 20
387.7090000000007
 30
0.0
 10
315.67969202526
 20
387.7090000000007
 30
0.0
 10
315.9940920173176
 20
387.7090000000007
 30
0.0
 10
316.25
 20
387.9667901991343
 30
0.0
 10
316.25
 20
388.2792901912399
 30
0.0
 10
316.25
 20
388.2792901912399
 30
0.0
 10
316.25
 20
391.9872900975679
 30
0.0
 10
316.25
 20
391.9872900975679
 30
0.0
 10
316.25
 20
392.301790089623
 30
0.0
 10
315.9940920173176
 20
392.5565900831862
 30
0.0
 10
315.67969202526
 20
392.5565900831862
 30
0.0
 10
315.67969202526
 20
392.5565900831862
 30
0.0
 10
312.5429999999997
 20
392.5565900831862
 30
0.0
 10
312.5429999999997
 20
392.5565900831862
 30
0.0
 10
312.5429999999997
 20
392.5565900831862
 30
0.0
 10
312.5429999999997
 20
392.5565900831862
 30
0.0
 10
312.5429999999997
 20
392.5565900831862
 30
0.0
  0
POLYLINE
  5
69
330
14
100
AcDbEntity
  8
Layer 1
370
     0
100
AcDb2dPolyline
 66
     1
 10
0.0
 20
0.0
 30
0.0
  0
VERTEX
  5
6A
330
69
100
AcDbEntity
  8
Layer 1
370
     0
100
AcDbVertex
100
AcDb2dVertex
 10
317.0136919915603
 20
392.6542900807181
 30
0.0
  0
VERTEX
  5
6B
330
69
100
AcDbEntity
  8
Layer 1
370
     0
100
AcDbVertex
100
AcDb2dVertex
 10
316.8935919945943
 20
392.6542900807181
 30
0.0
  0
VERTEX
  5
6C
330
69
100
AcDbEntity
  8
Layer 1
370
     0
100
AcDbVertex
100
AcDb2dVertex
 10
316.8935919945943
 20
392.5194900841234
 30
0.0
  0
VERTEX
  5
6D
330
69
100
AcDbEntity
  8
Layer 1
370
     0
100
AcDbVertex
100
AcDb2dVertex
 10
316.8935919945943
 20
383.6796903074355
 30
0.0
  0
VERTEX
  5
6E
330
69
100
AcDbEntity
  8
Layer 1
370
     0
100
AcDbVertex
100
AcDb2dVertex
 10
316.8935919945943
 20
383.5448903108409
 30
0.0
  0
VERTEX
  5
6F
330
69
100
AcDbEntity
  8
Layer 1
370
     0
100
AcDbVertex
100
AcDb2dVertex
 10
317.0136919915603
 20
383.5448903108409
 30
0.0
  0
VERTEX
  5
70
330
69
100
AcDbEntity
  8
Layer 1
370
     0
100
AcDbVertex
100
AcDb2dVertex
 10
319.6347919253458
 20
383.5448903108409
 30
0.0
  0
VERTEX
  5
71
330
69
100
AcDbEntity
  8
Layer 1
370
     0
100
AcDbVertex
100
AcDb2dVertex
 10
319.7558919222865
 20
383.5448903108409
 30
0.0
  0
VERTEX
  5
72
330
69
100
AcDbEntity
  8
Layer 1
370
     0
100
AcDbVertex
100
AcDb2dVertex
 10
319.875
 20
383.5448903108409
 30
0.0
  0
VERTEX
  5
73
330
69
100
AcDbEntity
  8
Layer 1
370
     0
100
AcDbVertex
100
AcDb2dVertex
 10
322.4960918530633
 20
383.5448903108409
 30
0.0
  0
VERTEX
  5
74
330
69
100
AcDbEntity
  8
Layer 1
370
     0
100
AcDbVertex
100
AcDb2dVertex
 10
322.6161918500293
 20
383.5448903108409
 30
0.0
  0
VERTEX
  5
75
330
69
100
AcDbEntity
  8
Layer 1
370
     0
100
AcDbVertex
100
AcDb2dVertex
 10
322.6161918500293
 20
383.6796903074355
 30
0.0
  0
VERTEX
  5
76
330
69
100
AcDbEntity
  8
Layer 1
370
     0
100
AcDbVertex
100
AcDb2dVertex
 10
322.6161918500293
 20
392.5194900841234
 30
0.0
  0
VERTEX
  5
77
330
69
100
AcDbEntity
  8
Layer 1
370
     0
100
AcDbVertex
100
AcDb2dVertex
 10
322.6161918500293
 20
392.6542900807181
 30
0.0
  0
VERTEX
  5
78
330
69
100
AcDbEntity
  8
Layer 1
370
     0
100
AcDbVertex
100
AcDb2dVertex
 10
322.4960918530633
 20
392.6542900807181
 30
0.0
  0
VERTEX
  5
79
330
69
100
AcDbEntity
  8
Layer 1
370
     0
100
AcDbVertex
100
AcDb2dVertex
 10
319.875
 20
392.6542900807181
 30
0.0
  0
VERTEX
  5
7A
330
69
100
AcDbEntity
  8
Layer 1
370
     0
100
AcDbVertex
100
AcDb2dVertex
 10
319.7558919222865
 20
392.6542900807181
 30
0.0
  0
VERTEX
  5
7B
330
69
100
AcDbEntity
  8
Layer 1
370
     0
100
AcDbVertex
100
AcDb2dVertex
 10
319.6347919253458
 20
392.6542900807181
 30
0.0
  0
VERTEX
  5
7C
330
69
100
AcDbEntity
  8
Layer 1
370
     0
100
AcDbVertex
100
AcDb2dVertex
 10
317.0136919915603
 20
392.6542900807181
 30
0.0
  0
VERTEX
  5
7D
330
69
100
AcDbEntity
  8
Layer 1
370
     0
100
AcDbVertex
100
AcDb2dVertex
 10
317.0136919915603
 20
392.6542900807181
 30
0.0
  0
SEQEND
  5
7E
330
69
100
AcDbEntity
  8
Layer 1
370
     0
  0
POLYLINE
  5
7F
330
14
100
AcDbEntity
  8
Layer 1
370
     0
100
AcDb2dPolyline
 66
     1
 10
0.0
 20
0.0
 30
0.0
  0
VERTEX
  5
80
330
7F
100
AcDbEntity
  8
Layer 1
370
     0
100
AcDbVertex
100
AcDb2dVertex
 10
303.2870923383234
 20
392.3847900875262
 30
0.0
  0
VERTEX
  5
81
330
7F
100
AcDbEntity
  8
Layer 1
370
     0
100
AcDbVertex
100
AcDb2dVertex
 10
300.7870924014787
 20
392.3847900875262
 30
0.0
  0
VERTEX
  5
82
330
7F
100
AcDbEntity
  8
Layer 1
370
     0
100
AcDbVertex
100
AcDb2dVertex
 10
300.7870924014787
 20
383.8144903040302
 30
0.0
  0
VERTEX
  5
83
330
7F
100
AcDbEntity
  8
Layer 1
370
     0
100
AcDbVertex
100
AcDb2dVertex
 10
303.2870923383234
 20
383.8144903040302
 30
0.0
  0
VERTEX
  5
84
330
7F
100
AcDbEntity
  8
Layer 1
370
     0
100
AcDbVertex
100
AcDb2dVertex
 10
303.2870923383234
 20
392.3847900875262
 30
0.0
  0
VERTEX
  5
85
330
7F
100
AcDbEntity
  8
Layer 1
370
     0
100
AcDbVertex
100
AcDb2dVertex
 10
303.2870923383234
 20
392.3847900875262
 30
0.0
  0
SEQEND
  5
86
330
7F
100
AcDbEntity
  8
Layer 1
370
     0
  0
SPLINE
  5
87
330
14
100
AcDbEntity
  8
Layer 1
370
     0
100
AcDbSpline
210
0.0
220
0.0
230
1.0
 70
    11
 71
     3
 72
    32
 73
    28
 74
     0
 42
0.000000001
 43
0.0000000001
 40
0.0
 40
0.0
 40
0.0
 40
0.0
 40
1.0
 40
1.0
 40
1.0
 40
2.0
 40
2.0
 40
2.0
 40
3.0
 40
3.0
 40
3.0
 40
4.0
 40
4.0
 40
4.0
 40
5.0
 40
5.0
 40
5.0
 40
6.0
 40
6.0
 40
6.0
 40
7.0
 40
7.0
 40
7.0
 40
8.0
 40
8.0
 40
8.0
 40
9.0
 40
9.0
 40
9.0
 40
9.0
 10
301.5028923833961
 20
391.8778901003316
 30
0.0
 10
301.2968923886001
 20
391.8778901003316
 30
0.0
 10
301.1288923928441
 20
391.689490105091
 30
0.0
 10
301.1288923928441
 20
391.4590000000007
 30
0.0
 10
301.1288923928441
 20
391.4590000000007
 30
0.0
 10
301.1288923928441
 20
388.2860901910681
 30
0.0
 10
301.1288923928441
 20
388.2860901910681
 30
0.0
 10
301.1288923928441
 20
388.0565901968657
 30
0.0
 10
301.2968923886001
 20
387.8671902016504
 30
0.0
 10
301.5028923833961
 20
387.8671902016504
 30
0.0
 10
301.5028923833961
 20
387.8671902016504
 30
0.0
 10
301.5028923833961
 20
387.8671902016504
 30
0.0
 10
301.5028923833961
 20
387.8671902016504
 30
0.0
 10
301.7090000000007
 20
387.8671902016504
 30
0.0
 10
301.8788923738975
 20
388.0565901968657
 30
0.0
 10
301.8788923738975
 20
388.2860901910681
 30
0.0
 10
301.8788923738975
 20
388.2860901910681
 30
0.0
 10
301.8788923738975
 20
391.4590000000007
 30
0.0
 10
301.8788923738975
 20
391.4590000000007
 30
0.0
 10
301.8788923738975
 20
391.689490105091
 30
0.0
 10
301.7090000000007
 20
391.8778901003316
 30
0.0
 10
301.5028923833961
 20
391.8778901003316
 30
0.0
 10
301.5028923833961
 20
391.8778901003316
 30
0.0
 10
301.5028923833961
 20
391.8778901003316
 30
0.0
 10
301.5028923833961
 20
391.8778901003316
 30
0.0
 10
301.5028923833961
 20
391.8778901003316
 30
0.0
 10
301.5028923833961
 20
391.8778901003316
 30
0.0
 10
301.5028923833961
 20
391.8778901003316
 30
0.0
  0
SPLINE
  5
88
330
14
100
AcDbEntity
  8
Layer 1
370
     0
100
AcDbSpline
210
0.0
220
0.0
230
1.0
 70
    11
 71
     3
 72
    32
 73
    28
 74
     0
 42
0.000000001
 43
0.0000000001
 40
0.0
 40
0.0
 40
0.0
 40
0.0
 40
1.0
 40
1.0
 40
1.0
 40
2.0
 40
2.0
 40
2.0
 40
3.0
 40
3.0
 40
3.0
 40
4.0
 40
4.0
 40
4.0
 40
5.0
 40
5.0
 40
5.0
 40
6.0
 40
6.0
 40
6.0
 40
7.0
 40
7.0
 40
7.0
 40
8.0
 40
8.0
 40
8.0
 40
9.0
 40
9.0
 40
9.0
 40
9.0
 10
301.5028923833961
 20
387.3515902146755
 30
0.0
 10
301.2968923886001
 20
387.3515902146755
 30
0.0
 10
301.1288923928441
 20
387.1620902194627
 30
0.0
 10
301.1288923928441
 20
386.9315902252856
 30
0.0
 10
301.1288923928441
 20
386.9315902252856
 30
0.0
 10
301.1288923928441
 20
384.7753902797558
 30
0.0
 10
301.1288923928441
 20
384.7753902797558
 30
0.0
 10
301.1288923928441
 20
384.5448902855787
 30
0.0
 10
301.2968923886001
 20
384.3563902903406
 30
0.0
 10
301.5028923833961
 20
384.3563902903406
 30
0.0
 10
301.5028923833961
 20
384.3563902903406
 30
0.0
 10
301.5028923833961
 20
384.3563902903406
 30
0.0
 10
301.5028923833961
 20
384.3563902903406
 30
0.0
 10
301.7090000000007
 20
384.3563902903406
 30
0.0
 10
301.8788923738975
 20
384.5448902855787
 30
0.0
 10
301.8788923738975
 20
384.7753902797558
 30
0.0
 10
301.8788923738975
 20
384.7753902797558
 30
0.0
 10
301.8788923738975
 20
386.9315902252856
 30
0.0
 10
301.8788923738975
 20
386.9315902252856
 30
0.0
 10
301.8788923738975
 20
387.1620902194627
 30
0.0
 10
301.7090000000007
 20
387.3515902146755
 30
0.0
 10
301.5028923833961
 20
387.3515902146755
 30
0.0
 10
301.5028923833961
 20
387.3515902146755
 30
0.0
 10
301.5028923833961
 20
387.3515902146755
 30
0.0
 10
301.5028923833961
 20
387.3515902146755
 30
0.0
 10
301.5028923833961
 20
387.3515902146755
 30
0.0
 10
301.5028923833961
 20
387.3515902146755
 30
0.0
 10
301.5028923833961
 20
387.3515902146755
 30
0.0
  0
SPLINE
  5
89
330
14
100
AcDbEntity
  8
Layer 1
370
     0
100
AcDbSpline
210
0.0
220
0.0
230
1.0
 70
    11
 71
     3
 72
    32
 73
    28
 74
     0
 42
0.000000001
 43
0.0000000001
 40
0.0
 40
0.0
 40
0.0
 40
0.0
 40
1.0
 40
1.0
 40
1.0
 40
2.0
 40
2.0
 40
2.0
 40
3.0
 40
3.0
 40
3.0
 40
4.0
 40
4.0
 40
4.0
 40
5.0
 40
5.0
 40
5.0
 40
6.0
 40
6.0
 40
6.0
 40
7.0
 40
7.0
 40
7.0
 40
8.0
 40
8.0
 40
8.0
 40
9.0
 40
9.0
 40
9.0
 40
9.0
 10
302.5468923570224
 20
387.3515902146755
 30
0.0
 10
302.3417923622037
 20
387.3515902146755
 30
0.0
 10
302.1728923664705
 20
387.1620902194627
 30
0.0
 10
302.1728923664705
 20
386.9315902252856
 30
0.0
 10
302.1728923664705
 20
386.9315902252856
 30
0.0
 10
302.1728923664705
 20
384.7753902797558
 30
0.0
 10
302.1728923664705
 20
384.7753902797558
 30
0.0
 10
302.1728923664705
 20
384.5448902855787
 30
0.0
 10
302.3417923622037
 20
384.3563902903406
 30
0.0
 10
302.5468923570224
 20
384.3563902903406
 30
0.0
 10
302.5468923570224
 20
384.3563902903406
 30
0.0
 10
302.5468923570224
 20
384.3563902903406
 30
0.0
 10
302.5468923570224
 20
384.3563902903406
 30
0.0
 10
302.7520000000004
 20
384.3563902903406
 30
0.0
 10
302.9218923475491
 20
384.5448902855787
 30
0.0
 10
302.9218923475491
 20
384.7753902797558
 30
0.0
 10
302.9218923475491
 20
384.7753902797558
 30
0.0
 10
302.9218923475491
 20
386.9315902252856
 30
0.0
 10
302.9218923475491
 20
386.9315902252856
 30
0.0
 10
302.9218923475491
 20
387.1620902194627
 30
0.0
 10
302.7520000000004
 20
387.3515902146755
 30
0.0
 10
302.5468923570224
 20
387.3515902146755
 30
0.0
 10
302.5468923570224
 20
387.3515902146755
 30
0.0
 10
302.5468923570224
 20
387.3515902146755
 30
0.0
 10
302.5468923570224
 20
387.3515902146755
 30
0.0
 10
302.5468923570224
 20
387.3515902146755
 30
0.0
 10
302.5468923570224
 20
387.3515902146755
 30
0.0
 10
302.5468923570224
 20
387.3515902146755
 30
0.0
  0
SPLINE
  5
8A
330
14
100
AcDbEntity
  8
Layer 1
370
     0
100
AcDbSpline
210
0.0
220
0.0
230
1.0
 70
    11
 71
     3
 72
    32
 73
    28
 74
     0
 42
0.000000001
 43
0.0000000001
 40
0.0
 40
0.0
 40
0.0
 40
0.0
 40
1.0
 40
1.0
 40
1.0
 40
2.0
 40
2.0
 40
2.0
 40
3.0
 40
3.0
 40
3.0
 40
4.0
 40
4.0
 40
4.0
 40
5.0
 40
5.0
 40
5.0
 40
6.0
 40
6.0
 40
6.0
 40
7.0
 40
7.0
 40
7.0
 40
8.0
 40
8.0
 40
8.0
 40
9.0
 40
9.0
 40
9.0
 40
9.0
 10
302.5468923570224
 20
391.8778901003316
 30
0.0
 10
302.3417923622037
 20
391.8778901003316
 30
0.0
 10
302.1728923664705
 20
391.689490105091
 30
0.0
 10
302.1728923664705
 20
391.4590000000007
 30
0.0
 10
302.1728923664705
 20
391.4590000000007
 30
0.0
 10
302.1728923664705
 20
388.2860901910681
 30
0.0
 10
302.1728923664705
 20
388.2860901910681
 30
0.0
 10
302.1728923664705
 20
388.0565901968657
 30
0.0
 10
302.3417923622037
 20
387.8671902016504
 30
0.0
 10
302.5468923570224
 20
387.8671902016504
 30
0.0
 10
302.5468923570224
 20
387.8671902016504
 30
0.0
 10
302.5468923570224
 20
387.8671902016504
 30
0.0
 10
302.5468923570224
 20
387.8671902016504
 30
0.0
 10
302.7520000000004
 20
387.8671902016504
 30
0.0
 10
302.9218923475491
 20
388.0565901968657
 30
0.0
 10
302.9218923475491
 20
388.2860901910681
 30
0.0
 10
302.9218923475491
 20
388.2860901910681
 30
0.0
 10
302.9218923475491
 20
391.4590000000007
 30
0.0
 10
302.9218923475491
 20
391.4590000000007
 30
0.0
 10
302.9218923475491
 20
391.689490105091
 30
0.0
 10
302.7520000000004
 20
391.8778901003316
 30
0.0
 10
302.5468923570224
 20
391.8778901003316
 30
0.0
 10
302.5468923570224
 20
391.8778901003316
 30
0.0
 10
302.5468923570224
 20
391.8778901003316
 30
0.0
 10
302.5468923570224
 20
391.8778901003316
 30
0.0
 10
302.5468923570224
 20
391.8778901003316
 30
0.0
 10
302.5468923570224
 20
391.8778901003316
 30
0.0
 10
302.5468923570224
 20
391.8778901003316
 30
0.0
  0
POLYLINE
  5
8B
330
14
100
AcDbEntity
  8
Layer 1
370
     0
100
AcDb2dPolyline
 66
     1
 10
0.0
 20
0.0
 30
0.0
  0
VERTEX
  5
8C
330
8B
100
AcDbEntity
  8
Layer 1
370
     0
100
AcDbVertex
100
AcDb2dVertex
 10
303.5282923322302
 20
392.3847900875262
 30
0.0
  0
VERTEX
  5
8D
330
8B
100
AcDbEntity
  8
Layer 1
370
     0
100
AcDbVertex
100
AcDb2dVertex
 10
303.5282923322302
 20
383.8144903040302
 30
0.0
  0
VERTEX
  5
8E
330
8B
100
AcDbEntity
  8
Layer 1
370
     0
100
AcDbVertex
100
AcDb2dVertex
 10
306.0282922690749
 20
383.8144903040302
 30
0.0
  0
VERTEX
  5
8F
330
8B
100
AcDbEntity
  8
Layer 1
370
     0
100
AcDbVertex
100
AcDb2dVertex
 10
306.0282922690749
 20
392.3847900875262
 30
0.0
  0
VERTEX
  5
90
330
8B
100
AcDbEntity
  8
Layer 1
370
     0
100
AcDbVertex
100
AcDb2dVertex
 10
303.5282923322302
 20
392.3847900875262
 30
0.0
  0
VERTEX
  5
91
330
8B
100
AcDbEntity
  8
Layer 1
370
     0
100
AcDbVertex
100
AcDb2dVertex
 10
303.5282923322302
 20
392.3847900875262
 30
0.0
  0
SEQEND
  5
92
330
8B
100
AcDbEntity
  8
Layer 1
370
     0
  0
SPLINE
  5
93
330
14
100
AcDbEntity
  8
Layer 1
370
     0
100
AcDbSpline
210
0.0
220
0.0
230
1.0
 70
    11
 71
     3
 72
    32
 73
    28
 74
     0
 42
0.000000001
 43
0.0000000001
 40
0.0
 40
0.0
 40
0.0
 40
0.0
 40
1.0
 40
1.0
 40
1.0
 40
2.0
 40
2.0
 40
2.0
 40
3.0
 40
3.0
 40
3.0
 40
4.0
 40
4.0
 40
4.0
 40
5.0
 40
5.0
 40
5.0
 40
6.0
 40
6.0
 40
6.0
 40
7.0
 40
7.0
 40
7.0
 40
8.0
 40
8.0
 40
8.0
 40
9.0
 40
9.0
 40
9.0
 40
9.0
 10
304.2440923141476
 20
391.8778901003316
 30
0.0
 10
304.0380923193516
 20
391.8778901003316
 30
0.0
 10
303.8690923236209
 20
391.689490105091
 30
0.0
 10
303.8690923236209
 20
391.4590000000007
 30
0.0
 10
303.8690923236209
 20
391.4590000000007
 30
0.0
 10
303.8690923236209
 20
388.2860901910681
 30
0.0
 10
303.8690923236209
 20
388.2860901910681
 30
0.0
 10
303.8690923236209
 20
388.0565901968657
 30
0.0
 10
304.0380923193516
 20
387.8671902016504
 30
0.0
 10
304.2440923141476
 20
387.8671902016504
 30
0.0
 10
304.2440923141476
 20
387.8671902016504
 30
0.0
 10
304.2440923141476
 20
387.8671902016504
 30
0.0
 10
304.2440923141476
 20
387.8671902016504
 30
0.0
 10
304.450192308941
 20
387.8671902016504
 30
0.0
 10
304.6190923046743
 20
388.0565901968657
 30
0.0
 10
304.6190923046743
 20
388.2860901910681
 30
0.0
 10
304.6190923046743
 20
388.2860901910681
 30
0.0
 10
304.6190923046743
 20
391.4590000000007
 30
0.0
 10
304.6190923046743
 20
391.4590000000007
 30
0.0
 10
304.6190923046743
 20
391.689490105091
 30
0.0
 10
304.450192308941
 20
391.8778901003316
 30
0.0
 10
304.2440923141476
 20
391.8778901003316
 30
0.0
 10
304.2440923141476
 20
391.8778901003316
 30
0.0
 10
304.2440923141476
 20
391.8778901003316
 30
0.0
 10
304.2440923141476
 20
391.8778901003316
 30
0.0
 10
304.2440923141476
 20
391.8778901003316
 30
0.0
 10
304.2440923141476
 20
391.8778901003316
 30
0.0
 10
304.2440923141476
 20
391.8778901003316
 30
0.0
  0
SPLINE
  5
94
330
14
100
AcDbEntity
  8
Layer 1
370
     0
100
AcDbSpline
210
0.0
220
0.0
230
1.0
 70
    11
 71
     3
 72
    32
 73
    28
 74
     0
 42
0.000000001
 43
0.0000000001
 40
0.0
 40
0.0
 40
0.0
 40
0.0
 40
1.0
 40
1.0
 40
1.0
 40
2.0
 40
2.0
 40
2.0
 40
3.0
 40
3.0
 40
3.0
 40
4.0
 40
4.0
 40
4.0
 40
5.0
 40
5.0
 40
5.0
 40
6.0
 40
6.0
 40
6.0
 40
7.0
 40
7.0
 40
7.0
 40
8.0
 40
8.0
 40
8.0
 40
9.0
 40
9.0
 40
9.0
 40
9.0
 10
304.2440923141476
 20
387.3515902146755
 30
0.0
 10
304.0380923193516
 20
387.3515902146755
 30
0.0
 10
303.8690923236209
 20
387.1620902194627
 30
0.0
 10
303.8690923236209
 20
386.9315902252856
 30
0.0
 10
303.8690923236209
 20
386.9315902252856
 30
0.0
 10
303.8690923236209
 20
384.7753902797558
 30
0.0
 10
303.8690923236209
 20
384.7753902797558
 30
0.0
 10
303.8690923236209
 20
384.5448902855787
 30
0.0
 10
304.0380923193516
 20
384.3563902903406
 30
0.0
 10
304.2440923141476
 20
384.3563902903406
 30
0.0
 10
304.2440923141476
 20
384.3563902903406
 30
0.0
 10
304.2440923141476
 20
384.3563902903406
 30
0.0
 10
304.2440923141476
 20
384.3563902903406
 30
0.0
 10
304.450192308941
 20
384.3563902903406
 30
0.0
 10
304.6190923046743
 20
384.5448902855787
 30
0.0
 10
304.6190923046743
 20
384.7753902797558
 30
0.0
 10
304.6190923046743
 20
384.7753902797558
 30
0.0
 10
304.6190923046743
 20
386.9315902252856
 30
0.0
 10
304.6190923046743
 20
386.9315902252856
 30
0.0
 10
304.6190923046743
 20
387.1620902194627
 30
0.0
 10
304.450192308941
 20
387.3515902146755
 30
0.0
 10
304.2440923141476
 20
387.3515902146755
 30
0.0
 10
304.2440923141476
 20
387.3515902146755
 30
0.0
 10
304.2440923141476
 20
387.3515902146755
 30
0.0
 10
304.2440923141476
 20
387.3515902146755
 30
0.0
 10
304.2440923141476
 20
387.3515902146755
 30
0.0
 10
304.2440923141476
 20
387.3515902146755
 30
0.0
 10
304.2440923141476
 20
387.3515902146755
 30
0.0
  0
SPLINE
  5
95
330
14
100
AcDbEntity
  8
Layer 1
370
     0
100
AcDbSpline
210
0.0
220
0.0
230
1.0
 70
    11
 71
     3
 72
    32
 73
    28
 74
     0
 42
0.000000001
 43
0.0000000001
 40
0.0
 40
0.0
 40
0.0
 40
0.0
 40
1.0
 40
1.0
 40
1.0
 40
2.0
 40
2.0
 40
2.0
 40
3.0
 40
3.0
 40
3.0
 40
4.0
 40
4.0
 40
4.0
 40
5.0
 40
5.0
 40
5.0
 40
6.0
 40
6.0
 40
6.0
 40
7.0
 40
7.0
 40
7.0
 40
8.0
 40
8.0
 40
8.0
 40
9.0
 40
9.0
 40
9.0
 40
9.0
 10
305.2870922877992
 20
387.3515902146755
 30
0.0
 10
305.0820000000003
 20
387.3515902146755
 30
0.0
 10
304.9130922972472
 20
387.1620902194627
 30
0.0
 10
304.9130922972472
 20
386.9315902252856
 30
0.0
 10
304.9130922972472
 20
386.9315902252856
 30
0.0
 10
304.9130922972472
 20
384.7753902797558
 30
0.0
 10
304.9130922972472
 20
384.7753902797558
 30
0.0
 10
304.9130922972472
 20
384.5448902855787
 30
0.0
 10
305.0820000000003
 20
384.3563902903406
 30
0.0
 10
305.2870922877992
 20
384.3563902903406
 30
0.0
 10
305.2870922877992
 20
384.3563902903406
 30
0.0
 10
305.2870922877992
 20
384.3563902903406
 30
0.0
 10
305.2870922877992
 20
384.3563902903406
 30
0.0
 10
305.4940922825699
 20
384.3563902903406
 30
0.0
 10
305.6620922783259
 20
384.5448902855787
 30
0.0
 10
305.6620922783259
 20
384.7753902797558
 30
0.0
 10
305.6620922783259
 20
384.7753902797558
 30
0.0
 10
305.6620922783259
 20
386.9315902252856
 30
0.0
 10
305.6620922783259
 20
386.9315902252856
 30
0.0
 10
305.6620922783259
 20
387.1620902194627
 30
0.0
 10
305.4940922825699
 20
387.3515902146755
 30
0.0
 10
305.2870922877992
 20
387.3515902146755
 30
0.0
 10
305.2870922877992
 20
387.3515902146755
 30
0.0
 10
305.2870922877992
 20
387.3515902146755
 30
0.0
 10
305.2870922877992
 20
387.3515902146755
 30
0.0
 10
305.2870922877992
 20
387.3515902146755
 30
0.0
 10
305.2870922877992
 20
387.3515902146755
 30
0.0
 10
305.2870922877992
 20
387.3515902146755
 30
0.0
  0
SPLINE
  5
96
330
14
100
AcDbEntity
  8
Layer 1
370
     0
100
AcDbSpline
210
0.0
220
0.0
230
1.0
 70
    11
 71
     3
 72
    32
 73
    28
 74
     0
 42
0.000000001
 43
0.0000000001
 40
0.0
 40
0.0
 40
0.0
 40
0.0
 40
1.0
 40
1.0
 40
1.0
 40
2.0
 40
2.0
 40
2.0
 40
3.0
 40
3.0
 40
3.0
 40
4.0
 40
4.0
 40
4.0
 40
5.0
 40
5.0
 40
5.0
 40
6.0
 40
6.0
 40
6.0
 40
7.0
 40
7.0
 40
7.0
 40
8.0
 40
8.0
 40
8.0
 40
9.0
 40
9.0
 40
9.0
 40
9.0
 10
305.2870922877992
 20
391.8778901003316
 30
0.0
 10
305.0820000000003
 20
391.8778901003316
 30
0.0
 10
304.9130922972472
 20
391.689490105091
 30
0.0
 10
304.9130922972472
 20
391.4590000000007
 30
0.0
 10
304.9130922972472
 20
391.4590000000007
 30
0.0
 10
304.9130922972472
 20
388.2860901910681
 30
0.0
 10
304.9130922972472
 20
388.2860901910681
 30
0.0
 10
304.9130922972472
 20
388.0565901968657
 30
0.0
 10
305.0820000000003
 20
387.8671902016504
 30
0.0
 10
305.2870922877992
 20
387.8671902016504
 30
0.0
 10
305.2870922877992
 20
387.8671902016504
 30
0.0
 10
305.2870922877992
 20
387.8671902016504
 30
0.0
 10
305.2870922877992
 20
387.8671902016504
 30
0.0
 10
305.4940922825699
 20
387.8671902016504
 30
0.0
 10
305.6620922783259
 20
388.0565901968657
 30
0.0
 10
305.6620922783259
 20
388.2860901910681
 30
0.0
 10
305.6620922783259
 20
388.2860901910681
 30
0.0
 10
305.6620922783259
 20
391.4590000000007
 30
0.0
 10
305.6620922783259
 20
391.4590000000007
 30
0.0
 10
305.6620922783259
 20
391.689490105091
 30
0.0
 10
305.4940922825699
 20
391.8778901003316
 30
0.0
 10
305.2870922877992
 20
391.8778901003316
 30
0.0
 10
305.2870922877992
 20
391.8778901003316
 30
0.0
 10
305.2870922877992
 20
391.8778901003316
 30
0.0
 10
305.2870922877992
 20
391.8778901003316
 30
0.0
 10
305.2870922877992
 20
391.8778901003316
 30
0.0
 10
305.2870922877992
 20
391.8778901003316
 30
0.0
 10
305.2870922877992
 20
391.8778901003316
 30
0.0
  0
POLYLINE
  5
97
330
14
100
AcDbEntity
  8
Layer 1
370
     0
100
AcDb2dPolyline
 66
     1
 10
0.0
 20
0.0
 30
0.0
  0
VERTEX
  5
98
330
97
100
AcDbEntity
  8
Layer 1
370
     0
100
AcDbVertex
100
AcDb2dVertex
 10
300.6679999999997
 20
392.6542900807181
 30
0.0
  0
VERTEX
  5
99
330
97
100
AcDbEntity
  8
Layer 1
370
     0
100
AcDbVertex
100
AcDb2dVertex
 10
300.5468924075467
 20
392.6542900807181
 30
0.0
  0
VERTEX
  5
9A
330
97
100
AcDbEntity
  8
Layer 1
370
     0
100
AcDbVertex
100
AcDb2dVertex
 10
300.5468924075467
 20
392.5194900841234
 30
0.0
  0
VERTEX
  5
9B
330
97
100
AcDbEntity
  8
Layer 1
370
     0
100
AcDbVertex
100
AcDb2dVertex
 10
300.5468924075467
 20
383.6796903074355
 30
0.0
  0
VERTEX
  5
9C
330
97
100
AcDbEntity
  8
Layer 1
370
     0
100
AcDbVertex
100
AcDb2dVertex
 10
300.5468924075467
 20
383.5448903108409
 30
0.0
  0
VERTEX
  5
9D
330
97
100
AcDbEntity
  8
Layer 1
370
     0
100
AcDbVertex
100
AcDb2dVertex
 10
300.6679999999997
 20
383.5448903108409
 30
0.0
  0
VERTEX
  5
9E
330
97
100
AcDbEntity
  8
Layer 1
370
     0
100
AcDbVertex
100
AcDb2dVertex
 10
303.2870923383234
 20
383.5448903108409
 30
0.0
  0
VERTEX
  5
9F
330
97
100
AcDbEntity
  8
Layer 1
370
     0
100
AcDbVertex
100
AcDb2dVertex
 10
303.4081923352642
 20
383.5448903108409
 30
0.0
  0
VERTEX
  5
A0
330
97
100
AcDbEntity
  8
Layer 1
370
     0
100
AcDbVertex
100
AcDb2dVertex
 10
303.5282923322302
 20
383.5448903108409
 30
0.0
  0
VERTEX
  5
A1
330
97
100
AcDbEntity
  8
Layer 1
370
     0
100
AcDbVertex
100
AcDb2dVertex
 10
306.1483922660409
 20
383.5448903108409
 30
0.0
  0
VERTEX
  5
A2
330
97
100
AcDbEntity
  8
Layer 1
370
     0
100
AcDbVertex
100
AcDb2dVertex
 10
306.2694922629817
 20
383.5448903108409
 30
0.0
  0
VERTEX
  5
A3
330
97
100
AcDbEntity
  8
Layer 1
370
     0
100
AcDbVertex
100
AcDb2dVertex
 10
306.2694922629817
 20
383.6796903074355
 30
0.0
  0
VERTEX
  5
A4
330
97
100
AcDbEntity
  8
Layer 1
370
     0
100
AcDbVertex
100
AcDb2dVertex
 10
306.2694922629817
 20
392.5194900841234
 30
0.0
  0
VERTEX
  5
A5
330
97
100
AcDbEntity
  8
Layer 1
370
     0
100
AcDbVertex
100
AcDb2dVertex
 10
306.2694922629817
 20
392.6542900807181
 30
0.0
  0
VERTEX
  5
A6
330
97
100
AcDbEntity
  8
Layer 1
370
     0
100
AcDbVertex
100
AcDb2dVertex
 10
306.1483922660409
 20
392.6542900807181
 30
0.0
  0
VERTEX
  5
A7
330
97
100
AcDbEntity
  8
Layer 1
370
     0
100
AcDbVertex
100
AcDb2dVertex
 10
303.5282923322302
 20
392.6542900807181
 30
0.0
  0
VERTEX
  5
A8
330
97
100
AcDbEntity
  8
Layer 1
370
     0
100
AcDbVertex
100
AcDb2dVertex
 10
303.4081923352642
 20
392.6542900807181
 30
0.0
  0
VERTEX
  5
A9
330
97
100
AcDbEntity
  8
Layer 1
370
     0
100
AcDbVertex
100
AcDb2dVertex
 10
303.2870923383234
 20
392.6542900807181
 30
0.0
  0
VERTEX
  5
AA
330
97
100
AcDbEntity
  8
Layer 1
370
     0
100
AcDbVertex
100
AcDb2dVertex
 10
300.6679999999997
 20
392.6542900807181
 30
0.0
  0
VERTEX
  5
AB
330
97
100
AcDbEntity
  8
Layer 1
370
     0
100
AcDbVertex
100
AcDb2dVertex
 10
300.6679999999997
 20
392.6542900807181
 30
0.0
  0
SEQEND
  5
AC
330
97
100
AcDbEntity
  8
Layer 1
370
     0
  0
SPLINE
  5
AD
330
14
100
AcDbEntity
  8
Layer 1
370
     0
100
AcDbSpline
210
0.0
220
0.0
230
1.0
 70
    11
 71
     3
 72
    32
 73
    28
 74
     0
 42
0.000000001
 43
0.0000000001
 40
0.0
 40
0.0
 40
0.0
 40
0.0
 40
1.0
 40
1.0
 40
1.0
 40
2.0
 40
2.0
 40
2.0
 40
3.0
 40
3.0
 40
3.0
 40
4.0
 40
4.0
 40
4.0
 40
5.0
 40
5.0
 40
5.0
 40
6.0
 40
6.0
 40
6.0
 40
7.0
 40
7.0
 40
7.0
 40
8.0
 40
8.0
 40
8.0
 40
9.0
 40
9.0
 40
9.0
 40
9.0
 10
311.7763921238657
 20
383.0966903221633
 30
0.0
 10
311.6288921275918
 20
383.2431903184624
 30
0.0
 10
311.4257921327226
 20
383.3340000000007
 30
0.0
 10
311.199192138447
 20
383.3340000000007
 30
0.0
 10
310.9745921441208
 20
383.3340000000007
 30
0.0
 10
310.7714921492516
 20
383.2431903184624
 30
0.0
 10
310.6229999999996
 20
383.0966903221633
 30
0.0
 10
310.4765921567014
 20
382.9491903258895
 30
0.0
 10
310.3866921589724
 20
382.7460903310202
 30
0.0
 10
310.3866921589724
 20
382.5204903367194
 30
0.0
 10
310.3866921589724
 20
382.2948903424185
 30
0.0
 10
310.4765921567014
 20
382.0917903475492
 30
0.0
 10
310.6229999999996
 20
381.9452903512502
 30
0.0
 10
310.7714921492516
 20
381.7978903549738
 30
0.0
 10
310.9745921441208
 20
381.7080000000005
 30
0.0
 10
311.199192138447
 20
381.7080000000005
 30
0.0
 10
311.4257921327226
 20
381.7080000000005
 30
0.0
 10
311.6288921275918
 20
381.7978903549738
 30
0.0
 10
311.7763921238657
 20
381.9452903512502
 30
0.0
 10
311.92189212019
 20
382.0917903475492
 30
0.0
 10
312.013692117871
 20
382.2948903424185
 30
0.0
 10
312.013692117871
 20
382.5204903367194
 30
0.0
 10
312.013692117871
 20
382.7460903310202
 30
0.0
 10
311.92189212019
 20
382.9491903258895
 30
0.0
 10
311.7763921238657
 20
383.0966903221633
 30
0.0
 10
311.7763921238657
 20
383.0966903221633
 30
0.0
 10
311.7763921238657
 20
383.0966903221633
 30
0.0
 10
311.7763921238657
 20
383.0966903221633
 30
0.0
  0
SPLINE
  5
AE
330
14
100
AcDbEntity
  8
Layer 1
370
     0
100
AcDbSpline
210
0.0
220
0.0
230
1.0
 70
    11
 71
     3
 72
    32
 73
    28
 74
     0
 42
0.000000001
 43
0.0000000001
 40
0.0
 40
0.0
 40
0.0
 40
0.0
 40
1.0
 40
1.0
 40
1.0
 40
2.0
 40
2.0
 40
2.0
 40
3.0
 40
3.0
 40
3.0
 40
4.0
 40
4.0
 40
4.0
 40
5.0
 40
5.0
 40
5.0
 40
6.0
 40
6.0
 40
6.0
 40
7.0
 40
7.0
 40
7.0
 40
8.0
 40
8.0
 40
8.0
 40
9.0
 40
9.0
 40
9.0
 40
9.0
 10
307.5878922296761
 20
392.5565900831862
 30
0.0
 10
307.2743922375957
 20
392.5565900831862
 30
0.0
 10
307.0175922440831
 20
392.301790089623
 30
0.0
 10
307.0175922440831
 20
391.9872900975679
 30
0.0
 10
307.0175922440831
 20
391.9872900975679
 30
0.0
 10
307.0175922440831
 20
388.2792901912399
 30
0.0
 10
307.0175922440831
 20
388.2792901912399
 30
0.0
 10
307.0175922440831
 20
387.9667901991343
 30
0.0
 10
307.2743922375957
 20
387.7090000000007
 30
0.0
 10
307.5878922296761
 20
387.7090000000007
 30
0.0
 10
307.5878922296761
 20
387.7090000000007
 30
0.0
 10
310.7255921504111
 20
387.7090000000007
 30
0.0
 10
310.7255921504111
 20
387.7090000000007
 30
0.0
 10
311.0390921424914
 20
387.7090000000007
 30
0.0
 10
311.2948921360294
 20
387.9667901991343
 30
0.0
 10
311.2948921360294
 20
388.2792901912399
 30
0.0
 10
311.2948921360294
 20
388.2792901912399
 30
0.0
 10
311.2948921360294
 20
391.9872900975679
 30
0.0
 10
311.2948921360294
 20
391.9872900975679
 30
0.0
 10
311.2948921360294
 20
392.301790089623
 30
0.0
 10
311.0390921424914
 20
392.5565900831862
 30
0.0
 10
310.7255921504111
 20
392.5565900831862
 30
0.0
 10
310.7255921504111
 20
392.5565900831862
 30
0.0
 10
307.5878922296761
 20
392.5565900831862
 30
0.0
 10
307.5878922296761
 20
392.5565900831862
 30
0.0
 10
307.5878922296761
 20
392.5565900831862
 30
0.0
 10
307.5878922296761
 20
392.5565900831862
 30
0.0
 10
307.5878922296761
 20
392.5565900831862
 30
0.0
  0
POLYLINE
  5
AF
330
14
100
AcDbEntity
  8
Layer 1
370
     0
100
AcDb2dPolyline
 66
     1
 10
0.0
 20
0.0
 30
0.0
  0
VERTEX
  5
B0
330
AF
100
AcDbEntity
  8
Layer 1
370
     0
100
AcDbVertex
100
AcDb2dVertex
 10
314.4765920556529
 20
396.2304899903756
 30
0.0
  0
VERTEX
  5
B1
330
AF
100
AcDbEntity
  8
Layer 1
370
     0
100
AcDbVertex
100
AcDb2dVertex
 10
316.1913920123334
 20
398.8729999999996
 30
0.0
  0
VERTEX
  5
B2
330
AF
100
AcDbEntity
  8
Layer 1
370
     0
100
AcDbVertex
100
AcDb2dVertex
 10
312.3573921091884
 20
400.7900000000009
 30
0.0
  0
VERTEX
  5
B3
330
AF
100
AcDbEntity
  8
Layer 1
370
     0
100
AcDbVertex
100
AcDb2dVertex
 10
312.1122921153801
 20
400.7900000000009
 30
0.0
  0
VERTEX
  5
B4
330
AF
100
AcDbEntity
  8
Layer 1
370
     0
100
AcDbVertex
100
AcDb2dVertex
 10
308.2792922122098
 20
398.8729999999996
 30
0.0
  0
VERTEX
  5
B5
330
AF
100
AcDbEntity
  8
Layer 1
370
     0
100
AcDbVertex
100
AcDb2dVertex
 10
309.9940921688903
 20
396.2304899903756
 30
0.0
  0
VERTEX
  5
B6
330
AF
100
AcDbEntity
  8
Layer 1
370
     0
100
AcDbVertex
100
AcDb2dVertex
 10
314.4765920556529
 20
396.2304899903756
 30
0.0
  0
SEQEND
  5
B7
330
AF
100
AcDbEntity
  8
Layer 1
370
     0
  0
SPLINE
  5
B8
330
14
100
AcDbEntity
  8
Layer 1
370
     0
100
AcDbSpline
210
0.0
220
0.0
230
1.0
 70
    11
 71
     3
 72
    32
 73
    28
 74
     0
 42
0.000000001
 43
0.0000000001
 40
0.0
 40
0.0
 40
0.0
 40
0.0
 40
1.0
 40
1.0
 40
1.0
 40
2.0
 40
2.0
 40
2.0
 40
3.0
 40
3.0
 40
3.0
 40
4.0
 40
4.0
 40
4.0
 40
5.0
 40
5.0
 40
5.0
 40
6.0
 40
6.0
 40
6.0
 40
7.0
 40
7.0
 40
7.0
 40
8.0
 40
8.0
 40
8.0
 40
9.0
 40
9.0
 40
9.0
 40
9.0
 10
291.8900926262359
 20
383.0966903221633
 30
0.0
 10
291.7431926299469
 20
383.2431903184624
 30
0.0
 10
291.5395926350902
 20
383.3340000000007
 30
0.0
 10
291.3140000000003
 20
383.3340000000007
 30
0.0
 10
291.0888926464759
 20
383.3340000000007
 30
0.0
 10
290.8852926516192
 20
383.2431903184624
 30
0.0
 10
290.7387926553201
 20
383.0966903221633
 30
0.0
 10
290.5912926590463
 20
382.9491903258895
 30
0.0
 10
290.5010000000002
 20
382.7460903310202
 30
0.0
 10
290.5010000000002
 20
382.5204903367194
 30
0.0
 10
290.5010000000002
 20
382.2948903424185
 30
0.0
 10
290.5912926590463
 20
382.0917903475492
 30
0.0
 10
290.7387926553201
 20
381.9452903512502
 30
0.0
 10
290.8852926516192
 20
381.7978903549738
 30
0.0
 10
291.0888926464759
 20
381.7080000000005
 30
0.0
 10
291.3140000000003
 20
381.7080000000005
 30
0.0
 10
291.5395926350902
 20
381.7080000000005
 30
0.0
 10
291.7431926299469
 20
381.7978903549738
 30
0.0
 10
291.8900926262359
 20
381.9452903512502
 30
0.0
 10
292.036592622535
 20
382.0917903475492
 30
0.0
 10
292.1273926202412
 20
382.2948903424185
 30
0.0
 10
292.1273926202412
 20
382.5204903367194
 30
0.0
 10
292.1273926202412
 20
382.7460903310202
 30
0.0
 10
292.036592622535
 20
382.9491903258895
 30
0.0
 10
291.8900926262359
 20
383.0966903221633
 30
0.0
 10
291.8900926262359
 20
383.0966903221633
 30
0.0
 10
291.8900926262359
 20
383.0966903221633
 30
0.0
 10
291.8900926262359
 20
383.0966903221633
 30
0.0
  0
SPLINE
  5
B9
330
14
100
AcDbEntity
  8
Layer 1
370
     0
100
AcDbSpline
210
0.0
220
0.0
230
1.0
 70
    11
 71
     3
 72
    32
 73
    28
 74
     0
 42
0.000000001
 43
0.0000000001
 40
0.0
 40
0.0
 40
0.0
 40
0.0
 40
1.0
 40
1.0
 40
1.0
 40
2.0
 40
2.0
 40
2.0
 40
3.0
 40
3.0
 40
3.0
 40
4.0
 40
4.0
 40
4.0
 40
5.0
 40
5.0
 40
5.0
 40
6.0
 40
6.0
 40
6.0
 40
7.0
 40
7.0
 40
7.0
 40
8.0
 40
8.0
 40
8.0
 40
9.0
 40
9.0
 40
9.0
 40
9.0
 10
295.122592544576
 20
383.0966903221633
 30
0.0
 10
294.9745925483148
 20
383.2431903184624
 30
0.0
 10
294.7709999999997
 20
383.3340000000007
 30
0.0
 10
294.5458925591447
 20
383.3340000000007
 30
0.0
 10
294.3202925648438
 20
383.3340000000007
 30
0.0
 10
294.1171925699746
 20
383.2431903184624
 30
0.0
 10
293.9701925736881
 20
383.0966903221633
 30
0.0
 10
293.8231925774016
 20
382.9491903258895
 30
0.0
 10
293.7323925796954
 20
382.7460903310202
 30
0.0
 10
293.7323925796954
 20
382.5204903367194
 30
0.0
 10
293.7323925796954
 20
382.2948903424185
 30
0.0
 10
293.8231925774016
 20
382.0917903475492
 30
0.0
 10
293.9701925736881
 20
381.9452903512502
 30
0.0
 10
294.1171925699746
 20
381.7978903549738
 30
0.0
 10
294.3202925648438
 20
381.7080000000005
 30
0.0
 10
294.5458925591447
 20
381.7080000000005
 30
0.0
 10
294.7709999999997
 20
381.7080000000005
 30
0.0
 10
294.9745925483148
 20
381.7978903549738
 30
0.0
 10
295.122592544576
 20
381.9452903512502
 30
0.0
 10
295.2685925408878
 20
382.0917903475492
 30
0.0
 10
295.359392538594
 20
382.2948903424185
 30
0.0
 10
295.359392538594
 20
382.5204903367194
 30
0.0
 10
295.359392538594
 20
382.7460903310202
 30
0.0
 10
295.2685925408878
 20
382.9491903258895
 30
0.0
 10
295.122592544576
 20
383.0966903221633
 30
0.0
 10
295.122592544576
 20
383.0966903221633
 30
0.0
 10
295.122592544576
 20
383.0966903221633
 30
0.0
 10
295.122592544576
 20
383.0966903221633
 30
0.0
  0
SPLINE
  5
BA
330
14
100
AcDbEntity
  8
Layer 1
370
     0
100
AcDbSpline
210
0.0
220
0.0
230
1.0
 70
    11
 71
     3
 72
    29
 73
    25
 74
     0
 42
0.000000001
 43
0.0000000001
 40
0.0
 40
0.0
 40
0.0
 40
0.0
 40
1.0
 40
1.0
 40
1.0
 40
2.0
 40
2.0
 40
2.0
 40
3.0
 40
3.0
 40
3.0
 40
4.0
 40
4.0
 40
4.0
 40
5.0
 40
5.0
 40
5.0
 40
6.0
 40
6.0
 40
6.0
 40
7.0
 40
7.0
 40
7.0
 40
8.0
 40
8.0
 40
8.0
 40
8.0
 10
293.4105925878248
 20
383.685490307289
 30
0.0
 10
293.4105925878248
 20
383.685490307289
 30
0.0
 10
292.4491926121118
 20
383.685490307289
 30
0.0
 10
292.4491926121118
 20
383.685490307289
 30
0.0
 10
292.4491926121118
 20
383.685490307289
 30
0.0
 10
292.4638926117404
 20
383.6718903076326
 30
0.0
 10
292.4638926117404
 20
383.6718903076326
 30
0.0
 10
292.4638926117404
 20
383.6718903076326
 30
0.0
 10
292.4647926117177
 20
383.6698903076831
 30
0.0
 10
292.4647926117177
 20
383.6698903076831
 30
0.0
 10
292.7162926053643
 20
383.4188903140239
 30
0.0
 10
292.8856926010849
 20
383.0878903223856
 30
0.0
 10
292.9301925999607
 20
382.7177903317352
 30
0.0
 10
292.9755925988138
 20
383.0878903223856
 30
0.0
 10
293.1440000000002
 20
383.4188903140239
 30
0.0
 10
293.3950000000004
 20
383.6698903076831
 30
0.0
 10
293.3950000000004
 20
383.6698903076831
 30
0.0
 10
293.3969999999999
 20
383.6718903076326
 30
0.0
 10
293.3969999999999
 20
383.6718903076326
 30
0.0
 10
293.3969999999999
 20
383.6718903076326
 30
0.0
 10
293.4105925878248
 20
383.685490307289
 30
0.0
 10
293.4105925878248
 20
383.685490307289
 30
0.0
 10
293.4105925878248
 20
383.685490307289
 30
0.0
 10
293.4105925878248
 20
383.685490307289
 30
0.0
 10
293.4105925878248
 20
383.685490307289
 30
0.0
  0
SPLINE
  5
BB
330
14
100
AcDbEntity
  8
Layer 1
370
     0
100
AcDbSpline
210
0.0
220
0.0
230
1.0
 70
    11
 71
     3
 72
    32
 73
    28
 74
     0
 42
0.000000001
 43
0.0000000001
 40
0.0
 40
0.0
 40
0.0
 40
0.0
 40
1.0
 40
1.0
 40
1.0
 40
2.0
 40
2.0
 40
2.0
 40
3.0
 40
3.0
 40
3.0
 40
4.0
 40
4.0
 40
4.0
 40
5.0
 40
5.0
 40
5.0
 40
6.0
 40
6.0
 40
6.0
 40
7.0
 40
7.0
 40
7.0
 40
8.0
 40
8.0
 40
8.0
 40
9.0
 40
9.0
 40
9.0
 40
9.0
 10
291.1308926454149
 20
392.5565900831862
 30
0.0
 10
290.8178926533219
 20
392.5565900831862
 30
0.0
 10
290.5609999999997
 20
392.301790089623
 30
0.0
 10
290.5609999999997
 20
391.9872900975679
 30
0.0
 10
290.5609999999997
 20
391.9872900975679
 30
0.0
 10
290.5609999999997
 20
388.2792901912399
 30
0.0
 10
290.5609999999997
 20
388.2792901912399
 30
0.0
 10
290.5609999999997
 20
387.9667901991343
 30
0.0
 10
290.8178926533219
 20
387.7090000000007
 30
0.0
 10
291.1308926454149
 20
387.7090000000007
 30
0.0
 10
291.1308926454149
 20
387.7090000000007
 30
0.0
 10
294.2680925661625
 20
387.7090000000007
 30
0.0
 10
294.2680925661625
 20
387.7090000000007
 30
0.0
 10
294.5820000000003
 20
387.7090000000007
 30
0.0
 10
294.8388925517429
 20
387.9667901991343
 30
0.0
 10
294.8388925517429
 20
388.2792901912399
 30
0.0
 10
294.8388925517429
 20
388.2792901912399
 30
0.0
 10
294.8388925517429
 20
391.9872900975679
 30
0.0
 10
294.8388925517429
 20
391.9872900975679
 30
0.0
 10
294.8388925517429
 20
392.301790089623
 30
0.0
 10
294.5820000000003
 20
392.5565900831862
 30
0.0
 10
294.2680925661625
 20
392.5565900831862
 30
0.0
 10
294.2680925661625
 20
392.5565900831862
 30
0.0
 10
291.1308926454149
 20
392.5565900831862
 30
0.0
 10
291.1308926454149
 20
392.5565900831862
 30
0.0
 10
291.1308926454149
 20
392.5565900831862
 30
0.0
 10
291.1308926454149
 20
392.5565900831862
 30
0.0
 10
291.1308926454149
 20
392.5565900831862
 30
0.0
  0
SPLINE
  5
BC
330
14
100
AcDbEntity
  8
Layer 1
370
     0
100
AcDbSpline
210
0.0
220
0.0
230
1.0
 70
    11
 71
     3
 72
    32
 73
    28
 74
     0
 42
0.000000001
 43
0.0000000001
 40
0.0
 40
0.0
 40
0.0
 40
0.0
 40
1.0
 40
1.0
 40
1.0
 40
2.0
 40
2.0
 40
2.0
 40
3.0
 40
3.0
 40
3.0
 40
4.0
 40
4.0
 40
4.0
 40
5.0
 40
5.0
 40
5.0
 40
6.0
 40
6.0
 40
6.0
 40
7.0
 40
7.0
 40
7.0
 40
8.0
 40
8.0
 40
8.0
 40
9.0
 40
9.0
 40
9.0
 40
9.0
 10
288.3095927166869
 20
392.5565900831862
 30
0.0
 10
287.9965927245939
 20
392.5565900831862
 30
0.0
 10
287.7396927310838
 20
392.301790089623
 30
0.0
 10
287.7396927310838
 20
391.9872900975679
 30
0.0
 10
287.7396927310838
 20
391.9872900975679
 30
0.0
 10
287.7396927310838
 20
388.2792901912399
 30
0.0
 10
287.7396927310838
 20
388.2792901912399
 30
0.0
 10
287.7396927310838
 20
387.9667901991343
 30
0.0
 10
287.9965927245939
 20
387.7090000000007
 30
0.0
 10
288.3095927166869
 20
387.7090000000007
 30
0.0
 10
288.3095927166869
 20
387.7090000000007
 30
0.0
 10
289.4257926884893
 20
387.7090000000007
 30
0.0
 10
289.4257926884893
 20
387.7090000000007
 30
0.0
 10
289.7392926805696
 20
387.7090000000007
 30
0.0
 10
289.9965926740697
 20
387.9667901991343
 30
0.0
 10
289.9965926740697
 20
388.2792901912399
 30
0.0
 10
289.9965926740697
 20
388.2792901912399
 30
0.0
 10
289.9965926740697
 20
391.9872900975679
 30
0.0
 10
289.9965926740697
 20
391.9872900975679
 30
0.0
 10
289.9965926740697
 20
392.3007900896482
 30
0.0
 10
289.7396926805595
 20
392.5565900831862
 30
0.0
 10
289.4257926884893
 20
392.5565900831862
 30
0.0
 10
289.4257926884893
 20
392.5565900831862
 30
0.0
 10
288.3095927166869
 20
392.5565900831862
 30
0.0
 10
288.3095927166869
 20
392.5565900831862
 30
0.0
 10
288.3095927166869
 20
392.5565900831862
 30
0.0
 10
288.3095927166869
 20
392.5565900831862
 30
0.0
 10
288.3095927166869
 20
392.5565900831862
 30
0.0
  0
HATCH
  5
BD
330
14
100
AcDbEntity
  8
Layer 1
 62
     7
100
AcDbHatch
 10
0.0
 20
0.0
 30
0.0
210
0.0
220
0.0
230
1.0
  2
SOLID
 70
     1
 71
     0
 91
       35
 92
        1
 93
        1
 72
     4
 94
        3
 73
     0
 74
     1
 95
      323
 96
      319
 40
0.0
 40
0.0
 40
0.0
 40
0.0
 40
1.0
 40
1.0
 40
1.0
 40
2.0
 40
2.0
 40
2.0
 40
3.0
 40
3.0
 40
3.0
 40
4.0
 40
4.0
 40
4.0
 40
5.0
 40
5.0
 40
5.0
 40
6.0
 40
6.0
 40
6.0
 40
7.0
 40
7.0
 40
7.0
 40
8.0
 40
8.0
 40
8.0
 40
9.0
 40
9.0
 40
9.0
 40
10.0
 40
10.0
 40
10.0
 40
11.0
 40
11.0
 40
11.0
 40
12.0
 40
12.0
 40
12.0
 40
13.0
 40
13.0
 40
13.0
 40
14.0
 40
14.0
 40
14.0
 40
15.0
 40
15.0
 40
15.0
 40
16.0
 40
16.0
 40
16.0
 40
17.0
 40
17.0
 40
17.0
 40
18.0
 40
18.0
 40
18.0
 40
19.0
 40
19.0
 40
19.0
 40
20.0
 40
20.0
 40
20.0
 40
21.0
 40
21.0
 40
21.0
 40
22.0
 40
22.0
 40
22.0
 40
23.0
 40
23.0
 40
23.0
 40
24.0
 40
24.0
 40
24.0
 40
25.0
 40
25.0
 40
25.0
 40
26.0
 40
26.0
 40
26.0
 40
27.0
 40
27.0
 40
27.0
 40
28.0
 40
28.0
 40
28.0
 40
29.0
 40
29.0
 40
29.0
 40
30.0
 40
30.0
 40
30.0
 40
31.0
 40
31.0
 40
31.0
 40
32.0
 40
32.0
 40
32.0
 40
33.0
 40
33.0
 40
33.0
 40
34.0
 40
34.0
 40
34.0
 40
35.0
 40
35.0
 40
35.0
 40
36.0
 40
36.0
 40
36.0
 40
37.0
 40
37.0
 40
37.0
 40
38.0
 40
38.0
 40
38.0
 40
39.0
 40
39.0
 40
39.0
 40
40.0
 40
40.0
 40
40.0
 40
41.0
 40
41.0
 40
41.0
 40
42.0
 40
42.0
 40
42.0
 40
43.0
 40
43.0
 40
43.0
 40
44.0
 40
44.0
 40
44.0
 40
45.0
 40
45.0
 40
45.0
 40
46.0
 40
46.0
 40
46.0
 40
47.0
 40
47.0
 40
47.0
 40
48.0
 40
48.0
 40
48.0
 40
49.0
 40
49.0
 40
49.0
 40
50.0
 40
50.0
 40
50.0
 40
51.0
 40
51.0
 40
51.0
 40
52.0
 40
52.0
 40
52.0
 40
53.0
 40
53.0
 40
53.0
 40
54.0
 40
54.0
 40
54.0
 40
55.0
 40
55.0
 40
55.0
 40
56.0
 40
56.0
 40
56.0
 40
57.0
 40
57.0
 40
57.0
 40
58.0
 40
58.0
 40
58.0
 40
59.0
 40
59.0
 40
59.0
 40
60.0
 40
60.0
 40
60.0
 40
61.0
 40
61.0
 40
61.0
 40
62.0
 40
62.0
 40
62.0
 40
63.0
 40
63.0
 40
63.0
 40
64.0
 40
64.0
 40
64.0
 40
65.0
 40
65.0
 40
65.0
 40
66.0
 40
66.0
 40
66.0
 40
67.0
 40
67.0
 40
67.0
 40
68.0
 40
68.0
 40
68.0
 40
69.0
 40
69.0
 40
69.0
 40
70.0
 40
70.0
 40
70.0
 40
71.0
 40
71.0
 40
71.0
 40
72.0
 40
72.0
 40
72.0
 40
73.0
 40
73.0
 40
73.0
 40
74.0
 40
74.0
 40
74.0
 40
75.0
 40
75.0
 40
75.0
 40
76.0
 40
76.0
 40
76.0
 40
77.0
 40
77.0
 40
77.0
 40
78.0
 40
78.0
 40
78.0
 40
79.0
 40
79.0
 40
79.0
 40
80.0
 40
80.0
 40
80.0
 40
81.0
 40
81.0
 40
81.0
 40
82.0
 40
82.0
 40
82.0
 40
83.0
 40
83.0
 40
83.0
 40
84.0
 40
84.0
 40
84.0
 40
85.0
 40
85.0
 40
85.0
 40
86.0
 40
86.0
 40
86.0
 40
87.0
 40
87.0
 40
87.0
 40
88.0
 40
88.0
 40
88.0
 40
89.0
 40
89.0
 40
89.0
 40
90.0
 40
90.0
 40
90.0
 40
91.0
 40
91.0
 40
91.0
 40
92.0
 40
92.0
 40
92.0
 40
93.0
 40
93.0
 40
93.0
 40
94.0
 40
94.0
 40
94.0
 40
95.0
 40
95.0
 40
95.0
 40
96.0
 40
96.0
 40
96.0
 40
97.0
 40
97.0
 40
97.0
 40
98.0
 40
98.0
 40
98.0
 40
99.0
 40
99.0
 40
99.0
 40
100.0
 40
100.0
 40
100.0
 40
101.0
 40
101.0
 40
101.0
 40
102.0
 40
102.0
 40
102.0
 40
103.0
 40
103.0
 40
103.0
 40
104.0
 40
104.0
 40
104.0
 40
105.0
 40
105.0
 40
105.0
 40
106.0
 40
106.0
 40
106.0
 40
106.0
 10
286.9345927514223
 20
395.365190012235
 10
286.9345927514223
 20
395.365190012235
 10
301.1171923931397
 20
395.365190012235
 10
301.1171923931397
 20
395.365190012235
 10
301.1171923931397
 20
395.365190012235
 10
301.1171923931397
 20
395.75
 10
301.1171923931397
 20
395.75
 10
301.1171923931397
 20
395.75
 10
300.9198923981239
 20
395.75
 10
300.9198923981239
 20
395.75
 10
300.9198923981239
 20
395.75
 10
300.9198923981239
 20
396.2304899903756
 10
300.9198923981239
 20
396.2304899903756
 10
300.9198923981239
 20
396.2304899903756
 10
307.3729999999996
 20
396.2304899903756
 10
307.3729999999996
 20
396.2304899903756
 10
307.3729999999996
 20
396.2304899903756
 10
307.3729999999996
 20
395.75
 10
307.3729999999996
 20
395.75
 10
307.3729999999996
 20
395.75
 10
307.1054922418625
 20
395.75
 10
307.1054922418625
 20
395.75
 10
307.1054922418625
 20
395.75
 10
307.1054922418625
 20
395.365190012235
 10
307.1054922418625
 20
395.365190012235
 10
307.1054922418625
 20
395.365190012235
 10
309.3866921842346
 20
395.365190012235
 10
309.3866921842346
 20
395.365190012235
 10
309.3866921842346
 20
395.365190012235
 10
309.3866921842346
 20
395.75
 10
309.3866921842346
 20
395.75
 10
309.3866921842346
 20
395.75
 10
309.1015921914368
 20
395.75
 10
309.1015921914368
 20
395.75
 10
309.1015921914368
 20
395.75
 10
309.1015921914368
 20
396.2304899903756
 10
309.1015921914368
 20
396.2304899903756
 10
309.1015921914368
 20
396.2304899903756
 10
309.5409999999993
 20
396.2304899903756
 10
309.5409999999993
 20
396.2304899903756
 10
309.5409999999993
 20
396.2304899903756
 10
307.8358922234111
 20
398.8554899240626
 10
307.8358922234111
 20
398.8554899240626
 10
307.8358922234111
 20
398.8554899240626
 10
307.75
 20
398.9901899206598
 10
307.75
 20
398.9901899206598
 10
307.75
 20
398.9901899206598
 10
307.9091922215594
 20
399.0702899186363
 10
307.9091922215594
 20
399.0702899186363
 10
307.9091922215594
 20
399.0702899186363
 10
312.0419999999995
 20
401.1376898664093
 10
312.0419999999995
 20
401.1376898664093
 10
312.0419999999995
 20
401.1376898664093
 10
312.0419999999995
 20
401.6190898542482
 10
312.0419999999995
 20
401.6190898542482
 10
312.0419999999995
 20
401.6190898542482
 10
311.0351921425899
 20
401.6190898542482
 10
311.0351921425899
 20
401.6190898542482
 10
311.0351921425899
 20
401.6190898542482
 10
311.0351921425899
 20
401.978489845169
 10
311.0351921425899
 20
401.978489845169
 10
311.0351921425899
 20
401.978489845169
 10
313.5302920795584
 20
401.978489845169
 10
313.5302920795584
 20
401.978489845169
 10
313.5302920795584
 20
401.978489845169
 10
313.5302920795584
 20
401.6190898542482
 10
313.5302920795584
 20
401.6190898542482
 10
313.5302920795584
 20
401.6190898542482
 10
312.4511921068188
 20
401.6190898542482
 10
312.4511921068188
 20
401.6190898542482
 10
312.4511921068188
 20
401.6190898542482
 10
312.4511921068188
 20
401.1270000000004
 10
312.4511921068188
 20
401.1270000000004
 10
312.4511921068188
 20
401.1270000000004
 10
316.5624920029586
 20
399.0702899186363
 10
316.5624920029586
 20
399.0702899186363
 10
316.5624920029586
 20
399.0702899186363
 10
316.7216919989369
 20
398.9901899206598
 10
316.7216919989369
 20
398.9901899206598
 10
316.7216919989369
 20
398.9901899206598
 10
316.6347920011322
 20
398.8554899240626
 10
316.6347920011322
 20
398.8554899240626
 10
316.6347920011322
 20
398.8554899240626
 10
314.9306920441813
 20
396.2304899903756
 10
314.9306920441813
 20
396.2304899903756
 10
314.9306920441813
 20
396.2304899903756
 10
315.5526920284683
 20
396.2304899903756
 10
315.5526920284683
 20
396.2304899903756
 10
315.5526920284683
 20
396.2304899903756
 10
315.5526920284683
 20
395.75
 10
315.5526920284683
 20
395.75
 10
315.5526920284683
 20
395.75
 10
315.375
 20
395.75
 10
315.375
 20
395.75
 10
315.375
 20
395.75
 10
315.375
 20
395.365190012235
 10
315.375
 20
395.365190012235
 10
315.375
 20
395.365190012235
 10
322.8085918451688
 20
395.365190012235
 10
322.8085918451688
 20
395.365190012235
 10
323.2909999999993
 20
395.3886900116413
 10
323.7020918225971
 20
395.271490014602
 10
324.0478918138615
 20
395.0194900209681
 10
324.0478918138615
 20
395.0194900209681
 10
324.9140917919794
 20
395.0194900209681
 10
324.9140917919794
 20
395.0194900209681
 10
324.9140917919794
 20
395.0194900209681
 10
324.9140917919794
 20
393.8310900509896
 10
324.9140917919794
 20
393.8310900509896
 10
324.9140917919794
 20
393.8310900509896
 10
324.7099999999991
 20
393.8310900509896
 10
324.7099999999991
 20
393.8310900509896
 10
324.7099999999991
 20
393.8310900509896
 10
324.8144917944956
 20
393.4374900609328
 10
324.8144917944956
 20
393.4374900609328
 10
324.8144917944956
 20
393.4374900609328
 10
323.8681918184011
 20
393.272490065101
 10
323.8681918184011
 20
393.272490065101
 10
323.2284918345613
 20
393.1210900689257
 10
323.3036918326616
 20
392.6270000000004
 10
323.4570000000003
 20
392.1132900943849
 10
323.4570000000003
 20
392.1132900943849
 10
324.4296918042164
 20
388.4843901860586
 10
324.4296918042164
 20
388.4843901860586
 10
324.5468918012557
 20
388.0526901969642
 10
325.022491789241
 20
387.9921901984926
 10
325.4716917778933
 20
388.1483901945467
 10
325.4716917778933
 20
388.1483901945467
 10
326.1659999999993
 20
388.3104901904517
 10
326.1659999999993
 20
388.3104901904517
 10
326.1659999999993
 20
388.3104901904517
 10
326.3261917563068
 20
387.7050902057454
 10
326.3261917563068
 20
387.7050902057454
 10
326.3261917563068
 20
387.7050902057454
 10
325.9618917655098
 20
385.4804902619435
 10
325.9618917655098
 20
385.4804902619435
 10
325.9618917655098
 20
385.4804902619435
 10
326.2440917583808
 20
385.4804902619435
 10
326.2440917583808
 20
385.4804902619435
 10
326.2440917583808
 20
385.4804902619435
 10
326.2440917583808
 20
384.0360902984321
 10
326.2440917583808
 20
384.0360902984321
 10
326.2440917583808
 20
384.0360902984321
 10
325.4608917781661
 20
384.0360902984321
 10
325.4608917781661
 20
384.0360902984321
 10
325.4608917781661
 20
384.0360902984321
 10
324.3046918073742
 20
381.890590352632
 10
324.3046918073742
 20
381.890590352632
 10
324.3046918073742
 20
381.890590352632
 10
316.6815919999499
 20
381.890590352632
 10
316.6815919999499
 20
381.890590352632
 10
316.6815919999499
 20
381.890590352632
 10
316.3925920072506
 20
383.1757903201651
 10
316.3925920072506
 20
383.1757903201651
 10
316.2831920100143
 20
383.5409999999993
 10
316.0253920165269
 20
383.689490307188
 10
315.6679999999997
 20
383.685490307289
 10
315.6679999999997
 20
383.685490307289
 10
315.5663920281222
 20
383.685490307289
 10
315.5663920281222
 20
383.685490307289
 10
315.5663920281222
 20
383.685490307289
 10
315.5810920277509
 20
383.6718903076326
 10
315.5810920277509
 20
383.6718903076326
 10
315.5810920277509
 20
383.6718903076326
 10
315.5820000000003
 20
383.6698903076831
 10
315.5820000000003
 20
383.6698903076831
 10
315.8770000000004
 20
383.375
 10
316.0595920156629
 20
382.9687903253944
 10
316.0595920156629
 20
382.5204903367194
 10
316.0595920156629
 20
382.0722903480419
 10
315.8770000000004
 20
381.6659999999993
 10
315.5820000000003
 20
381.3710903657557
 10
315.5820000000003
 20
381.3710903657557
 10
315.5810920277509
 20
381.3690903658062
 10
315.5810920277509
 20
381.3690903658062
 10
315.2870920351779
 20
381.074190373256
 10
314.8798920454647
 20
380.8925903778436
 10
314.4315920567897
 20
380.8925903778436
 10
313.9823920681374
 20
380.8925903778436
 10
313.5761920783989
 20
381.074190373256
 10
313.2812920858487
 20
381.3690903658062
 10
313.2812920858487
 20
381.3690903658062
 10
313.2812920858487
 20
381.3710903657557
 10
313.2812920858487
 20
381.3710903657557
 10
313.0292920922147
 20
381.6210903594401
 10
312.8603920964815
 20
381.9530903510531
 10
312.8163920975931
 20
382.3231903417036
 10
312.7704920987526
 20
381.9530903510531
 10
312.6015921030194
 20
381.6210903594401
 10
312.3505921093602
 20
381.3710903657557
 10
312.3505921093602
 20
381.3710903657557
 10
312.3495921093854
 20
381.3690903658062
 10
312.3495921093854
 20
381.3690903658062
 10
312.0546921168352
 20
381.074190373256
 10
311.6483921270992
 20
380.8925903778436
 10
311.199192138447
 20
380.8925903778436
 10
310.7520000000004
 20
380.8925903778436
 10
310.3446921600334
 20
381.074190373256
 10
310.050792167458
 20
381.3690903658062
 10
310.050792167458
 20
381.3690903658062
 10
310.0487921675085
 20
381.3710903657557
 10
310.0487921675085
 20
381.3710903657557
 10
309.7538921749583
 20
381.6659999999993
 10
309.5722921795459
 20
382.0722903480419
 10
309.5722921795459
 20
382.5204903367194
 10
309.5722921795459
 20
382.9687903253944
 10
309.7538921749583
 20
383.375
 10
310.0487921675085
 20
383.6698903076831
 10
310.0487921675085
 20
383.6698903076831
 10
310.050792167458
 20
383.6718903076326
 10
310.050792167458
 20
383.6718903076326
 10
310.050792167458
 20
383.6718903076326
 10
310.0644921671119
 20
383.685490307289
 10
310.0644921671119
 20
383.685490307289
 10
310.0644921671119
 20
383.685490307289
 10
309.8036921737003
 20
383.685490307289
 10
309.8036921737003
 20
383.685490307289
 10
309.4335921830498
 20
383.6679999999997
 10
309.2187921884761
 20
383.4667903128138
 10
309.1210921909442
 20
383.1270000000004
 10
309.1210921909442
 20
383.1270000000004
 10
308.8437921979494
 20
381.890590352632
 10
308.8437921979494
 20
381.890590352632
 10
308.8437921979494
 20
381.890590352632
 10
296.915
 20
381.890590352632
 10
296.915
 20
381.890590352632
 10
296.915
 20
381.890590352632
 10
296.6260000000002
 20
383.1757903201651
 10
296.6260000000002
 20
383.1757903201651
 10
296.5165925093606
 20
383.5409999999993
 10
296.2597925158479
 20
383.689490307188
 10
295.9013925249019
 20
383.685490307289
 10
295.9013925249019
 20
383.685490307289
 10
295.6806925304772
 20
383.685490307289
 10
295.6806925304772
 20
383.685490307289
 10
295.6806925304772
 20
383.685490307289
 10
295.6957925300958
 20
383.6718903076326
 10
295.6957925300958
 20
383.6718903076326
 10
295.6957925300958
 20
383.6718903076326
 10
295.6972925300579
 20
383.6698903076831
 10
295.6972925300579
 20
383.6698903076831
 10
295.9911925226334
 20
383.375
 10
296.1737925180205
 20
382.9687903253944
 10
296.1737925180205
 20
382.5204903367194
 10
296.1737925180205
 20
382.0722903480419
 10
295.9911925226334
 20
381.6659999999993
 10
295.6972925300579
 20
381.3710903657557
 10
295.6972925300579
 20
381.3710903657557
 10
295.6957925300958
 20
381.3690903658062
 10
295.6957925300958
 20
381.3690903658062
 10
295.4008925375456
 20
381.074190373256
 10
294.9940925478222
 20
380.8925903778436
 10
294.5458925591447
 20
380.8925903778436
 10
294.0971925704798
 20
380.8925903778436
 10
293.6918925807186
 20
381.074190373256
 10
293.3969999999999
 20
381.3690903658062
 10
293.3969999999999
 20
381.3690903658062
 10
293.3950000000004
 20
381.3710903657557
 10
293.3950000000004
 20
381.3710903657557
 10
293.1440000000002
 20
381.6210903594401
 10
292.9755925988138
 20
381.9530903510531
 10
292.9301925999607
 20
382.3231903417036
 10
292.8856926010849
 20
381.9530903510531
 10
292.7162926053643
 20
381.6210903594401
 10
292.4647926117177
 20
381.3710903657557
 10
292.4647926117177
 20
381.3710903657557
 10
292.4638926117404
 20
381.3690903658062
 10
292.4638926117404
 20
381.3690903658062
 10
292.1693926191801
 20
381.074190373256
 10
291.7626926294542
 20
380.8925903778436
 10
291.3140000000003
 20
380.8925903778436
 10
290.8656926521144
 20
380.8925903778436
 10
290.46
 20
381.074190373256
 10
290.1645926698257
 20
381.3690903658062
 10
290.1645926698257
 20
381.3690903658062
 10
290.1635926698509
 20
381.3710903657557
 10
290.1635926698509
 20
381.3710903657557
 10
289.8690926772906
 20
381.6659999999993
 10
289.6864926819035
 20
382.0722903480419
 10
289.6864926819035
 20
382.5204903367194
 10
289.6864926819035
 20
382.9687903253944
 10
289.8690926772906
 20
383.375
 10
290.1635926698509
 20
383.6698903076831
 10
290.1635926698509
 20
383.6698903076831
 10
290.1645926698257
 20
383.6718903076326
 10
290.1645926698257
 20
383.6718903076326
 10
290.1645926698257
 20
383.6718903076326
 10
290.1791926694568
 20
383.685490307289
 10
290.1791926694568
 20
383.685490307289
 10
290.1791926694568
 20
383.685490307289
 10
290.0365926730592
 20
383.685490307289
 10
290.0365926730592
 20
383.685490307289
 10
289.6670000000004
 20
383.6679999999997
 10
289.451692687835
 20
383.4667903128138
 10
289.3554926902652
 20
383.1270000000004
 10
289.3554926902652
 20
383.1270000000004
 10
289.0775926972856
 20
381.890590352632
 10
289.0775926972856
 20
381.890590352632
 10
289.0775926972856
 20
381.890590352632
 10
285.7572927811634
 20
381.890590352632
 10
285.7572927811634
 20
381.890590352632
 10
285.7572927811634
 20
381.890590352632
 10
284.410192815194
 20
384.4150000000009
 10
284.410192815194
 20
384.4150000000009
 10
284.410192815194
 20
384.4150000000009
 10
284.410192815194
 20
388.9052901754258
 10
284.410192815194
 20
388.9052901754258
 10
284.410192815194
 20
388.9052901754258
 10
285.2943927928573
 20
388.9052901754258
 10
285.2943927928573
 20
388.9052901754258
 10
285.2943927928573
 20
388.9052901754258
 10
285.2943927928573
 20
393.7968900518536
 10
285.2943927928573
 20
393.7968900518536
 10
285.3104927924505
 20
394.8788900245199
 10
285.9682927758331
 20
395.2841900142812
 10
286.9345927514223
 20
395.365190012235
 10
286.9345927514223
 20
395.365190012235
 10
286.9345927514223
 20
395.365190012235
 10
286.9345927514223
 20
395.365190012235
 97
        0
 92
        1
 93
       18
 72
     1
 10
317.0136919915603
 20
392.6542900807181
 11
316.8935919945943
 21
392.6542900807181
 72
     1
 10
316.8935919945943
 20
392.6542900807181
 11
316.8935919945943
 21
392.5194900841234
 72
     1
 10
316.8935919945943
 20
392.5194900841234
 11
316.8935919945943
 21
383.6796903074355
 72
     1
 10
316.8935919945943
 20
383.6796903074355
 11
316.8935919945943
 21
383.5448903108409
 72
     1
 10
316.8935919945943
 20
383.5448903108409
 11
317.0136919915603
 21
383.5448903108409
 72
     1
 10
317.0136919915603
 20
383.5448903108409
 11
319.6347919253458
 21
383.5448903108409
 72
     1
 10
319.6347919253458
 20
383.5448903108409
 11
319.7558919222865
 21
383.5448903108409
 72
     1
 10
319.7558919222865
 20
383.5448903108409
 11
319.875
 21
383.5448903108409
 72
     1
 10
319.875
 20
383.5448903108409
 11
322.4960918530633
 21
383.5448903108409
 72
     1
 10
322.4960918530633
 20
383.5448903108409
 11
322.6161918500293
 21
383.5448903108409
 72
     1
 10
322.6161918500293
 20
383.5448903108409
 11
322.6161918500293
 21
383.6796903074355
 72
     1
 10
322.6161918500293
 20
383.6796903074355
 11
322.6161918500293
 21
392.5194900841234
 72
     1
 10
322.6161918500293
 20
392.5194900841234
 11
322.6161918500293
 21
392.6542900807181
 72
     1
 10
322.6161918500293
 20
392.6542900807181
 11
322.4960918530633
 21
392.6542900807181
 72
     1
 10
322.4960918530633
 20
392.6542900807181
 11
319.875
 21
392.6542900807181
 72
     1
 10
319.875
 20
392.6542900807181
 11
319.7558919222865
 21
392.6542900807181
 72
     1
 10
319.7558919222865
 20
392.6542900807181
 11
319.6347919253458
 21
392.6542900807181
 72
     1
 10
319.6347919253458
 20
392.6542900807181
 11
317.0136919915603
 21
392.6542900807181
 97
        0
 92
        1
 93
        1
 72
     4
 94
        3
 73
     0
 74
     1
 95
       32
 96
       28
 40
0.0
 40
0.0
 40
0.0
 40
0.0
 40
1.0
 40
1.0
 40
1.0
 40
2.0
 40
2.0
 40
2.0
 40
3.0
 40
3.0
 40
3.0
 40
4.0
 40
4.0
 40
4.0
 40
5.0
 40
5.0
 40
5.0
 40
6.0
 40
6.0
 40
6.0
 40
7.0
 40
7.0
 40
7.0
 40
8.0
 40
8.0
 40
8.0
 40
9.0
 40
9.0
 40
9.0
 40
9.0
 10
296.0853925202537
 20
392.5565900831862
 10
295.7724925281582
 20
392.5565900831862
 10
295.5160925346354
 20
392.301790089623
 10
295.5160925346354
 20
391.9872900975679
 10
295.5160925346354
 20
391.9872900975679
 10
295.5160925346354
 20
388.2792901912399
 10
295.5160925346354
 20
388.2792901912399
 10
295.5160925346354
 20
387.9667901991343
 10
295.7724925281582
 20
387.7090000000007
 10
296.0853925202537
 20
387.7090000000007
 10
296.0853925202537
 20
387.7090000000007
 10
299.2226924409988
 20
387.7090000000007
 10
299.2226924409988
 20
387.7090000000007
 10
299.5370924330564
 20
387.7090000000007
 10
299.7938924265691
 20
387.9667901991343
 10
299.7938924265691
 20
388.2792901912399
 10
299.7938924265691
 20
388.2792901912399
 10
299.7938924265691
 20
391.9872900975679
 10
299.7938924265691
 20
391.9872900975679
 10
299.7938924265691
 20
392.301790089623
 10
299.5370924330564
 20
392.5565900831862
 10
299.2226924409988
 20
392.5565900831862
 10
299.2226924409988
 20
392.5565900831862
 10
296.0853925202537
 20
392.5565900831862
 10
296.0853925202537
 20
392.5565900831862
 10
296.0853925202537
 20
392.5565900831862
 10
296.0853925202537
 20
392.5565900831862
 10
296.0853925202537
 20
392.5565900831862
 97
        0
 92
        1
 93
        1
 72
     4
 94
        3
 73
     0
 74
     1
 95
       32
 96
       28
 40
0.0
 40
0.0
 40
0.0
 40
0.0
 40
1.0
 40
1.0
 40
1.0
 40
2.0
 40
2.0
 40
2.0
 40
3.0
 40
3.0
 40
3.0
 40
4.0
 40
4.0
 40
4.0
 40
5.0
 40
5.0
 40
5.0
 40
6.0
 40
6.0
 40
6.0
 40
7.0
 40
7.0
 40
7.0
 40
8.0
 40
8.0
 40
8.0
 40
9.0
 40
9.0
 40
9.0
 40
9.0
 10
288.3095927166869
 20
392.5565900831862
 10
287.9965927245939
 20
392.5565900831862
 10
287.7396927310838
 20
392.301790089623
 10
287.7396927310838
 20
391.9872900975679
 10
287.7396927310838
 20
391.9872900975679
 10
287.7396927310838
 20
388.2792901912399
 10
287.7396927310838
 20
388.2792901912399
 10
287.7396927310838
 20
387.9667901991343
 10
287.9965927245939
 20
387.7090000000007
 10
288.3095927166869
 20
387.7090000000007
 10
288.3095927166869
 20
387.7090000000007
 10
289.4257926884893
 20
387.7090000000007
 10
289.4257926884893
 20
387.7090000000007
 10
289.7392926805696
 20
387.7090000000007
 10
289.9965926740697
 20
387.9667901991343
 10
289.9965926740697
 20
388.2792901912399
 10
289.9965926740697
 20
388.2792901912399
 10
289.9965926740697
 20
391.9872900975679
 10
289.9965926740697
 20
391.9872900975679
 10
289.9965926740697
 20
392.3007900896482
 10
289.7396926805595
 20
392.5565900831862
 10
289.4257926884893
 20
392.5565900831862
 10
289.4257926884893
 20
392.5565900831862
 10
288.3095927166869
 20
392.5565900831862
 10
288.3095927166869
 20
392.5565900831862
 10
288.3095927166869
 20
392.5565900831862
 10
288.3095927166869
 20
392.5565900831862
 10
288.3095927166869
 20
392.5565900831862
 97
        0
 92
        1
 93
        1
 72
     4
 94
        3
 73
     0
 74
     1
 95
       32
 96
       28
 40
0.0
 40
0.0
 40
0.0
 40
0.0
 40
1.0
 40
1.0
 40
1.0
 40
2.0
 40
2.0
 40
2.0
 40
3.0
 40
3.0
 40
3.0
 40
4.0
 40
4.0
 40
4.0
 40
5.0
 40
5.0
 40
5.0
 40
6.0
 40
6.0
 40
6.0
 40
7.0
 40
7.0
 40
7.0
 40
8.0
 40
8.0
 40
8.0
 40
9.0
 40
9.0
 40
9.0
 40
9.0
 10
291.1308926454149
 20
392.5565900831862
 10
290.8178926533219
 20
392.5565900831862
 10
290.5609999999997
 20
392.301790089623
 10
290.5609999999997
 20
391.9872900975679
 10
290.5609999999997
 20
391.9872900975679
 10
290.5609999999997
 20
388.2792901912399
 10
290.5609999999997
 20
388.2792901912399
 10
290.5609999999997
 20
387.9667901991343
 10
290.8178926533219
 20
387.7090000000007
 10
291.1308926454149
 20
387.7090000000007
 10
291.1308926454149
 20
387.7090000000007
 10
294.2680925661625
 20
387.7090000000007
 10
294.2680925661625
 20
387.7090000000007
 10
294.5820000000003
 20
387.7090000000007
 10
294.8388925517429
 20
387.9667901991343
 10
294.8388925517429
 20
388.2792901912399
 10
294.8388925517429
 20
388.2792901912399
 10
294.8388925517429
 20
391.9872900975679
 10
294.8388925517429
 20
391.9872900975679
 10
294.8388925517429
 20
392.301790089623
 10
294.5820000000003
 20
392.5565900831862
 10
294.2680925661625
 20
392.5565900831862
 10
294.2680925661625
 20
392.5565900831862
 10
291.1308926454149
 20
392.5565900831862
 10
291.1308926454149
 20
392.5565900831862
 10
291.1308926454149
 20
392.5565900831862
 10
291.1308926454149
 20
392.5565900831862
 10
291.1308926454149
 20
392.5565900831862
 97
        0
 92
        1
 93
        1
 72
     4
 94
        3
 73
     0
 74
     1
 95
       32
 96
       28
 40
0.0
 40
0.0
 40
0.0
 40
0.0
 40
1.0
 40
1.0
 40
1.0
 40
2.0
 40
2.0
 40
2.0
 40
3.0
 40
3.0
 40
3.0
 40
4.0
 40
4.0
 40
4.0
 40
5.0
 40
5.0
 40
5.0
 40
6.0
 40
6.0
 40
6.0
 40
7.0
 40
7.0
 40
7.0
 40
8.0
 40
8.0
 40
8.0
 40
9.0
 40
9.0
 40
9.0
 40
9.0
 10
312.5429999999997
 20
392.5565900831862
 10
312.2284921124447
 20
392.5565900831862
 10
311.9726921189067
 20
392.301790089623
 10
311.9726921189067
 20
391.9872900975679
 10
311.9726921189067
 20
391.9872900975679
 10
311.9726921189067
 20
388.2792901912399
 10
311.9726921189067
 20
388.2792901912399
 10
311.9726921189067
 20
387.9667901991343
 10
312.2284921124447
 20
387.7090000000007
 10
312.5429999999997
 20
387.7090000000007
 10
312.5429999999997
 20
387.7090000000007
 10
315.67969202526
 20
387.7090000000007
 10
315.67969202526
 20
387.7090000000007
 10
315.9940920173176
 20
387.7090000000007
 10
316.25
 20
387.9667901991343
 10
316.25
 20
388.2792901912399
 10
316.25
 20
388.2792901912399
 10
316.25
 20
391.9872900975679
 10
316.25
 20
391.9872900975679
 10
316.25
 20
392.301790089623
 10
315.9940920173176
 20
392.5565900831862
 10
315.67969202526
 20
392.5565900831862
 10
315.67969202526
 20
392.5565900831862
 10
312.5429999999997
 20
392.5565900831862
 10
312.5429999999997
 20
392.5565900831862
 10
312.5429999999997
 20
392.5565900831862
 10
312.5429999999997
 20
392.5565900831862
 10
312.5429999999997
 20
392.5565900831862
 97
        0
 92
        1
 93
        1
 72
     4
 94
        3
 73
     0
 74
     1
 95
       32
 96
       28
 40
0.0
 40
0.0
 40
0.0
 40
0.0
 40
1.0
 40
1.0
 40
1.0
 40
2.0
 40
2.0
 40
2.0
 40
3.0
 40
3.0
 40
3.0
 40
4.0
 40
4.0
 40
4.0
 40
5.0
 40
5.0
 40
5.0
 40
6.0
 40
6.0
 40
6.0
 40
7.0
 40
7.0
 40
7.0
 40
8.0
 40
8.0
 40
8.0
 40
9.0
 40
9.0
 40
9.0
 40
9.0
 10
307.5878922296761
 20
392.5565900831862
 10
307.2743922375957
 20
392.5565900831862
 10
307.0175922440831
 20
392.301790089623
 10
307.0175922440831
 20
391.9872900975679
 10
307.0175922440831
 20
391.9872900975679
 10
307.0175922440831
 20
388.2792901912399
 10
307.0175922440831
 20
388.2792901912399
 10
307.0175922440831
 20
387.9667901991343
 10
307.2743922375957
 20
387.7090000000007
 10
307.5878922296761
 20
387.7090000000007
 10
307.5878922296761
 20
387.7090000000007
 10
310.7255921504111
 20
387.7090000000007
 10
310.7255921504111
 20
387.7090000000007
 10
311.0390921424914
 20
387.7090000000007
 10
311.2948921360294
 20
387.9667901991343
 10
311.2948921360294
 20
388.2792901912399
 10
311.2948921360294
 20
388.2792901912399
 10
311.2948921360294
 20
391.9872900975679
 10
311.2948921360294
 20
391.9872900975679
 10
311.2948921360294
 20
392.301790089623
 10
311.0390921424914
 20
392.5565900831862
 10
310.7255921504111
 20
392.5565900831862
 10
310.7255921504111
 20
392.5565900831862
 10
307.5878922296761
 20
392.5565900831862
 10
307.5878922296761
 20
392.5565900831862
 10
307.5878922296761
 20
392.5565900831862
 10
307.5878922296761
 20
392.5565900831862
 10
307.5878922296761
 20
392.5565900831862
 97
        0
 92
        1
 93
       18
 72
     1
 10
300.6679999999997
 20
392.6542900807181
 11
300.5468924075467
 21
392.6542900807181
 72
     1
 10
300.5468924075467
 20
392.6542900807181
 11
300.5468924075467
 21
392.5194900841234
 72
     1
 10
300.5468924075467
 20
392.5194900841234
 11
300.5468924075467
 21
383.6796903074355
 72
     1
 10
300.5468924075467
 20
383.6796903074355
 11
300.5468924075467
 21
383.5448903108409
 72
     1
 10
300.5468924075467
 20
383.5448903108409
 11
300.6679999999997
 21
383.5448903108409
 72
     1
 10
300.6679999999997
 20
383.5448903108409
 11
303.2870923383234
 21
383.5448903108409
 72
     1
 10
303.2870923383234
 20
383.5448903108409
 11
303.4081923352642
 21
383.5448903108409
 72
     1
 10
303.4081923352642
 20
383.5448903108409
 11
303.5282923322302
 21
383.5448903108409
 72
     1
 10
303.5282923322302
 20
383.5448903108409
 11
306.1483922660409
 21
383.5448903108409
 72
     1
 10
306.1483922660409
 20
383.5448903108409
 11
306.2694922629817
 21
383.5448903108409
 72
     1
 10
306.2694922629817
 20
383.5448903108409
 11
306.2694922629817
 21
383.6796903074355
 72
     1
 10
306.2694922629817
 20
383.6796903074355
 11
306.2694922629817
 21
392.5194900841234
 72
     1
 10
306.2694922629817
 20
392.5194900841234
 11
306.2694922629817
 21
392.6542900807181
 72
     1
 10
306.2694922629817
 20
392.6542900807181
 11
306.1483922660409
 21
392.6542900807181
 72
     1
 10
306.1483922660409
 20
392.6542900807181
 11
303.5282923322302
 21
392.6542900807181
 72
     1
 10
303.5282923322302
 20
392.6542900807181
 11
303.4081923352642
 21
392.6542900807181
 72
     1
 10
303.4081923352642
 20
392.6542900807181
 11
303.2870923383234
 21
392.6542900807181
 72
     1
 10
303.2870923383234
 20
392.6542900807181
 11
300.6679999999997
 21
392.6542900807181
 97
        0
 92
        1
 93
        1
 72
     4
 94
        3
 73
     0
 74
     1
 95
       32
 96
       28
 40
0.0
 40
0.0
 40
0.0
 40
0.0
 40
1.0
 40
1.0
 40
1.0
 40
2.0
 40
2.0
 40
2.0
 40
3.0
 40
3.0
 40
3.0
 40
4.0
 40
4.0
 40
4.0
 40
5.0
 40
5.0
 40
5.0
 40
6.0
 40
6.0
 40
6.0
 40
7.0
 40
7.0
 40
7.0
 40
8.0
 40
8.0
 40
8.0
 40
9.0
 40
9.0
 40
9.0
 40
9.0
 10
305.2870922877992
 20
391.8778901003316
 10
305.0820000000003
 20
391.8778901003316
 10
304.9130922972472
 20
391.689490105091
 10
304.9130922972472
 20
391.4590000000007
 10
304.9130922972472
 20
391.4590000000007
 10
304.9130922972472
 20
388.2860901910681
 10
304.9130922972472
 20
388.2860901910681
 10
304.9130922972472
 20
388.0565901968657
 10
305.0820000000003
 20
387.8671902016504
 10
305.2870922877992
 20
387.8671902016504
 10
305.2870922877992
 20
387.8671902016504
 10
305.2870922877992
 20
387.8671902016504
 10
305.2870922877992
 20
387.8671902016504
 10
305.4940922825699
 20
387.8671902016504
 10
305.6620922783259
 20
388.0565901968657
 10
305.6620922783259
 20
388.2860901910681
 10
305.6620922783259
 20
388.2860901910681
 10
305.6620922783259
 20
391.4590000000007
 10
305.6620922783259
 20
391.4590000000007
 10
305.6620922783259
 20
391.689490105091
 10
305.4940922825699
 20
391.8778901003316
 10
305.2870922877992
 20
391.8778901003316
 10
305.2870922877992
 20
391.8778901003316
 10
305.2870922877992
 20
391.8778901003316
 10
305.2870922877992
 20
391.8778901003316
 10
305.2870922877992
 20
391.8778901003316
 10
305.2870922877992
 20
391.8778901003316
 10
305.2870922877992
 20
391.8778901003316
 97
        0
 92
        1
 93
        1
 72
     4
 94
        3
 73
     0
 74
     1
 95
       32
 96
       28
 40
0.0
 40
0.0
 40
0.0
 40
0.0
 40
1.0
 40
1.0
 40
1.0
 40
2.0
 40
2.0
 40
2.0
 40
3.0
 40
3.0
 40
3.0
 40
4.0
 40
4.0
 40
4.0
 40
5.0
 40
5.0
 40
5.0
 40
6.0
 40
6.0
 40
6.0
 40
7.0
 40
7.0
 40
7.0
 40
8.0
 40
8.0
 40
8.0
 40
9.0
 40
9.0
 40
9.0
 40
9.0
 10
305.2870922877992
 20
387.3515902146755
 10
305.0820000000003
 20
387.3515902146755
 10
304.9130922972472
 20
387.1620902194627
 10
304.9130922972472
 20
386.9315902252856
 10
304.9130922972472
 20
386.9315902252856
 10
304.9130922972472
 20
384.7753902797558
 10
304.9130922972472
 20
384.7753902797558
 10
304.9130922972472
 20
384.5448902855787
 10
305.0820000000003
 20
384.3563902903406
 10
305.2870922877992
 20
384.3563902903406
 10
305.2870922877992
 20
384.3563902903406
 10
305.2870922877992
 20
384.3563902903406
 10
305.2870922877992
 20
384.3563902903406
 10
305.4940922825699
 20
384.3563902903406
 10
305.6620922783259
 20
384.5448902855787
 10
305.6620922783259
 20
384.7753902797558
 10
305.6620922783259
 20
384.7753902797558
 10
305.6620922783259
 20
386.9315902252856
 10
305.6620922783259
 20
386.9315902252856
 10
305.6620922783259
 20
387.1620902194627
 10
305.4940922825699
 20
387.3515902146755
 10
305.2870922877992
 20
387.3515902146755
 10
305.2870922877992
 20
387.3515902146755
 10
305.2870922877992
 20
387.3515902146755
 10
305.2870922877992
 20
387.3515902146755
 10
305.2870922877992
 20
387.3515902146755
 10
305.2870922877992
 20
387.3515902146755
 10
305.2870922877992
 20
387.3515902146755
 97
        0
 92
        1
 93
        1
 72
     4
 94
        3
 73
     0
 74
     1
 95
       32
 96
       28
 40
0.0
 40
0.0
 40
0.0
 40
0.0
 40
1.0
 40
1.0
 40
1.0
 40
2.0
 40
2.0
 40
2.0
 40
3.0
 40
3.0
 40
3.0
 40
4.0
 40
4.0
 40
4.0
 40
5.0
 40
5.0
 40
5.0
 40
6.0
 40
6.0
 40
6.0
 40
7.0
 40
7.0
 40
7.0
 40
8.0
 40
8.0
 40
8.0
 40
9.0
 40
9.0
 40
9.0
 40
9.0
 10
304.2440923141476
 20
387.3515902146755
 10
304.0380923193516
 20
387.3515902146755
 10
303.8690923236209
 20
387.1620902194627
 10
303.8690923236209
 20
386.9315902252856
 10
303.8690923236209
 20
386.9315902252856
 10
303.8690923236209
 20
384.7753902797558
 10
303.8690923236209
 20
384.7753902797558
 10
303.8690923236209
 20
384.5448902855787
 10
304.0380923193516
 20
384.3563902903406
 10
304.2440923141476
 20
384.3563902903406
 10
304.2440923141476
 20
384.3563902903406
 10
304.2440923141476
 20
384.3563902903406
 10
304.2440923141476
 20
384.3563902903406
 10
304.450192308941
 20
384.3563902903406
 10
304.6190923046743
 20
384.5448902855787
 10
304.6190923046743
 20
384.7753902797558
 10
304.6190923046743
 20
384.7753902797558
 10
304.6190923046743
 20
386.9315902252856
 10
304.6190923046743
 20
386.9315902252856
 10
304.6190923046743
 20
387.1620902194627
 10
304.450192308941
 20
387.3515902146755
 10
304.2440923141476
 20
387.3515902146755
 10
304.2440923141476
 20
387.3515902146755
 10
304.2440923141476
 20
387.3515902146755
 10
304.2440923141476
 20
387.3515902146755
 10
304.2440923141476
 20
387.3515902146755
 10
304.2440923141476
 20
387.3515902146755
 10
304.2440923141476
 20
387.3515902146755
 97
        0
 92
        1
 93
        1
 72
     4
 94
        3
 73
     0
 74
     1
 95
       32
 96
       28
 40
0.0
 40
0.0
 40
0.0
 40
0.0
 40
1.0
 40
1.0
 40
1.0
 40
2.0
 40
2.0
 40
2.0
 40
3.0
 40
3.0
 40
3.0
 40
4.0
 40
4.0
 40
4.0
 40
5.0
 40
5.0
 40
5.0
 40
6.0
 40
6.0
 40
6.0
 40
7.0
 40
7.0
 40
7.0
 40
8.0
 40
8.0
 40
8.0
 40
9.0
 40
9.0
 40
9.0
 40
9.0
 10
304.2440923141476
 20
391.8778901003316
 10
304.0380923193516
 20
391.8778901003316
 10
303.8690923236209
 20
391.689490105091
 10
303.8690923236209
 20
391.4590000000007
 10
303.8690923236209
 20
391.4590000000007
 10
303.8690923236209
 20
388.2860901910681
 10
303.8690923236209
 20
388.2860901910681
 10
303.8690923236209
 20
388.0565901968657
 10
304.0380923193516
 20
387.8671902016504
 10
304.2440923141476
 20
387.8671902016504
 10
304.2440923141476
 20
387.8671902016504
 10
304.2440923141476
 20
387.8671902016504
 10
304.2440923141476
 20
387.8671902016504
 10
304.450192308941
 20
387.8671902016504
 10
304.6190923046743
 20
388.0565901968657
 10
304.6190923046743
 20
388.2860901910681
 10
304.6190923046743
 20
388.2860901910681
 10
304.6190923046743
 20
391.4590000000007
 10
304.6190923046743
 20
391.4590000000007
 10
304.6190923046743
 20
391.689490105091
 10
304.450192308941
 20
391.8778901003316
 10
304.2440923141476
 20
391.8778901003316
 10
304.2440923141476
 20
391.8778901003316
 10
304.2440923141476
 20
391.8778901003316
 10
304.2440923141476
 20
391.8778901003316
 10
304.2440923141476
 20
391.8778901003316
 10
304.2440923141476
 20
391.8778901003316
 10
304.2440923141476
 20
391.8778901003316
 97
        0
 92
        1
 93
        4
 72
     1
 10
303.5282923322302
 20
392.3847900875262
 11
303.5282923322302
 21
383.8144903040302
 72
     1
 10
303.5282923322302
 20
383.8144903040302
 11
306.0282922690749
 21
383.8144903040302
 72
     1
 10
306.0282922690749
 20
383.8144903040302
 11
306.0282922690749
 21
392.3847900875262
 72
     1
 10
306.0282922690749
 20
392.3847900875262
 11
303.5282923322302
 21
392.3847900875262
 97
        0
 92
        1
 93
        1
 72
     4
 94
        3
 73
     0
 74
     1
 95
       32
 96
       28
 40
0.0
 40
0.0
 40
0.0
 40
0.0
 40
1.0
 40
1.0
 40
1.0
 40
2.0
 40
2.0
 40
2.0
 40
3.0
 40
3.0
 40
3.0
 40
4.0
 40
4.0
 40
4.0
 40
5.0
 40
5.0
 40
5.0
 40
6.0
 40
6.0
 40
6.0
 40
7.0
 40
7.0
 40
7.0
 40
8.0
 40
8.0
 40
8.0
 40
9.0
 40
9.0
 40
9.0
 40
9.0
 10
302.5468923570224
 20
391.8778901003316
 10
302.3417923622037
 20
391.8778901003316
 10
302.1728923664705
 20
391.689490105091
 10
302.1728923664705
 20
391.4590000000007
 10
302.1728923664705
 20
391.4590000000007
 10
302.1728923664705
 20
388.2860901910681
 10
302.1728923664705
 20
388.2860901910681
 10
302.1728923664705
 20
388.0565901968657
 10
302.3417923622037
 20
387.8671902016504
 10
302.5468923570224
 20
387.8671902016504
 10
302.5468923570224
 20
387.8671902016504
 10
302.5468923570224
 20
387.8671902016504
 10
302.5468923570224
 20
387.8671902016504
 10
302.7520000000004
 20
387.8671902016504
 10
302.9218923475491
 20
388.0565901968657
 10
302.9218923475491
 20
388.2860901910681
 10
302.9218923475491
 20
388.2860901910681
 10
302.9218923475491
 20
391.4590000000007
 10
302.9218923475491
 20
391.4590000000007
 10
302.9218923475491
 20
391.689490105091
 10
302.7520000000004
 20
391.8778901003316
 10
302.5468923570224
 20
391.8778901003316
 10
302.5468923570224
 20
391.8778901003316
 10
302.5468923570224
 20
391.8778901003316
 10
302.5468923570224
 20
391.8778901003316
 10
302.5468923570224
 20
391.8778901003316
 10
302.5468923570224
 20
391.8778901003316
 10
302.5468923570224
 20
391.8778901003316
 97
        0
 92
        1
 93
        1
 72
     4
 94
        3
 73
     0
 74
     1
 95
       32
 96
       28
 40
0.0
 40
0.0
 40
0.0
 40
0.0
 40
1.0
 40
1.0
 40
1.0
 40
2.0
 40
2.0
 40
2.0
 40
3.0
 40
3.0
 40
3.0
 40
4.0
 40
4.0
 40
4.0
 40
5.0
 40
5.0
 40
5.0
 40
6.0
 40
6.0
 40
6.0
 40
7.0
 40
7.0
 40
7.0
 40
8.0
 40
8.0
 40
8.0
 40
9.0
 40
9.0
 40
9.0
 40
9.0
 10
302.5468923570224
 20
387.3515902146755
 10
302.3417923622037
 20
387.3515902146755
 10
302.1728923664705
 20
387.1620902194627
 10
302.1728923664705
 20
386.9315902252856
 10
302.1728923664705
 20
386.9315902252856
 10
302.1728923664705
 20
384.7753902797558
 10
302.1728923664705
 20
384.7753902797558
 10
302.1728923664705
 20
384.5448902855787
 10
302.3417923622037
 20
384.3563902903406
 10
302.5468923570224
 20
384.3563902903406
 10
302.5468923570224
 20
384.3563902903406
 10
302.5468923570224
 20
384.3563902903406
 10
302.5468923570224
 20
384.3563902903406
 10
302.7520000000004
 20
384.3563902903406
 10
302.9218923475491
 20
384.5448902855787
 10
302.9218923475491
 20
384.7753902797558
 10
302.9218923475491
 20
384.7753902797558
 10
302.9218923475491
 20
386.9315902252856
 10
302.9218923475491
 20
386.9315902252856
 10
302.9218923475491
 20
387.1620902194627
 10
302.7520000000004
 20
387.3515902146755
 10
302.5468923570224
 20
387.3515902146755
 10
302.5468923570224
 20
387.3515902146755
 10
302.5468923570224
 20
387.3515902146755
 10
302.5468923570224
 20
387.3515902146755
 10
302.5468923570224
 20
387.3515902146755
 10
302.5468923570224
 20
387.3515902146755
 10
302.5468923570224
 20
387.3515902146755
 97
        0
 92
        1
 93
        1
 72
     4
 94
        3
 73
     0
 74
     1
 95
       32
 96
       28
 40
0.0
 40
0.0
 40
0.0
 40
0.0
 40
1.0
 40
1.0
 40
1.0
 40
2.0
 40
2.0
 40
2.0
 40
3.0
 40
3.0
 40
3.0
 40
4.0
 40
4.0
 40
4.0
 40
5.0
 40
5.0
 40
5.0
 40
6.0
 40
6.0
 40
6.0
 40
7.0
 40
7.0
 40
7.0
 40
8.0
 40
8.0
 40
8.0
 40
9.0
 40
9.0
 40
9.0
 40
9.0
 10
301.5028923833961
 20
387.3515902146755
 10
301.2968923886001
 20
387.3515902146755
 10
301.1288923928441
 20
387.1620902194627
 10
301.1288923928441
 20
386.9315902252856
 10
301.1288923928441
 20
386.9315902252856
 10
301.1288923928441
 20
384.7753902797558
 10
301.1288923928441
 20
384.7753902797558
 10
301.1288923928441
 20
384.5448902855787
 10
301.2968923886001
 20
384.3563902903406
 10
301.5028923833961
 20
384.3563902903406
 10
301.5028923833961
 20
384.3563902903406
 10
301.5028923833961
 20
384.3563902903406
 10
301.5028923833961
 20
384.3563902903406
 10
301.7090000000007
 20
384.3563902903406
 10
301.8788923738975
 20
384.5448902855787
 10
301.8788923738975
 20
384.7753902797558
 10
301.8788923738975
 20
384.7753902797558
 10
301.8788923738975
 20
386.9315902252856
 10
301.8788923738975
 20
386.9315902252856
 10
301.8788923738975
 20
387.1620902194627
 10
301.7090000000007
 20
387.3515902146755
 10
301.5028923833961
 20
387.3515902146755
 10
301.5028923833961
 20
387.3515902146755
 10
301.5028923833961
 20
387.3515902146755
 10
301.5028923833961
 20
387.3515902146755
 10
301.5028923833961
 20
387.3515902146755
 10
301.5028923833961
 20
387.3515902146755
 10
301.5028923833961
 20
387.3515902146755
 97
        0
 92
        1
 93
        1
 72
     4
 94
        3
 73
     0
 74
     1
 95
       32
 96
       28
 40
0.0
 40
0.0
 40
0.0
 40
0.0
 40
1.0
 40
1.0
 40
1.0
 40
2.0
 40
2.0
 40
2.0
 40
3.0
 40
3.0
 40
3.0
 40
4.0
 40
4.0
 40
4.0
 40
5.0
 40
5.0
 40
5.0
 40
6.0
 40
6.0
 40
6.0
 40
7.0
 40
7.0
 40
7.0
 40
8.0
 40
8.0
 40
8.0
 40
9.0
 40
9.0
 40
9.0
 40
9.0
 10
301.5028923833961
 20
391.8778901003316
 10
301.2968923886001
 20
391.8778901003316
 10
301.1288923928441
 20
391.689490105091
 10
301.1288923928441
 20
391.4590000000007
 10
301.1288923928441
 20
391.4590000000007
 10
301.1288923928441
 20
388.2860901910681
 10
301.1288923928441
 20
388.2860901910681
 10
301.1288923928441
 20
388.0565901968657
 10
301.2968923886001
 20
387.8671902016504
 10
301.5028923833961
 20
387.8671902016504
 10
301.5028923833961
 20
387.8671902016504
 10
301.5028923833961
 20
387.8671902016504
 10
301.5028923833961
 20
387.8671902016504
 10
301.7090000000007
 20
387.8671902016504
 10
301.8788923738975
 20
388.0565901968657
 10
301.8788923738975
 20
388.2860901910681
 10
301.8788923738975
 20
388.2860901910681
 10
301.8788923738975
 20
391.4590000000007
 10
301.8788923738975
 20
391.4590000000007
 10
301.8788923738975
 20
391.689490105091
 10
301.7090000000007
 20
391.8778901003316
 10
301.5028923833961
 20
391.8778901003316
 10
301.5028923833961
 20
391.8778901003316
 10
301.5028923833961
 20
391.8778901003316
 10
301.5028923833961
 20
391.8778901003316
 10
301.5028923833961
 20
391.8778901003316
 10
301.5028923833961
 20
391.8778901003316
 10
301.5028923833961
 20
391.8778901003316
 97
        0
 92
        1
 93
        4
 72
     1
 10
303.2870923383234
 20
392.3847900875262
 11
300.7870924014787
 21
392.3847900875262
 72
     1
 10
300.7870924014787
 20
392.3847900875262
 11
300.7870924014787
 21
383.8144903040302
 72
     1
 10
300.7870924014787
 20
383.8144903040302
 11
303.2870923383234
 21
383.8144903040302
 72
     1
 10
303.2870923383234
 20
383.8144903040302
 11
303.2870923383234
 21
392.3847900875262
 97
        0
 92
        1
 93
        1
 72
     4
 94
        3
 73
     0
 74
     1
 95
       32
 96
       28
 40
0.0
 40
0.0
 40
0.0
 40
0.0
 40
1.0
 40
1.0
 40
1.0
 40
2.0
 40
2.0
 40
2.0
 40
3.0
 40
3.0
 40
3.0
 40
4.0
 40
4.0
 40
4.0
 40
5.0
 40
5.0
 40
5.0
 40
6.0
 40
6.0
 40
6.0
 40
7.0
 40
7.0
 40
7.0
 40
8.0
 40
8.0
 40
8.0
 40
9.0
 40
9.0
 40
9.0
 40
9.0
 10
321.6347918748215
 20
391.8778901003316
 10
321.4296918800028
 20
391.8778901003316
 10
321.2606918842721
 20
391.689490105091
 10
321.2606918842721
 20
391.4590000000007
 10
321.2606918842721
 20
391.4590000000007
 10
321.2606918842721
 20
388.2860901910681
 10
321.2606918842721
 20
388.2860901910681
 10
321.2606918842721
 20
388.0565901968657
 10
321.4296918800028
 20
387.8671902016504
 10
321.6347918748215
 20
387.8671902016504
 10
321.6347918748215
 20
387.8671902016504
 10
321.6347918748215
 20
387.8671902016504
 10
321.6347918748215
 20
387.8671902016504
 10
321.8407918696175
 20
387.8671902016504
 10
322.0097918653482
 20
388.0565901968657
 10
322.0097918653482
 20
388.2860901910681
 10
322.0097918653482
 20
388.2860901910681
 10
322.0097918653482
 20
391.4590000000007
 10
322.0097918653482
 20
391.4590000000007
 10
322.0097918653482
 20
391.689490105091
 10
321.8407918696175
 20
391.8778901003316
 10
321.6347918748215
 20
391.8778901003316
 10
321.6347918748215
 20
391.8778901003316
 10
321.6347918748215
 20
391.8778901003316
 10
321.6347918748215
 20
391.8778901003316
 10
321.6347918748215
 20
391.8778901003316
 10
321.6347918748215
 20
391.8778901003316
 10
321.6347918748215
 20
391.8778901003316
 97
        0
 92
        1
 93
        1
 72
     4
 94
        3
 73
     0
 74
     1
 95
       32
 96
       28
 40
0.0
 40
0.0
 40
0.0
 40
0.0
 40
1.0
 40
1.0
 40
1.0
 40
2.0
 40
2.0
 40
2.0
 40
3.0
 40
3.0
 40
3.0
 40
4.0
 40
4.0
 40
4.0
 40
5.0
 40
5.0
 40
5.0
 40
6.0
 40
6.0
 40
6.0
 40
7.0
 40
7.0
 40
7.0
 40
8.0
 40
8.0
 40
8.0
 40
9.0
 40
9.0
 40
9.0
 40
9.0
 10
321.6347918748215
 20
387.3515902146755
 10
321.4296918800028
 20
387.3515902146755
 10
321.2606918842721
 20
387.1620902194627
 10
321.2606918842721
 20
386.9315902252856
 10
321.2606918842721
 20
386.9315902252856
 10
321.2606918842721
 20
384.7753902797558
 10
321.2606918842721
 20
384.7753902797558
 10
321.2606918842721
 20
384.5448902855787
 10
321.4296918800028
 20
384.3563902903406
 10
321.6347918748215
 20
384.3563902903406
 10
321.6347918748215
 20
384.3563902903406
 10
321.6347918748215
 20
384.3563902903406
 10
321.6347918748215
 20
384.3563902903406
 10
321.8407918696175
 20
384.3563902903406
 10
322.0097918653482
 20
384.5448902855787
 10
322.0097918653482
 20
384.7753902797558
 10
322.0097918653482
 20
384.7753902797558
 10
322.0097918653482
 20
386.9315902252856
 10
322.0097918653482
 20
386.9315902252856
 10
322.0097918653482
 20
387.1620902194627
 10
321.8407918696175
 20
387.3515902146755
 10
321.6347918748215
 20
387.3515902146755
 10
321.6347918748215
 20
387.3515902146755
 10
321.6347918748215
 20
387.3515902146755
 10
321.6347918748215
 20
387.3515902146755
 10
321.6347918748215
 20
387.3515902146755
 10
321.6347918748215
 20
387.3515902146755
 10
321.6347918748215
 20
387.3515902146755
 97
        0
 92
        1
 93
        1
 72
     4
 94
        3
 73
     0
 74
     1
 95
       32
 96
       28
 40
0.0
 40
0.0
 40
0.0
 40
0.0
 40
1.0
 40
1.0
 40
1.0
 40
2.0
 40
2.0
 40
2.0
 40
3.0
 40
3.0
 40
3.0
 40
4.0
 40
4.0
 40
4.0
 40
5.0
 40
5.0
 40
5.0
 40
6.0
 40
6.0
 40
6.0
 40
7.0
 40
7.0
 40
7.0
 40
8.0
 40
8.0
 40
8.0
 40
9.0
 40
9.0
 40
9.0
 40
9.0
 10
320.5917919011699
 20
387.3515902146755
 10
320.3847919063992
 20
387.3515902146755
 10
320.2167919106432
 20
387.1620902194627
 10
320.2167919106432
 20
386.9315902252856
 10
320.2167919106432
 20
386.9315902252856
 10
320.2167919106432
 20
384.7753902797558
 10
320.2167919106432
 20
384.7753902797558
 10
320.2167919106432
 20
384.5448902855787
 10
320.3847919063992
 20
384.3563902903406
 10
320.5917919011699
 20
384.3563902903406
 10
320.5917919011699
 20
384.3563902903406
 10
320.5917919011699
 20
384.3563902903406
 10
320.5917919011699
 20
384.3563902903406
 10
320.7968918959887
 20
384.3563902903406
 10
320.9667918916966
 20
384.5448902855787
 10
320.9667918916966
 20
384.7753902797558
 10
320.9667918916966
 20
384.7753902797558
 10
320.9667918916966
 20
386.9315902252856
 10
320.9667918916966
 20
386.9315902252856
 10
320.9667918916966
 20
387.1620902194627
 10
320.7968918959887
 20
387.3515902146755
 10
320.5917919011699
 20
387.3515902146755
 10
320.5917919011699
 20
387.3515902146755
 10
320.5917919011699
 20
387.3515902146755
 10
320.5917919011699
 20
387.3515902146755
 10
320.5917919011699
 20
387.3515902146755
 10
320.5917919011699
 20
387.3515902146755
 10
320.5917919011699
 20
387.3515902146755
 97
        0
 92
        1
 93
        1
 72
     4
 94
        3
 73
     0
 74
     1
 95
       32
 96
       28
 40
0.0
 40
0.0
 40
0.0
 40
0.0
 40
1.0
 40
1.0
 40
1.0
 40
2.0
 40
2.0
 40
2.0
 40
3.0
 40
3.0
 40
3.0
 40
4.0
 40
4.0
 40
4.0
 40
5.0
 40
5.0
 40
5.0
 40
6.0
 40
6.0
 40
6.0
 40
7.0
 40
7.0
 40
7.0
 40
8.0
 40
8.0
 40
8.0
 40
9.0
 40
9.0
 40
9.0
 40
9.0
 10
320.5917919011699
 20
391.8778901003316
 10
320.3847919063992
 20
391.8778901003316
 10
320.2167919106432
 20
391.689490105091
 10
320.2167919106432
 20
391.4590000000007
 10
320.2167919106432
 20
391.4590000000007
 10
320.2167919106432
 20
388.2860901910681
 10
320.2167919106432
 20
388.2860901910681
 10
320.2167919106432
 20
388.0565901968657
 10
320.3847919063992
 20
387.8671902016504
 10
320.5917919011699
 20
387.8671902016504
 10
320.5917919011699
 20
387.8671902016504
 10
320.5917919011699
 20
387.8671902016504
 10
320.5917919011699
 20
387.8671902016504
 10
320.7968918959887
 20
387.8671902016504
 10
320.9667918916966
 20
388.0565901968657
 10
320.9667918916966
 20
388.2860901910681
 10
320.9667918916966
 20
388.2860901910681
 10
320.9667918916966
 20
391.4590000000007
 10
320.9667918916966
 20
391.4590000000007
 10
320.9667918916966
 20
391.689490105091
 10
320.7968918959887
 20
391.8778901003316
 10
320.5917919011699
 20
391.8778901003316
 10
320.5917919011699
 20
391.8778901003316
 10
320.5917919011699
 20
391.8778901003316
 10
320.5917919011699
 20
391.8778901003316
 10
320.5917919011699
 20
391.8778901003316
 10
320.5917919011699
 20
391.8778901003316
 10
320.5917919011699
 20
391.8778901003316
 97
        0
 92
        1
 93
        4
 72
     1
 10
319.875
 20
392.3847900875262
 11
319.875
 21
383.8144903040302
 72
     1
 10
319.875
 20
383.8144903040302
 11
322.375
 21
383.8144903040302
 72
     1
 10
322.375
 20
383.8144903040302
 11
322.375
 21
392.3847900875262
 72
     1
 10
322.375
 20
392.3847900875262
 11
319.875
 21
392.3847900875262
 97
        0
 92
        1
 93
        1
 72
     4
 94
        3
 73
     0
 74
     1
 95
       32
 96
       28
 40
0.0
 40
0.0
 40
0.0
 40
0.0
 40
1.0
 40
1.0
 40
1.0
 40
2.0
 40
2.0
 40
2.0
 40
3.0
 40
3.0
 40
3.0
 40
4.0
 40
4.0
 40
4.0
 40
5.0
 40
5.0
 40
5.0
 40
6.0
 40
6.0
 40
6.0
 40
7.0
 40
7.0
 40
7.0
 40
8.0
 40
8.0
 40
8.0
 40
9.0
 40
9.0
 40
9.0
 40
9.0
 10
318.8944919440473
 20
391.8778901003316
 10
318.6894919492261
 20
391.8778901003316
 10
318.5194919535206
 20
391.689490105091
 10
318.5194919535206
 20
391.4590000000007
 10
318.5194919535206
 20
391.4590000000007
 10
318.5194919535206
 20
388.2860901910681
 10
318.5194919535206
 20
388.2860901910681
 10
318.5194919535206
 20
388.0565901968657
 10
318.6894919492261
 20
387.8671902016504
 10
318.8944919440473
 20
387.8671902016504
 10
318.8944919440473
 20
387.8671902016504
 10
318.8944919440473
 20
387.8671902016504
 10
318.8944919440473
 20
387.8671902016504
 10
319.0995919388661
 20
387.8671902016504
 10
319.269491934574
 20
388.0565901968657
 10
319.269491934574
 20
388.2860901910681
 10
319.269491934574
 20
388.2860901910681
 10
319.269491934574
 20
391.4590000000007
 10
319.269491934574
 20
391.4590000000007
 10
319.269491934574
 20
391.689490105091
 10
319.0995919388661
 20
391.8778901003316
 10
318.8944919440473
 20
391.8778901003316
 10
318.8944919440473
 20
391.8778901003316
 10
318.8944919440473
 20
391.8778901003316
 10
318.8944919440473
 20
391.8778901003316
 10
318.8944919440473
 20
391.8778901003316
 10
318.8944919440473
 20
391.8778901003316
 10
318.8944919440473
 20
391.8778901003316
 97
        0
 92
        1
 93
        1
 72
     4
 94
        3
 73
     0
 74
     1
 95
       32
 96
       28
 40
0.0
 40
0.0
 40
0.0
 40
0.0
 40
1.0
 40
1.0
 40
1.0
 40
2.0
 40
2.0
 40
2.0
 40
3.0
 40
3.0
 40
3.0
 40
4.0
 40
4.0
 40
4.0
 40
5.0
 40
5.0
 40
5.0
 40
6.0
 40
6.0
 40
6.0
 40
7.0
 40
7.0
 40
7.0
 40
8.0
 40
8.0
 40
8.0
 40
9.0
 40
9.0
 40
9.0
 40
9.0
 10
318.8944919440473
 20
387.3515902146755
 10
318.6894919492261
 20
387.3515902146755
 10
318.5194919535206
 20
387.1620902194627
 10
318.5194919535206
 20
386.9315902252856
 10
318.5194919535206
 20
386.9315902252856
 10
318.5194919535206
 20
384.7753902797558
 10
318.5194919535206
 20
384.7753902797558
 10
318.5194919535206
 20
384.5448902855787
 10
318.6894919492261
 20
384.3563902903406
 10
318.8944919440473
 20
384.3563902903406
 10
318.8944919440473
 20
384.3563902903406
 10
318.8944919440473
 20
384.3563902903406
 10
318.8944919440473
 20
384.3563902903406
 10
319.0995919388661
 20
384.3563902903406
 10
319.269491934574
 20
384.5448902855787
 10
319.269491934574
 20
384.7753902797558
 10
319.269491934574
 20
384.7753902797558
 10
319.269491934574
 20
386.9315902252856
 10
319.269491934574
 20
386.9315902252856
 10
319.269491934574
 20
387.1620902194627
 10
319.0995919388661
 20
387.3515902146755
 10
318.8944919440473
 20
387.3515902146755
 10
318.8944919440473
 20
387.3515902146755
 10
318.8944919440473
 20
387.3515902146755
 10
318.8944919440473
 20
387.3515902146755
 10
318.8944919440473
 20
387.3515902146755
 10
318.8944919440473
 20
387.3515902146755
 10
318.8944919440473
 20
387.3515902146755
 97
        0
 92
        1
 93
        1
 72
     4
 94
        3
 73
     0
 74
     1
 95
       32
 96
       28
 40
0.0
 40
0.0
 40
0.0
 40
0.0
 40
1.0
 40
1.0
 40
1.0
 40
2.0
 40
2.0
 40
2.0
 40
3.0
 40
3.0
 40
3.0
 40
4.0
 40
4.0
 40
4.0
 40
5.0
 40
5.0
 40
5.0
 40
6.0
 40
6.0
 40
6.0
 40
7.0
 40
7.0
 40
7.0
 40
8.0
 40
8.0
 40
8.0
 40
9.0
 40
9.0
 40
9.0
 40
9.0
 10
317.8495919704437
 20
387.3515902146755
 10
317.644491975625
 20
387.3515902146755
 10
317.4765919798665
 20
387.1620902194627
 10
317.4765919798665
 20
386.9315902252856
 10
317.4765919798665
 20
386.9315902252856
 10
317.4765919798665
 20
384.7753902797558
 10
317.4765919798665
 20
384.7753902797558
 10
317.4765919798665
 20
384.5448902855787
 10
317.644491975625
 20
384.3563902903406
 10
317.8495919704437
 20
384.3563902903406
 10
317.8495919704437
 20
384.3563902903406
 10
317.8495919704437
 20
384.3563902903406
 10
317.8495919704437
 20
384.3563902903406
 10
318.0565919652145
 20
384.3563902903406
 10
318.2245919609704
 20
384.5448902855787
 10
318.2245919609704
 20
384.7753902797558
 10
318.2245919609704
 20
384.7753902797558
 10
318.2245919609704
 20
386.9315902252856
 10
318.2245919609704
 20
386.9315902252856
 10
318.2245919609704
 20
387.1620902194627
 10
318.0565919652145
 20
387.3515902146755
 10
317.8495919704437
 20
387.3515902146755
 10
317.8495919704437
 20
387.3515902146755
 10
317.8495919704437
 20
387.3515902146755
 10
317.8495919704437
 20
387.3515902146755
 10
317.8495919704437
 20
387.3515902146755
 10
317.8495919704437
 20
387.3515902146755
 10
317.8495919704437
 20
387.3515902146755
 97
        0
 92
        1
 93
        1
 72
     4
 94
        3
 73
     0
 74
     1
 95
       32
 96
       28
 40
0.0
 40
0.0
 40
0.0
 40
0.0
 40
1.0
 40
1.0
 40
1.0
 40
2.0
 40
2.0
 40
2.0
 40
3.0
 40
3.0
 40
3.0
 40
4.0
 40
4.0
 40
4.0
 40
5.0
 40
5.0
 40
5.0
 40
6.0
 40
6.0
 40
6.0
 40
7.0
 40
7.0
 40
7.0
 40
8.0
 40
8.0
 40
8.0
 40
9.0
 40
9.0
 40
9.0
 40
9.0
 10
317.8495919704437
 20
391.8778901003316
 10
317.644491975625
 20
391.8778901003316
 10
317.4765919798665
 20
391.689490105091
 10
317.4765919798665
 20
391.4590000000007
 10
317.4765919798665
 20
391.4590000000007
 10
317.4765919798665
 20
388.2860901910681
 10
317.4765919798665
 20
388.2860901910681
 10
317.4765919798665
 20
388.0565901968657
 10
317.644491975625
 20
387.8671902016504
 10
317.8495919704437
 20
387.8671902016504
 10
317.8495919704437
 20
387.8671902016504
 10
317.8495919704437
 20
387.8671902016504
 10
317.8495919704437
 20
387.8671902016504
 10
318.0565919652145
 20
387.8671902016504
 10
318.2245919609704
 20
388.0565901968657
 10
318.2245919609704
 20
388.2860901910681
 10
318.2245919609704
 20
388.2860901910681
 10
318.2245919609704
 20
391.4590000000007
 10
318.2245919609704
 20
391.4590000000007
 10
318.2245919609704
 20
391.689490105091
 10
318.0565919652145
 20
391.8778901003316
 10
317.8495919704437
 20
391.8778901003316
 10
317.8495919704437
 20
391.8778901003316
 10
317.8495919704437
 20
391.8778901003316
 10
317.8495919704437
 20
391.8778901003316
 10
317.8495919704437
 20
391.8778901003316
 10
317.8495919704437
 20
391.8778901003316
 10
317.8495919704437
 20
391.8778901003316
 97
        0
 92
        1
 93
        4
 72
     1
 10
319.6347919253458
 20
392.3847900875262
 11
317.1337919885264
 21
392.3847900875262
 72
     1
 10
317.1337919885264
 20
392.3847900875262
 11
317.1337919885264
 21
383.8144903040302
 72
     1
 10
317.1337919885264
 20
383.8144903040302
 11
319.6347919253458
 21
383.8144903040302
 72
     1
 10
319.6347919253458
 20
383.8144903040302
 11
319.6347919253458
 21
392.3847900875262
 97
        0
 92
        1
 93
        1
 72
     4
 94
        3
 73
     0
 74
     1
 95
       29
 96
       25
 40
0.0
 40
0.0
 40
0.0
 40
0.0
 40
1.0
 40
1.0
 40
1.0
 40
2.0
 40
2.0
 40
2.0
 40
3.0
 40
3.0
 40
3.0
 40
4.0
 40
4.0
 40
4.0
 40
5.0
 40
5.0
 40
5.0
 40
6.0
 40
6.0
 40
6.0
 40
7.0
 40
7.0
 40
7.0
 40
8.0
 40
8.0
 40
8.0
 40
8.0
 10
313.2968920854546
 20
383.685490307289
 10
313.2968920854546
 20
383.685490307289
 10
312.3349999999991
 20
383.685490307289
 10
312.3349999999991
 20
383.685490307289
 10
312.3349999999991
 20
383.685490307289
 10
312.3495921093854
 20
383.6718903076326
 10
312.3495921093854
 20
383.6718903076326
 10
312.3495921093854
 20
383.6718903076326
 10
312.3505921093602
 20
383.6698903076831
 10
312.3505921093602
 20
383.6698903076831
 10
312.6015921030194
 20
383.4188903140239
 10
312.7704920987526
 20
383.0878903223856
 10
312.8163920975931
 20
382.7177903317352
 10
312.8603920964815
 20
383.0878903223856
 10
313.0292920922147
 20
383.4188903140239
 10
313.2812920858487
 20
383.6698903076831
 10
313.2812920858487
 20
383.6698903076831
 10
313.2812920858487
 20
383.6718903076326
 10
313.2812920858487
 20
383.6718903076326
 10
313.2812920858487
 20
383.6718903076326
 10
313.2968920854546
 20
383.685490307289
 10
313.2968920854546
 20
383.685490307289
 10
313.2968920854546
 20
383.685490307289
 10
313.2968920854546
 20
383.685490307289
 10
313.2968920854546
 20
383.685490307289
 97
        0
 92
        1
 93
        1
 72
     4
 94
        3
 73
     0
 74
     1
 95
       32
 96
       28
 40
0.0
 40
0.0
 40
0.0
 40
0.0
 40
1.0
 40
1.0
 40
1.0
 40
2.0
 40
2.0
 40
2.0
 40
3.0
 40
3.0
 40
3.0
 40
4.0
 40
4.0
 40
4.0
 40
5.0
 40
5.0
 40
5.0
 40
6.0
 40
6.0
 40
6.0
 40
7.0
 40
7.0
 40
7.0
 40
8.0
 40
8.0
 40
8.0
 40
9.0
 40
9.0
 40
9.0
 40
9.0
 10
315.0077920422336
 20
383.0966903221633
 10
314.8603920459573
 20
383.2431903184624
 10
314.6562920511133
 20
383.3340000000007
 10
314.4315920567897
 20
383.3340000000007
 10
314.2070000000003
 20
383.3340000000007
 10
314.0020000000004
 20
383.2431903184624
 10
313.8554920713432
 20
383.0966903221633
 10
313.7090000000007
 20
382.9491903258895
 10
313.6181920773379
 20
382.7460903310202
 10
313.6181920773379
 20
382.5204903367194
 10
313.6181920773379
 20
382.2948903424185
 10
313.7090000000007
 20
382.0917903475492
 10
313.8554920713432
 20
381.9452903512502
 10
314.0020000000004
 20
381.7978903549738
 10
314.2070000000003
 20
381.7080000000005
 10
314.4315920567897
 20
381.7080000000005
 10
314.6562920511133
 20
381.7080000000005
 10
314.8603920459573
 20
381.7978903549738
 10
315.0077920422336
 20
381.9452903512502
 10
315.1542920385327
 20
382.0917903475492
 10
315.2450920362389
 20
382.2948903424185
 10
315.2450920362389
 20
382.5204903367194
 10
315.2450920362389
 20
382.7460903310202
 10
315.1542920385327
 20
382.9491903258895
 10
315.0077920422336
 20
383.0966903221633
 10
315.0077920422336
 20
383.0966903221633
 10
315.0077920422336
 20
383.0966903221633
 10
315.0077920422336
 20
383.0966903221633
 97
        0
 92
        1
 93
        1
 72
     4
 94
        3
 73
     0
 74
     1
 95
       32
 96
       28
 40
0.0
 40
0.0
 40
0.0
 40
0.0
 40
1.0
 40
1.0
 40
1.0
 40
2.0
 40
2.0
 40
2.0
 40
3.0
 40
3.0
 40
3.0
 40
4.0
 40
4.0
 40
4.0
 40
5.0
 40
5.0
 40
5.0
 40
6.0
 40
6.0
 40
6.0
 40
7.0
 40
7.0
 40
7.0
 40
8.0
 40
8.0
 40
8.0
 40
9.0
 40
9.0
 40
9.0
 40
9.0
 10
311.7763921238657
 20
383.0966903221633
 10
311.6288921275918
 20
383.2431903184624
 10
311.4257921327226
 20
383.3340000000007
 10
311.199192138447
 20
383.3340000000007
 10
310.9745921441208
 20
383.3340000000007
 10
310.7714921492516
 20
383.2431903184624
 10
310.6229999999996
 20
383.0966903221633
 10
310.4765921567014
 20
382.9491903258895
 10
310.3866921589724
 20
382.7460903310202
 10
310.3866921589724
 20
382.5204903367194
 10
310.3866921589724
 20
382.2948903424185
 10
310.4765921567014
 20
382.0917903475492
 10
310.6229999999996
 20
381.9452903512502
 10
310.7714921492516
 20
381.7978903549738
 10
310.9745921441208
 20
381.7080000000005
 10
311.199192138447
 20
381.7080000000005
 10
311.4257921327226
 20
381.7080000000005
 10
311.6288921275918
 20
381.7978903549738
 10
311.7763921238657
 20
381.9452903512502
 10
311.92189212019
 20
382.0917903475492
 10
312.013692117871
 20
382.2948903424185
 10
312.013692117871
 20
382.5204903367194
 10
312.013692117871
 20
382.7460903310202
 10
311.92189212019
 20
382.9491903258895
 10
311.7763921238657
 20
383.0966903221633
 10
311.7763921238657
 20
383.0966903221633
 10
311.7763921238657
 20
383.0966903221633
 10
311.7763921238657
 20
383.0966903221633
 97
        0
 92
        1
 93
        1
 72
     4
 94
        3
 73
     0
 74
     1
 95
       29
 96
       25
 40
0.0
 40
0.0
 40
0.0
 40
0.0
 40
1.0
 40
1.0
 40
1.0
 40
2.0
 40
2.0
 40
2.0
 40
3.0
 40
3.0
 40
3.0
 40
4.0
 40
4.0
 40
4.0
 40
5.0
 40
5.0
 40
5.0
 40
6.0
 40
6.0
 40
6.0
 40
7.0
 40
7.0
 40
7.0
 40
8.0
 40
8.0
 40
8.0
 40
8.0
 10
293.4105925878248
 20
383.685490307289
 10
293.4105925878248
 20
383.685490307289
 10
292.4491926121118
 20
383.685490307289
 10
292.4491926121118
 20
383.685490307289
 10
292.4491926121118
 20
383.685490307289
 10
292.4638926117404
 20
383.6718903076326
 10
292.4638926117404
 20
383.6718903076326
 10
292.4638926117404
 20
383.6718903076326
 10
292.4647926117177
 20
383.6698903076831
 10
292.4647926117177
 20
383.6698903076831
 10
292.7162926053643
 20
383.4188903140239
 10
292.8856926010849
 20
383.0878903223856
 10
292.9301925999607
 20
382.7177903317352
 10
292.9755925988138
 20
383.0878903223856
 10
293.1440000000002
 20
383.4188903140239
 10
293.3950000000004
 20
383.6698903076831
 10
293.3950000000004
 20
383.6698903076831
 10
293.3969999999999
 20
383.6718903076326
 10
293.3969999999999
 20
383.6718903076326
 10
293.3969999999999
 20
383.6718903076326
 10
293.4105925878248
 20
383.685490307289
 10
293.4105925878248
 20
383.685490307289
 10
293.4105925878248
 20
383.685490307289
 10
293.4105925878248
 20
383.685490307289
 10
293.4105925878248
 20
383.685490307289
 97
        0
 92
        1
 93
        1
 72
     4
 94
        3
 73
     0
 74
     1
 95
       32
 96
       28
 40
0.0
 40
0.0
 40
0.0
 40
0.0
 40
1.0
 40
1.0
 40
1.0
 40
2.0
 40
2.0
 40
2.0
 40
3.0
 40
3.0
 40
3.0
 40
4.0
 40
4.0
 40
4.0
 40
5.0
 40
5.0
 40
5.0
 40
6.0
 40
6.0
 40
6.0
 40
7.0
 40
7.0
 40
7.0
 40
8.0
 40
8.0
 40
8.0
 40
9.0
 40
9.0
 40
9.0
 40
9.0
 10
295.122592544576
 20
383.0966903221633
 10
294.9745925483148
 20
383.2431903184624
 10
294.7709999999997
 20
383.3340000000007
 10
294.5458925591447
 20
383.3340000000007
 10
294.3202925648438
 20
383.3340000000007
 10
294.1171925699746
 20
383.2431903184624
 10
293.9701925736881
 20
383.0966903221633
 10
293.8231925774016
 20
382.9491903258895
 10
293.7323925796954
 20
382.7460903310202
 10
293.7323925796954
 20
382.5204903367194
 10
293.7323925796954
 20
382.2948903424185
 10
293.8231925774016
 20
382.0917903475492
 10
293.9701925736881
 20
381.9452903512502
 10
294.1171925699746
 20
381.7978903549738
 10
294.3202925648438
 20
381.7080000000005
 10
294.5458925591447
 20
381.7080000000005
 10
294.7709999999997
 20
381.7080000000005
 10
294.9745925483148
 20
381.7978903549738
 10
295.122592544576
 20
381.9452903512502
 10
295.2685925408878
 20
382.0917903475492
 10
295.359392538594
 20
382.2948903424185
 10
295.359392538594
 20
382.5204903367194
 10
295.359392538594
 20
382.7460903310202
 10
295.2685925408878
 20
382.9491903258895
 10
295.122592544576
 20
383.0966903221633
 10
295.122592544576
 20
383.0966903221633
 10
295.122592544576
 20
383.0966903221633
 10
295.122592544576
 20
383.0966903221633
 97
        0
 92
        1
 93
        1
 72
     4
 94
        3
 73
     0
 74
     1
 95
       32
 96
       28
 40
0.0
 40
0.0
 40
0.0
 40
0.0
 40
1.0
 40
1.0
 40
1.0
 40
2.0
 40
2.0
 40
2.0
 40
3.0
 40
3.0
 40
3.0
 40
4.0
 40
4.0
 40
4.0
 40
5.0
 40
5.0
 40
5.0
 40
6.0
 40
6.0
 40
6.0
 40
7.0
 40
7.0
 40
7.0
 40
8.0
 40
8.0
 40
8.0
 40
9.0
 40
9.0
 40
9.0
 40
9.0
 10
291.8900926262359
 20
383.0966903221633
 10
291.7431926299469
 20
383.2431903184624
 10
291.5395926350902
 20
383.3340000000007
 10
291.3140000000003
 20
383.3340000000007
 10
291.0888926464759
 20
383.3340000000007
 10
290.8852926516192
 20
383.2431903184624
 10
290.7387926553201
 20
383.0966903221633
 10
290.5912926590463
 20
382.9491903258895
 10
290.5010000000002
 20
382.7460903310202
 10
290.5010000000002
 20
382.5204903367194
 10
290.5010000000002
 20
382.2948903424185
 10
290.5912926590463
 20
382.0917903475492
 10
290.7387926553201
 20
381.9452903512502
 10
290.8852926516192
 20
381.7978903549738
 10
291.0888926464759
 20
381.7080000000005
 10
291.3140000000003
 20
381.7080000000005
 10
291.5395926350902
 20
381.7080000000005
 10
291.7431926299469
 20
381.7978903549738
 10
291.8900926262359
 20
381.9452903512502
 10
292.036592622535
 20
382.0917903475492
 10
292.1273926202412
 20
382.2948903424185
 10
292.1273926202412
 20
382.5204903367194
 10
292.1273926202412
 20
382.7460903310202
 10
292.036592622535
 20
382.9491903258895
 10
291.8900926262359
 20
383.0966903221633
 10
291.8900926262359
 20
383.0966903221633
 10
291.8900926262359
 20
383.0966903221633
 10
291.8900926262359
 20
383.0966903221633
 97
        0
 92
        1
 93
        6
 72
     1
 10
314.4765920556529
 20
396.2304899903756
 11
316.1913920123334
 21
398.8729999999996
 72
     1
 10
316.1913920123334
 20
398.8729999999996
 11
312.3573921091884
 21
400.7900000000009
 72
     1
 10
312.3573921091884
 20
400.7900000000009
 11
312.1122921153801
 21
400.7900000000009
 72
     1
 10
312.1122921153801
 20
400.7900000000009
 11
308.2792922122098
 21
398.8729999999996
 72
     1
 10
308.2792922122098
 20
398.8729999999996
 11
309.9940921688903
 21
396.2304899903756
 72
     1
 10
309.9940921688903
 20
396.2304899903756
 11
314.4765920556529
 21
396.2304899903756
 97
        0
 75
     0
 76
     1
 98
        0
  0
SPLINE
  5
BE
330
14
100
AcDbEntity
  8
Layer 1
370
     0
100
AcDbSpline
210
0.0
220
0.0
230
1.0
 70
    11
 71
     3
 72
    32
 73
    28
 74
     0
 42
0.000000001
 43
0.0000000001
 40
0.0
 40
0.0
 40
0.0
 40
0.0
 40
1.0
 40
1.0
 40
1.0
 40
2.0
 40
2.0
 40
2.0
 40
3.0
 40
3.0
 40
3.0
 40
4.0
 40
4.0
 40
4.0
 40
5.0
 40
5.0
 40
5.0
 40
6.0
 40
6.0
 40
6.0
 40
7.0
 40
7.0
 40
7.0
 40
8.0
 40
8.0
 40
8.0
 40
9.0
 40
9.0
 40
9.0
 40
9.0
 10
296.0853925202537
 20
392.5565900831862
 30
0.0
 10
295.7724925281582
 20
392.5565900831862
 30
0.0
 10
295.5160925346354
 20
392.301790089623
 30
0.0
 10
295.5160925346354
 20
391.9872900975679
 30
0.0
 10
295.5160925346354
 20
391.9872900975679
 30
0.0
 10
295.5160925346354
 20
388.2792901912399
 30
0.0
 10
295.5160925346354
 20
388.2792901912399
 30
0.0
 10
295.5160925346354
 20
387.9667901991343
 30
0.0
 10
295.7724925281582
 20
387.7090000000007
 30
0.0
 10
296.0853925202537
 20
387.7090000000007
 30
0.0
 10
296.0853925202537
 20
387.7090000000007
 30
0.0
 10
299.2226924409988
 20
387.7090000000007
 30
0.0
 10
299.2226924409988
 20
387.7090000000007
 30
0.0
 10
299.5370924330564
 20
387.7090000000007
 30
0.0
 10
299.7938924265691
 20
387.9667901991343
 30
0.0
 10
299.7938924265691
 20
388.2792901912399
 30
0.0
 10
299.7938924265691
 20
388.2792901912399
 30
0.0
 10
299.7938924265691
 20
391.9872900975679
 30
0.0
 10
299.7938924265691
 20
391.9872900975679
 30
0.0
 10
299.7938924265691
 20
392.301790089623
 30
0.0
 10
299.5370924330564
 20
392.5565900831862
 30
0.0
 10
299.2226924409988
 20
392.5565900831862
 30
0.0
 10
299.2226924409988
 20
392.5565900831862
 30
0.0
 10
296.0853925202537
 20
392.5565900831862
 30
0.0
 10
296.0853925202537
 20
392.5565900831862
 30
0.0
 10
296.0853925202537
 20
392.5565900831862
 30
0.0
 10
296.0853925202537
 20
392.5565900831862
 30
0.0
 10
296.0853925202537
 20
392.5565900831862
 30
0.0
  0
SPLINE
  5
BF
330
14
100
AcDbEntity
  8
Layer 1
370
     0
100
AcDbSpline
210
0.0
220
0.0
230
1.0
 70
    11
 71
     3
 72
   323
 73
   319
 74
     0
 42
0.000000001
 43
0.0000000001
 40
0.0
 40
0.0
 40
0.0
 40
0.0
 40
1.0
 40
1.0
 40
1.0
 40
2.0
 40
2.0
 40
2.0
 40
3.0
 40
3.0
 40
3.0
 40
4.0
 40
4.0
 40
4.0
 40
5.0
 40
5.0
 40
5.0
 40
6.0
 40
6.0
 40
6.0
 40
7.0
 40
7.0
 40
7.0
 40
8.0
 40
8.0
 40
8.0
 40
9.0
 40
9.0
 40
9.0
 40
10.0
 40
10.0
 40
10.0
 40
11.0
 40
11.0
 40
11.0
 40
12.0
 40
12.0
 40
12.0
 40
13.0
 40
13.0
 40
13.0
 40
14.0
 40
14.0
 40
14.0
 40
15.0
 40
15.0
 40
15.0
 40
16.0
 40
16.0
 40
16.0
 40
17.0
 40
17.0
 40
17.0
 40
18.0
 40
18.0
 40
18.0
 40
19.0
 40
19.0
 40
19.0
 40
20.0
 40
20.0
 40
20.0
 40
21.0
 40
21.0
 40
21.0
 40
22.0
 40
22.0
 40
22.0
 40
23.0
 40
23.0
 40
23.0
 40
24.0
 40
24.0
 40
24.0
 40
25.0
 40
25.0
 40
25.0
 40
26.0
 40
26.0
 40
26.0
 40
27.0
 40
27.0
 40
27.0
 40
28.0
 40
28.0
 40
28.0
 40
29.0
 40
29.0
 40
29.0
 40
30.0
 40
30.0
 40
30.0
 40
31.0
 40
31.0
 40
31.0
 40
32.0
 40
32.0
 40
32.0
 40
33.0
 40
33.0
 40
33.0
 40
34.0
 40
34.0
 40
34.0
 40
35.0
 40
35.0
 40
35.0
 40
36.0
 40
36.0
 40
36.0
 40
37.0
 40
37.0
 40
37.0
 40
38.0
 40
38.0
 40
38.0
 40
39.0
 40
39.0
 40
39.0
 40
40.0
 40
40.0
 40
40.0
 40
41.0
 40
41.0
 40
41.0
 40
42.0
 40
42.0
 40
42.0
 40
43.0
 40
43.0
 40
43.0
 40
44.0
 40
44.0
 40
44.0
 40
45.0
 40
45.0
 40
45.0
 40
46.0
 40
46.0
 40
46.0
 40
47.0
 40
47.0
 40
47.0
 40
48.0
 40
48.0
 40
48.0
 40
49.0
 40
49.0
 40
49.0
 40
50.0
 40
50.0
 40
50.0
 40
51.0
 40
51.0
 40
51.0
 40
52.0
 40
52.0
 40
52.0
 40
53.0
 40
53.0
 40
53.0
 40
54.0
 40
54.0
 40
54.0
 40
55.0
 40
55.0
 40
55.0
 40
56.0
 40
56.0
 40
56.0
 40
57.0
 40
57.0
 40
57.0
 40
58.0
 40
58.0
 40
58.0
 40
59.0
 40
59.0
 40
59.0
 40
60.0
 40
60.0
 40
60.0
 40
61.0
 40
61.0
 40
61.0
 40
62.0
 40
62.0
 40
62.0
 40
63.0
 40
63.0
 40
63.0
 40
64.0
 40
64.0
 40
64.0
 40
65.0
 40
65.0
 40
65.0
 40
66.0
 40
66.0
 40
66.0
 40
67.0
 40
67.0
 40
67.0
 40
68.0
 40
68.0
 40
68.0
 40
69.0
 40
69.0
 40
69.0
 40
70.0
 40
70.0
 40
70.0
 40
71.0
 40
71.0
 40
71.0
 40
72.0
 40
72.0
 40
72.0
 40
73.0
 40
73.0
 40
73.0
 40
74.0
 40
74.0
 40
74.0
 40
75.0
 40
75.0
 40
75.0
 40
76.0
 40
76.0
 40
76.0
 40
77.0
 40
77.0
 40
77.0
 40
78.0
 40
78.0
 40
78.0
 40
79.0
 40
79.0
 40
79.0
 40
80.0
 40
80.0
 40
80.0
 40
81.0
 40
81.0
 40
81.0
 40
82.0
 40
82.0
 40
82.0
 40
83.0
 40
83.0
 40
83.0
 40
84.0
 40
84.0
 40
84.0
 40
85.0
 40
85.0
 40
85.0
 40
86.0
 40
86.0
 40
86.0
 40
87.0
 40
87.0
 40
87.0
 40
88.0
 40
88.0
 40
88.0
 40
89.0
 40
89.0
 40
89.0
 40
90.0
 40
90.0
 40
90.0
 40
91.0
 40
91.0
 40
91.0
 40
92.0
 40
92.0
 40
92.0
 40
93.0
 40
93.0
 40
93.0
 40
94.0
 40
94.0
 40
94.0
 40
95.0
 40
95.0
 40
95.0
 40
96.0
 40
96.0
 40
96.0
 40
97.0
 40
97.0
 40
97.0
 40
98.0
 40
98.0
 40
98.0
 40
99.0
 40
99.0
 40
99.0
 40
100.0
 40
100.0
 40
100.0
 40
101.0
 40
101.0
 40
101.0
 40
102.0
 40
102.0
 40
102.0
 40
103.0
 40
103.0
 40
103.0
 40
104.0
 40
104.0
 40
104.0
 40
105.0
 40
105.0
 40
105.0
 40
106.0
 40
106.0
 40
106.0
 40
106.0
 10
286.9345927514223
 20
395.365190012235
 30
0.0
 10
286.9345927514223
 20
395.365190012235
 30
0.0
 10
301.1171923931397
 20
395.365190012235
 30
0.0
 10
301.1171923931397
 20
395.365190012235
 30
0.0
 10
301.1171923931397
 20
395.365190012235
 30
0.0
 10
301.1171923931397
 20
395.75
 30
0.0
 10
301.1171923931397
 20
395.75
 30
0.0
 10
301.1171923931397
 20
395.75
 30
0.0
 10
300.9198923981239
 20
395.75
 30
0.0
 10
300.9198923981239
 20
395.75
 30
0.0
 10
300.9198923981239
 20
395.75
 30
0.0
 10
300.9198923981239
 20
396.2304899903756
 30
0.0
 10
300.9198923981239
 20
396.2304899903756
 30
0.0
 10
300.9198923981239
 20
396.2304899903756
 30
0.0
 10
307.3729999999996
 20
396.2304899903756
 30
0.0
 10
307.3729999999996
 20
396.2304899903756
 30
0.0
 10
307.3729999999996
 20
396.2304899903756
 30
0.0
 10
307.3729999999996
 20
395.75
 30
0.0
 10
307.3729999999996
 20
395.75
 30
0.0
 10
307.3729999999996
 20
395.75
 30
0.0
 10
307.1054922418625
 20
395.75
 30
0.0
 10
307.1054922418625
 20
395.75
 30
0.0
 10
307.1054922418625
 20
395.75
 30
0.0
 10
307.1054922418625
 20
395.365190012235
 30
0.0
 10
307.1054922418625
 20
395.365190012235
 30
0.0
 10
307.1054922418625
 20
395.365190012235
 30
0.0
 10
309.3866921842346
 20
395.365190012235
 30
0.0
 10
309.3866921842346
 20
395.365190012235
 30
0.0
 10
309.3866921842346
 20
395.365190012235
 30
0.0
 10
309.3866921842346
 20
395.75
 30
0.0
 10
309.3866921842346
 20
395.75
 30
0.0
 10
309.3866921842346
 20
395.75
 30
0.0
 10
309.1015921914368
 20
395.75
 30
0.0
 10
309.1015921914368
 20
395.75
 30
0.0
 10
309.1015921914368
 20
395.75
 30
0.0
 10
309.1015921914368
 20
396.2304899903756
 30
0.0
 10
309.1015921914368
 20
396.2304899903756
 30
0.0
 10
309.1015921914368
 20
396.2304899903756
 30
0.0
 10
309.5409999999993
 20
396.2304899903756
 30
0.0
 10
309.5409999999993
 20
396.2304899903756
 30
0.0
 10
309.5409999999993
 20
396.2304899903756
 30
0.0
 10
307.8358922234111
 20
398.8554899240626
 30
0.0
 10
307.8358922234111
 20
398.8554899240626
 30
0.0
 10
307.8358922234111
 20
398.8554899240626
 30
0.0
 10
307.75
 20
398.9901899206598
 30
0.0
 10
307.75
 20
398.9901899206598
 30
0.0
 10
307.75
 20
398.9901899206598
 30
0.0
 10
307.9091922215594
 20
399.0702899186363
 30
0.0
 10
307.9091922215594
 20
399.0702899186363
 30
0.0
 10
307.9091922215594
 20
399.0702899186363
 30
0.0
 10
312.0419999999995
 20
401.1376898664093
 30
0.0
 10
312.0419999999995
 20
401.1376898664093
 30
0.0
 10
312.0419999999995
 20
401.1376898664093
 30
0.0
 10
312.0419999999995
 20
401.6190898542482
 30
0.0
 10
312.0419999999995
 20
401.6190898542482
 30
0.0
 10
312.0419999999995
 20
401.6190898542482
 30
0.0
 10
311.0351921425899
 20
401.6190898542482
 30
0.0
 10
311.0351921425899
 20
401.6190898542482
 30
0.0
 10
311.0351921425899
 20
401.6190898542482
 30
0.0
 10
311.0351921425899
 20
401.978489845169
 30
0.0
 10
311.0351921425899
 20
401.978489845169
 30
0.0
 10
311.0351921425899
 20
401.978489845169
 30
0.0
 10
313.5302920795584
 20
401.978489845169
 30
0.0
 10
313.5302920795584
 20
401.978489845169
 30
0.0
 10
313.5302920795584
 20
401.978489845169
 30
0.0
 10
313.5302920795584
 20
401.6190898542482
 30
0.0
 10
313.5302920795584
 20
401.6190898542482
 30
0.0
 10
313.5302920795584
 20
401.6190898542482
 30
0.0
 10
312.4511921068188
 20
401.6190898542482
 30
0.0
 10
312.4511921068188
 20
401.6190898542482
 30
0.0
 10
312.4511921068188
 20
401.6190898542482
 30
0.0
 10
312.4511921068188
 20
401.1270000000004
 30
0.0
 10
312.4511921068188
 20
401.1270000000004
 30
0.0
 10
312.4511921068188
 20
401.1270000000004
 30
0.0
 10
316.5624920029586
 20
399.0702899186363
 30
0.0
 10
316.5624920029586
 20
399.0702899186363
 30
0.0
 10
316.5624920029586
 20
399.0702899186363
 30
0.0
 10
316.7216919989369
 20
398.9901899206598
 30
0.0
 10
316.7216919989369
 20
398.9901899206598
 30
0.0
 10
316.7216919989369
 20
398.9901899206598
 30
0.0
 10
316.6347920011322
 20
398.8554899240626
 30
0.0
 10
316.6347920011322
 20
398.8554899240626
 30
0.0
 10
316.6347920011322
 20
398.8554899240626
 30
0.0
 10
314.9306920441813
 20
396.2304899903756
 30
0.0
 10
314.9306920441813
 20
396.2304899903756
 30
0.0
 10
314.9306920441813
 20
396.2304899903756
 30
0.0
 10
315.5526920284683
 20
396.2304899903756
 30
0.0
 10
315.5526920284683
 20
396.2304899903756
 30
0.0
 10
315.5526920284683
 20
396.2304899903756
 30
0.0
 10
315.5526920284683
 20
395.75
 30
0.0
 10
315.5526920284683
 20
395.75
 30
0.0
 10
315.5526920284683
 20
395.75
 30
0.0
 10
315.375
 20
395.75
 30
0.0
 10
315.375
 20
395.75
 30
0.0
 10
315.375
 20
395.75
 30
0.0
 10
315.375
 20
395.365190012235
 30
0.0
 10
315.375
 20
395.365190012235
 30
0.0
 10
315.375
 20
395.365190012235
 30
0.0
 10
322.8085918451688
 20
395.365190012235
 30
0.0
 10
322.8085918451688
 20
395.365190012235
 30
0.0
 10
323.2909999999993
 20
395.3886900116413
 30
0.0
 10
323.7020918225971
 20
395.271490014602
 30
0.0
 10
324.0478918138615
 20
395.0194900209681
 30
0.0
 10
324.0478918138615
 20
395.0194900209681
 30
0.0
 10
324.9140917919794
 20
395.0194900209681
 30
0.0
 10
324.9140917919794
 20
395.0194900209681
 30
0.0
 10
324.9140917919794
 20
395.0194900209681
 30
0.0
 10
324.9140917919794
 20
393.8310900509896
 30
0.0
 10
324.9140917919794
 20
393.8310900509896
 30
0.0
 10
324.9140917919794
 20
393.8310900509896
 30
0.0
 10
324.7099999999991
 20
393.8310900509896
 30
0.0
 10
324.7099999999991
 20
393.8310900509896
 30
0.0
 10
324.7099999999991
 20
393.8310900509896
 30
0.0
 10
324.8144917944956
 20
393.4374900609328
 30
0.0
 10
324.8144917944956
 20
393.4374900609328
 30
0.0
 10
324.8144917944956
 20
393.4374900609328
 30
0.0
 10
323.8681918184011
 20
393.272490065101
 30
0.0
 10
323.8681918184011
 20
393.272490065101
 30
0.0
 10
323.2284918345613
 20
393.1210900689257
 30
0.0
 10
323.3036918326616
 20
392.6270000000004
 30
0.0
 10
323.4570000000003
 20
392.1132900943849
 30
0.0
 10
323.4570000000003
 20
392.1132900943849
 30
0.0
 10
324.4296918042164
 20
388.4843901860586
 30
0.0
 10
324.4296918042164
 20
388.4843901860586
 30
0.0
 10
324.5468918012557
 20
388.0526901969642
 30
0.0
 10
325.022491789241
 20
387.9921901984926
 30
0.0
 10
325.4716917778933
 20
388.1483901945467
 30
0.0
 10
325.4716917778933
 20
388.1483901945467
 30
0.0
 10
326.1659999999993
 20
388.3104901904517
 30
0.0
 10
326.1659999999993
 20
388.3104901904517
 30
0.0
 10
326.1659999999993
 20
388.3104901904517
 30
0.0
 10
326.3261917563068
 20
387.7050902057454
 30
0.0
 10
326.3261917563068
 20
387.7050902057454
 30
0.0
 10
326.3261917563068
 20
387.7050902057454
 30
0.0
 10
325.9618917655098
 20
385.4804902619435
 30
0.0
 10
325.9618917655098
 20
385.4804902619435
 30
0.0
 10
325.9618917655098
 20
385.4804902619435
 30
0.0
 10
326.2440917583808
 20
385.4804902619435
 30
0.0
 10
326.2440917583808
 20
385.4804902619435
 30
0.0
 10
326.2440917583808
 20
385.4804902619435
 30
0.0
 10
326.2440917583808
 20
384.0360902984321
 30
0.0
 10
326.2440917583808
 20
384.0360902984321
 30
0.0
 10
326.2440917583808
 20
384.0360902984321
 30
0.0
 10
325.4608917781661
 20
384.0360902984321
 30
0.0
 10
325.4608917781661
 20
384.0360902984321
 30
0.0
 10
325.4608917781661
 20
384.0360902984321
 30
0.0
 10
324.3046918073742
 20
381.890590352632
 30
0.0
 10
324.3046918073742
 20
381.890590352632
 30
0.0
 10
324.3046918073742
 20
381.890590352632
 30
0.0
 10
316.6815919999499
 20
381.890590352632
 30
0.0
 10
316.6815919999499
 20
381.890590352632
 30
0.0
 10
316.6815919999499
 20
381.890590352632
 30
0.0
 10
316.3925920072506
 20
383.1757903201651
 30
0.0
 10
316.3925920072506
 20
383.1757903201651
 30
0.0
 10
316.2831920100143
 20
383.5409999999993
 30
0.0
 10
316.0253920165269
 20
383.689490307188
 30
0.0
 10
315.6679999999997
 20
383.685490307289
 30
0.0
 10
315.6679999999997
 20
383.685490307289
 30
0.0
 10
315.5663920281222
 20
383.685490307289
 30
0.0
 10
315.5663920281222
 20
383.685490307289
 30
0.0
 10
315.5663920281222
 20
383.685490307289
 30
0.0
 10
315.5810920277509
 20
383.6718903076326
 30
0.0
 10
315.5810920277509
 20
383.6718903076326
 30
0.0
 10
315.5810920277509
 20
383.6718903076326
 30
0.0
 10
315.5820000000003
 20
383.6698903076831
 30
0.0
 10
315.5820000000003
 20
383.6698903076831
 30
0.0
 10
315.8770000000004
 20
383.375
 30
0.0
 10
316.0595920156629
 20
382.9687903253944
 30
0.0
 10
316.0595920156629
 20
382.5204903367194
 30
0.0
 10
316.0595920156629
 20
382.0722903480419
 30
0.0
 10
315.8770000000004
 20
381.6659999999993
 30
0.0
 10
315.5820000000003
 20
381.3710903657557
 30
0.0
 10
315.5820000000003
 20
381.3710903657557
 30
0.0
 10
315.5810920277509
 20
381.3690903658062
 30
0.0
 10
315.5810920277509
 20
381.3690903658062
 30
0.0
 10
315.2870920351779
 20
381.074190373256
 30
0.0
 10
314.8798920454647
 20
380.8925903778436
 30
0.0
 10
314.4315920567897
 20
380.8925903778436
 30
0.0
 10
313.9823920681374
 20
380.8925903778436
 30
0.0
 10
313.5761920783989
 20
381.074190373256
 30
0.0
 10
313.2812920858487
 20
381.3690903658062
 30
0.0
 10
313.2812920858487
 20
381.3690903658062
 30
0.0
 10
313.2812920858487
 20
381.3710903657557
 30
0.0
 10
313.2812920858487
 20
381.3710903657557
 30
0.0
 10
313.0292920922147
 20
381.6210903594401
 30
0.0
 10
312.8603920964815
 20
381.9530903510531
 30
0.0
 10
312.8163920975931
 20
382.3231903417036
 30
0.0
 10
312.7704920987526
 20
381.9530903510531
 30
0.0
 10
312.6015921030194
 20
381.6210903594401
 30
0.0
 10
312.3505921093602
 20
381.3710903657557
 30
0.0
 10
312.3505921093602
 20
381.3710903657557
 30
0.0
 10
312.3495921093854
 20
381.3690903658062
 30
0.0
 10
312.3495921093854
 20
381.3690903658062
 30
0.0
 10
312.0546921168352
 20
381.074190373256
 30
0.0
 10
311.6483921270992
 20
380.8925903778436
 30
0.0
 10
311.199192138447
 20
380.8925903778436
 30
0.0
 10
310.7520000000004
 20
380.8925903778436
 30
0.0
 10
310.3446921600334
 20
381.074190373256
 30
0.0
 10
310.050792167458
 20
381.3690903658062
 30
0.0
 10
310.050792167458
 20
381.3690903658062
 30
0.0
 10
310.0487921675085
 20
381.3710903657557
 30
0.0
 10
310.0487921675085
 20
381.3710903657557
 30
0.0
 10
309.7538921749583
 20
381.6659999999993
 30
0.0
 10
309.5722921795459
 20
382.0722903480419
 30
0.0
 10
309.5722921795459
 20
382.5204903367194
 30
0.0
 10
309.5722921795459
 20
382.9687903253944
 30
0.0
 10
309.7538921749583
 20
383.375
 30
0.0
 10
310.0487921675085
 20
383.6698903076831
 30
0.0
 10
310.0487921675085
 20
383.6698903076831
 30
0.0
 10
310.050792167458
 20
383.6718903076326
 30
0.0
 10
310.050792167458
 20
383.6718903076326
 30
0.0
 10
310.050792167458
 20
383.6718903076326
 30
0.0
 10
310.0644921671119
 20
383.685490307289
 30
0.0
 10
310.0644921671119
 20
383.685490307289
 30
0.0
 10
310.0644921671119
 20
383.685490307289
 30
0.0
 10
309.8036921737003
 20
383.685490307289
 30
0.0
 10
309.8036921737003
 20
383.685490307289
 30
0.0
 10
309.4335921830498
 20
383.6679999999997
 30
0.0
 10
309.2187921884761
 20
383.4667903128138
 30
0.0
 10
309.1210921909442
 20
383.1270000000004
 30
0.0
 10
309.1210921909442
 20
383.1270000000004
 30
0.0
 10
308.8437921979494
 20
381.890590352632
 30
0.0
 10
308.8437921979494
 20
381.890590352632
 30
0.0
 10
308.8437921979494
 20
381.890590352632
 30
0.0
 10
296.915
 20
381.890590352632
 30
0.0
 10
296.915
 20
381.890590352632
 30
0.0
 10
296.915
 20
381.890590352632
 30
0.0
 10
296.6260000000002
 20
383.1757903201651
 30
0.0
 10
296.6260000000002
 20
383.1757903201651
 30
0.0
 10
296.5165925093606
 20
383.5409999999993
 30
0.0
 10
296.2597925158479
 20
383.689490307188
 30
0.0
 10
295.9013925249019
 20
383.685490307289
 30
0.0
 10
295.9013925249019
 20
383.685490307289
 30
0.0
 10
295.6806925304772
 20
383.685490307289
 30
0.0
 10
295.6806925304772
 20
383.685490307289
 30
0.0
 10
295.6806925304772
 20
383.685490307289
 30
0.0
 10
295.6957925300958
 20
383.6718903076326
 30
0.0
 10
295.6957925300958
 20
383.6718903076326
 30
0.0
 10
295.6957925300958
 20
383.6718903076326
 30
0.0
 10
295.6972925300579
 20
383.6698903076831
 30
0.0
 10
295.6972925300579
 20
383.6698903076831
 30
0.0
 10
295.9911925226334
 20
383.375
 30
0.0
 10
296.1737925180205
 20
382.9687903253944
 30
0.0
 10
296.1737925180205
 20
382.5204903367194
 30
0.0
 10
296.1737925180205
 20
382.0722903480419
 30
0.0
 10
295.9911925226334
 20
381.6659999999993
 30
0.0
 10
295.6972925300579
 20
381.3710903657557
 30
0.0
 10
295.6972925300579
 20
381.3710903657557
 30
0.0
 10
295.6957925300958
 20
381.3690903658062
 30
0.0
 10
295.6957925300958
 20
381.3690903658062
 30
0.0
 10
295.4008925375456
 20
381.074190373256
 30
0.0
 10
294.9940925478222
 20
380.8925903778436
 30
0.0
 10
294.5458925591447
 20
380.8925903778436
 30
0.0
 10
294.0971925704798
 20
380.8925903778436
 30
0.0
 10
293.6918925807186
 20
381.074190373256
 30
0.0
 10
293.3969999999999
 20
381.3690903658062
 30
0.0
 10
293.3969999999999
 20
381.3690903658062
 30
0.0
 10
293.3950000000004
 20
381.3710903657557
 30
0.0
 10
293.3950000000004
 20
381.3710903657557
 30
0.0
 10
293.1440000000002
 20
381.6210903594401
 30
0.0
 10
292.9755925988138
 20
381.9530903510531
 30
0.0
 10
292.9301925999607
 20
382.3231903417036
 30
0.0
 10
292.8856926010849
 20
381.9530903510531
 30
0.0
 10
292.7162926053643
 20
381.6210903594401
 30
0.0
 10
292.4647926117177
 20
381.3710903657557
 30
0.0
 10
292.4647926117177
 20
381.3710903657557
 30
0.0
 10
292.4638926117404
 20
381.3690903658062
 30
0.0
 10
292.4638926117404
 20
381.3690903658062
 30
0.0
 10
292.1693926191801
 20
381.074190373256
 30
0.0
 10
291.7626926294542
 20
380.8925903778436
 30
0.0
 10
291.3140000000003
 20
380.8925903778436
 30
0.0
 10
290.8656926521144
 20
380.8925903778436
 30
0.0
 10
290.46
 20
381.074190373256
 30
0.0
 10
290.1645926698257
 20
381.3690903658062
 30
0.0
 10
290.1645926698257
 20
381.3690903658062
 30
0.0
 10
290.1635926698509
 20
381.3710903657557
 30
0.0
 10
290.1635926698509
 20
381.3710903657557
 30
0.0
 10
289.8690926772906
 20
381.6659999999993
 30
0.0
 10
289.6864926819035
 20
382.0722903480419
 30
0.0
 10
289.6864926819035
 20
382.5204903367194
 30
0.0
 10
289.6864926819035
 20
382.9687903253944
 30
0.0
 10
289.8690926772906
 20
383.375
 30
0.0
 10
290.1635926698509
 20
383.6698903076831
 30
0.0
 10
290.1635926698509
 20
383.6698903076831
 30
0.0
 10
290.1645926698257
 20
383.6718903076326
 30
0.0
 10
290.1645926698257
 20
383.6718903076326
 30
0.0
 10
290.1645926698257
 20
383.6718903076326
 30
0.0
 10
290.1791926694568
 20
383.685490307289
 30
0.0
 10
290.1791926694568
 20
383.685490307289
 30
0.0
 10
290.1791926694568
 20
383.685490307289
 30
0.0
 10
290.0365926730592
 20
383.685490307289
 30
0.0
 10
290.0365926730592
 20
383.685490307289
 30
0.0
 10
289.6670000000004
 20
383.6679999999997
 30
0.0
 10
289.451692687835
 20
383.4667903128138
 30
0.0
 10
289.3554926902652
 20
383.1270000000004
 30
0.0
 10
289.3554926902652
 20
383.1270000000004
 30
0.0
 10
289.0775926972856
 20
381.890590352632
 30
0.0
 10
289.0775926972856
 20
381.890590352632
 30
0.0
 10
289.0775926972856
 20
381.890590352632
 30
0.0
 10
285.7572927811634
 20
381.890590352632
 30
0.0
 10
285.7572927811634
 20
381.890590352632
 30
0.0
 10
285.7572927811634
 20
381.890590352632
 30
0.0
 10
284.410192815194
 20
384.4150000000009
 30
0.0
 10
284.410192815194
 20
384.4150000000009
 30
0.0
 10
284.410192815194
 20
384.4150000000009
 30
0.0
 10
284.410192815194
 20
388.9052901754258
 30
0.0
 10
284.410192815194
 20
388.9052901754258
 30
0.0
 10
284.410192815194
 20
388.9052901754258
 30
0.0
 10
285.2943927928573
 20
388.9052901754258
 30
0.0
 10
285.2943927928573
 20
388.9052901754258
 30
0.0
 10
285.2943927928573
 20
388.9052901754258
 30
0.0
 10
285.2943927928573
 20
393.7968900518536
 30
0.0
 10
285.2943927928573
 20
393.7968900518536
 30
0.0
 10
285.3104927924505
 20
394.8788900245199
 30
0.0
 10
285.9682927758331
 20
395.2841900142812
 30
0.0
 10
286.9345927514223
 20
395.365190012235
 30
0.0
 10
286.9345927514223
 20
395.365190012235
 30
0.0
 10
286.9345927514223
 20
395.365190012235
 30
0.0
 10
286.9345927514223
 20
395.365190012235
 30
0.0
  0
ENDSEC
  0
SECTION
  2
OBJECTS
  0
DICTIONARY
  5
5
330
0
100
AcDbDictionary
281
     1
  3
ACAD_GROUP
350
21
  3
ACAD_LAYOUT
350
18
  3
ACAD_MATERIAL
350
7
  3
ACAD_MLEADERSTYLE
350
C3
  3
ACAD_MLINESTYLE
350
12
  3
ACAD_PLOTSETTINGS
350
22
  3
ACAD_PLOTSTYLENAME
350
4
  3
ACAD_SCALELIST
350
29
  3
ACAD_TABLESTYLE
350
C2
  3
ACAD_VISUALSTYLE
350
23
  3
AcDbVariableDictionary
350
C0
  0
DICTIONARY
  5
E3
330
1F
100
AcDbDictionary
280
     1
281
     1
  3
ACAD_XREC_ROUNDTRIP
360
E4
  0
DICTIONARY
  5
21
102
{ACAD_REACTORS
330
5
102
}
330
5
100
AcDbDictionary
281
     1
  0
DICTIONARY
  5
18
102
{ACAD_REACTORS
330
5
102
}
330
5
100
AcDbDictionary
281
     1
  3
Layout1
350
1C
  3
Model
350
17
  0
DICTIONARY
  5
7
102
{ACAD_REACTORS
330
5
102
}
330
5
100
AcDbDictionary
281
     1
  3
ByBlock
350
4C
  3
ByLayer
350
E
  3
Global
350
6
  0
DICTIONARY
  5
C3
102
{ACAD_REACTORS
330
5
102
}
330
5
100
AcDbDictionary
281
     1
  3
Standard
350
C6
  0
DICTIONARY
  5
12
102
{ACAD_REACTORS
330
5
102
}
330
5
100
AcDbDictionary
281
     1
  3
Standard
350
11
  0
DICTIONARY
  5
22
102
{ACAD_REACTORS
330
5
102
}
330
5
100
AcDbDictionary
281
     1
  0
ACDBDICTIONARYWDFLT
  5
4
102
{ACAD_REACTORS
330
5
102
}
330
5
100
AcDbDictionary
281
     1
  3
Normal
350
3
100
AcDbDictionaryWithDefault
340
3
  0
DICTIONARY
  5
29
102
{ACAD_REACTORS
330
5
102
}
330
5
100
AcDbDictionary
281
     1
  3
*A1
350
4B
  0
DICTIONARY
  5
C2
102
{ACAD_REACTORS
330
5
102
}
330
5
100
AcDbDictionary
281
     1
  3
Standard
350
DE
  0
DICTIONARY
  5
23
102
{ACAD_REACTORS
330
5
102
}
330
5
100
AcDbDictionary
281
     1
  3
2dWireframe
350
26
  3
Basic
350
CD
  3
Brighten
350
D1
  3
ColorChange
350
D5
  3
Conceptual
350
CF
  3
Dim
350
D0
  3
EdgeColorOff
350
D8
  3
Facepattern
350
D4
  3
Flat
350
C7
  3
FlatWithEdges
350
C8
  3
Gouraud
350
C9
  3
GouraudWithEdges
350
CA
  3
Hidden
350
CC
  3
JitterOff
350
D6
  3
Linepattern
350
D3
  3
OverhangOff
350
D7
  3
Realistic
350
CE
  3
Shaded
350
DD
  3
Shaded with edges
350
DC
  3
Shades of Gray
350
D9
  3
Sketchy
350
DA
  3
Thicken
350
D2
  3
Wireframe
350
CB
  3
X-Ray
350
DB
  0
DICTIONARY
  5
C0
102
{ACAD_REACTORS
330
5
102
}
330
5
100
AcDbDictionary
281
     1
  3
CANNOSCALE
350
C1
  3
CMLEADERSTYLE
350
E0
  3
CTABLESTYLE
350
DF
  3
DIMASSOC
350
E1
  3
HIDETEXT
350
E2
  3
MSLTSCALE
350
E5
  0
XRECORD
  5
E4
102
{ACAD_REACTORS
330
E3
102
}
330
E3
100
AcDbXrecord
280
     1
102
VTR_0.000_0.000_1.000_1.000_VISUALSTYLE
340
26
102
VTR_0.000_0.000_1.000_1.000_GRIDDISPLAY
 70
     3
102
VTR_0.000_0.000_1.000_1.000_GRIDMAJOR
 70
     5
102
VTR_0.000_0.000_1.000_1.000_DEFAULTLIGHTING
280
     1
102
VTR_0.000_0.000_1.000_1.000_DEFAULTLIGHTINGTYPE
 70
     1
102
VTR_0.000_0.000_1.000_1.000_BRIGHTNESS
141
0.0
102
VTR_0.000_0.000_1.000_1.000_CONTRAST
142
0.0
  0
LAYOUT
  5
1C
102
{ACAD_REACTORS
330
18
102
}
330
18
100
AcDbPlotSettings
  1

  2
none_device
  4
Letter_(8.50_x_11.00_Inches)
  6

 40
6.35
 41
6.35
 42
6.35001
 43
6.35001
 44
215.9
 45
279.4
 46
0.0
 47
0.0
 48
0.0
 49
0.0
140
0.0
141
0.0
142
1.0
143
1.0
 70
   688
 72
     0
 73
     1
 74
     5
  7

 75
    16
147
1.0
148
0.0
149
0.0
100
AcDbLayout
  1
Layout1
 70
     1
 71
     1
 10
0.0
 20
0.0
 11
12.0
 21
9.0
 12
0.0
 22
0.0
 32
0.0
 14
1.000000000000000E+20
 24
1.000000000000000E+20
 34
1.000000000000000E+20
 15
-1.000000000000000E+20
 25
-1.000000000000000E+20
 35
-1.000000000000000E+20
146
0.0
 13
0.0
 23
0.0
 33
0.0
 16
1.0
 26
0.0
 36
0.0
 17
0.0
 27
1.0
 37
0.0
 76
     0
330
19
  0
LAYOUT
  5
17
102
{ACAD_REACTORS
330
18
102
}
330
18
100
AcDbPlotSettings
  1

  2
none_device
  4

  6

 40
0.0
 41
0.0
 42
0.0
 43
0.0
 44
0.0
 45
0.0
 46
0.0
 47
0.0
 48
0.0
 49
0.0
140
0.0
141
0.0
142
1.0
143
1.0
 70
  1712
 72
     0
 73
     0
 74
     0
  7

 75
     0
147
1.0
148
0.0
149
0.0
100
AcDbLayout
  1
Model
 70
     1
 71
     0
 10
0.0
 20
0.0
 11
12.0
 21
9.0
 12
0.0
 22
0.0
 32
0.0
 14
284.410192815194
 24
380.8926235972278
 34
0.0
 15
326.3208618899032
 25
401.978489845169
 35
0.0
146
0.0
 13
0.0
 23
0.0
 33
0.0
 16
1.0
 26
0.0
 36
0.0
 17
0.0
 27
1.0
 37
0.0
 76
     0
330
14
331
25
  0
MATERIAL
  5
4C
102
{ACAD_REACTORS
330
7
102
}
102
{ACAD_XDICTIONARY
360
EA
102
}
330
7
100
AcDbMaterial
  1
ByBlock
  0
MATERIAL
  5
E
102
{ACAD_REACTORS
330
7
102
}
102
{ACAD_XDICTIONARY
360
E6
102
}
330
7
100
AcDbMaterial
  1
ByLayer
  0
MATERIAL
  5
6
102
{ACAD_REACTORS
330
7
102
}
102
{ACAD_XDICTIONARY
360
E8
102
}
330
7
100
AcDbMaterial
  1
Global
  0
MLEADERSTYLE
  5
C6
102
{ACAD_REACTORS
330
C3
102
}
102
{ACAD_XDICTIONARY
360
11D
102
}
330
C3
100
AcDbMLeaderStyle
170
     2
171
     1
172
     0
 90
        2
 40
0.0
 41
0.0
173
     1
 91
-1056964608
340
A
 92
       -2
290
     1
 42
0.09
291
     1
 43
0.36
  3
Standard
341
0
 44
0.18
300

342
C
174
     1
178
     6
175
     1
176
     0
 93
-1056964608
 45
0.18
292
     0
297
     0
 46
0.18
343
0
 94
-1056964608
 47
1.0
 49
1.0
140
1.0
293
     1
141
0.0
294
     1
177
     0
142
1.0
295
     0
296
     0
143
0.125
1001
ACAD_MLEADERVER
1070
     2
  0
MLINESTYLE
  5
11
102
{ACAD_REACTORS
330
12
102
}
330
12
100
AcDbMlineStyle
  2
Standard
 70
     0
  3

 62
   256
 51
90.0
 52
90.0
 71
     2
 49
0.5
 62
   256
  6
BYLAYER
 49
-0.5
 62
   256
  6
BYLAYER
  0
ACDBPLACEHOLDER
  5
3
102
{ACAD_REACTORS
330
4
102
}
330
4
  0
SCALE
  5
4B
102
{ACAD_REACTORS
330
29
102
}
330
29
100
AcDbScale
 70
     0
300
1:1
140
1.0
141
1.0
290
     1
  0
TABLESTYLE
  5
DE
102
{ACAD_REACTORS
330
C2
102
}
330
C2
100
AcDbTableStyle
  3
Standard
 70
     0
 71
     0
 40
0.06
 41
0.06
280
     0
281
     0
  7
Standard
140
0.18
170
     2
 62
     0
 63
   257
283
     0
274
    -2
284
     1
 64
     0
275
    -2
285
     1
 65
     0
276
    -2
286
     1
 66
     0
277
    -2
287
     1
 67
     0
278
    -2
288
     1
 68
     0
279
    -2
289
     1
 69
     0
  7
Standard
140
0.25
170
     5
 62
     0
 63
   257
283
     0
274
    -2
284
     1
 64
     0
275
    -2
285
     1
 65
     0
276
    -2
286
     1
 66
     0
277
    -2
287
     1
 67
     0
278
    -2
288
     1
 68
     0
279
    -2
289
     1
 69
     0
  7
Standard
140
0.18
170
     5
 62
     0
 63
   257
283
     0
274
    -2
284
     1
 64
     0
275
    -2
285
     1
 65
     0
276
    -2
286
     1
 66
     0
277
    -2
287
     1
 67
     0
278
    -2
288
     1
 68
     0
279
    -2
289
     1
 69
     0
  0
VISUALSTYLE
  5
26
102
{ACAD_REACTORS
330
23
102
}
102
{ACAD_XDICTIONARY
360
EC
102
}
330
23
100
AcDbVisualStyle
  2
2dWireframe
 70
     4
 71
     0
 72
     2
 73
     0
 90
        0
 40
-0.6
 41
-30.0
 62
     5
 63
     7
 74
     1
 91
        4
 64
     7
 65
   257
 75
     1
175
     1
 42
1.0
 92
        0
 66
   257
 43
1.0
 76
     1
 77
     6
 78
     2
 67
     7
 79
     5
170
     0
171
     0
290
     0
174
     0
 93
        1
 44
0.0
173
     0
291
     0
 45
0.0
1001
ACAD
1000
AcDbSavedByObjectVersion
1070
     0
  0
VISUALSTYLE
  5
CD
102
{ACAD_REACTORS
330
23
102
}
102
{ACAD_XDICTIONARY
360
FA
102
}
330
23
100
AcDbVisualStyle
  2
Basic
 70
     7
 71
     1
 72
     0
 73
     1
 90
        0
 40
0.6
 41
30.0
 62
     5
 63
     7
 74
     0
 91
        4
 64
     7
 65
   257
 75
     1
175
     1
 42
1.0
 92
        8
 66
     7
 43
1.0
 76
     1
 77
     6
 78
     2
 67
     7
 79
     5
170
     0
171
     0
290
     0
174
     0
 93
        1
 44
0.0
173
     0
291
     1
 45
0.0
1001
ACAD
1000
AcDbSavedByObjectVersion
1070
     0
  0
VISUALSTYLE
  5
D1
102
{ACAD_REACTORS
330
23
102
}
102
{ACAD_XDICTIONARY
360
102
102
}
330
23
100
AcDbVisualStyle
  2
Brighten
 70
    12
 71
     2
 72
     2
 73
     0
 90
        0
 40
0.6
 41
30.0
 62
     5
 63
     7
 74
     1
 91
        4
 64
     7
 65
   257
 75
     1
175
     1
 42
1.0
 92
        8
 66
     7
 43
1.0
 76
     1
 77
     6
 78
     2
 67
     7
 79
     5
170
     0
171
     0
290
     0
174
     0
 93
        1
 44
50.0
173
     0
291
     1
 45
0.0
1001
ACAD
1000
AcDbSavedByObjectVersion
1070
     0
  0
VISUALSTYLE
  5
D5
102
{ACAD_REACTORS
330
23
102
}
102
{ACAD_XDICTIONARY
360
10A
102
}
330
23
100
AcDbVisualStyle
  2
ColorChange
 70
    16
 71
     2
 72
     2
 73
     3
 90
        0
 40
0.6
 41
30.0
 62
     5
 63
     8
 74
     1
 91
        4
 64
     7
 65
   257
 75
     1
175
     1
 42
1.0
 92
        8
 66
     8
 43
1.0
 76
     1
 77
     6
 78
     2
 67
     7
 79
     5
170
     0
171
     0
290
     0
174
     0
 93
        1
 44
0.0
173
     0
291
     1
 45
0.0
1001
ACAD
1000
AcDbSavedByObjectVersion
1070
     0
  0
VISUALSTYLE
  5
CF
102
{ACAD_REACTORS
330
23
102
}
102
{ACAD_XDICTIONARY
360
FE
102
}
330
23
100
AcDbVisualStyle
  2
Conceptual
 70
     9
 71
     3
 72
     2
 73
     0
 90
        0
 40
0.6
 41
30.0
 62
     5
 63
     7
 74
     2
 91
        2
 64
     7
 65
   257
 75
     1
175
     1
 42
179.0
 92
        8
 66
     7
 43
1.0
 76
     1
 77
     6
 78
     2
 67
     7
 79
     3
170
     0
171
     0
290
     0
174
     0
 93
        1
 44
0.0
173
     0
291
     0
 45
0.0
1001
ACAD
1000
AcDbSavedByObjectVersion
1070
     0
  0
VISUALSTYLE
  5
D0
102
{ACAD_REACTORS
330
23
102
}
102
{ACAD_XDICTIONARY
360
100
102
}
330
23
100
AcDbVisualStyle
  2
Dim
 70
    11
 71
     2
 72
     2
 73
     0
 90
        0
 40
0.6
 41
30.0
 62
     5
 63
     7
 74
     1
 91
        4
 64
     7
 65
   257
 75
     1
175
     1
 42
1.0
 92
        8
 66
     7
 43
1.0
 76
     1
 77
     6
 78
     2
 67
     7
 79
     5
170
     0
171
     0
290
     0
174
     0
 93
        1
 44
-50.0
173
     0
291
     1
 45
0.0
1001
ACAD
1000
AcDbSavedByObjectVersion
1070
     0
  0
VISUALSTYLE
  5
D8
102
{ACAD_REACTORS
330
23
102
}
102
{ACAD_XDICTIONARY
360
110
102
}
330
23
100
AcDbVisualStyle
  2
EdgeColorOff
 70
    22
 71
     2
 72
     2
 73
     0
 90
        0
 40
0.6
 41
30.0
 62
     5
 63
     7
 74
     1
 91
        4
 64
     7
 65
   257
 75
     1
175
     1
 42
1.0
 92
        8
 66
     7
 43
1.0
 76
     1
 77
     6
 78
     2
 67
     7
 79
     5
170
     0
171
     0
290
     0
174
     0
 93
        1
 44
0.0
173
     0
291
     1
 45
0.0
1001
ACAD
1000
AcDbSavedByObjectVersion
1070
     0
  0
VISUALSTYLE
  5
D4
102
{ACAD_REACTORS
330
23
102
}
102
{ACAD_XDICTIONARY
360
108
102
}
330
23
100
AcDbVisualStyle
  2
Facepattern
 70
    15
 71
     2
 72
     2
 73
     0
 90
        0
 40
0.6
 41
30.0
 62
     5
 63
     7
 74
     1
 91
        4
 64
     7
 65
   257
 75
     1
175
     1
 42
1.0
 92
        8
 66
     7
 43
1.0
 76
     1
 77
     6
 78
     2
 67
     7
 79
     5
170
     0
171
     0
290
     0
174
     0
 93
        1
 44
0.0
173
     0
291
     1
 45
0.0
1001
ACAD
1000
AcDbSavedByObjectVersion
1070
     0
  0
VISUALSTYLE
  5
C7
102
{ACAD_REACTORS
330
23
102
}
102
{ACAD_XDICTIONARY
360
EE
102
}
330
23
100
AcDbVisualStyle
  2
Flat
 70
     0
 71
     2
 72
     1
 73
     1
 90
        2
 40
0.6
 41
30.0
 62
     5
 63
     7
 74
     0
 91
        0
 64
     7
 65
   257
 75
     1
175
     1
 42
1.0
 92
        8
 66
     7
 43
1.0
 76
     1
 77
     6
 78
     2
 67
     7
 79
     5
170
     0
171
     0
290
     0
174
     0
 93
       13
 44
0.0
173
     0
291
     1
 45
0.0
1001
ACAD
1000
AcDbSavedByObjectVersion
1070
     0
  0
VISUALSTYLE
  5
C8
102
{ACAD_REACTORS
330
23
102
}
102
{ACAD_XDICTIONARY
360
F0
102
}
330
23
100
AcDbVisualStyle
  2
FlatWithEdges
 70
     1
 71
     2
 72
     1
 73
     1
 90
        2
 40
0.6
 41
30.0
 62
     5
 63
     7
 74
     1
 91
        0
 64
     7
 65
   257
 75
     1
175
     1
 42
1.0
 92
        0
 66
   257
 43
1.0
 76
     1
 77
     6
 78
     2
 67
     7
 79
     5
170
     0
171
     0
290
     0
174
     0
 93
       13
 44
0.0
173
     0
291
     1
 45
0.0
1001
ACAD
1000
AcDbSavedByObjectVersion
1070
     0
  0
VISUALSTYLE
  5
C9
102
{ACAD_REACTORS
330
23
102
}
102
{ACAD_XDICTIONARY
360
F2
102
}
330
23
100
AcDbVisualStyle
  2
Gouraud
 70
     2
 71
     2
 72
     2
 73
     1
 90
        2
 40
0.6
 41
30.0
 62
     5
 63
     7
 74
     0
 91
        0
 64
     7
 65
   257
 75
     1
175
     1
 42
1.0
 92
        0
 66
     7
 43
1.0
 76
     1
 77
     6
 78
     2
 67
     7
 79
     5
170
     0
171
     0
290
     0
174
     0
 93
       13
 44
0.0
173
     0
291
     1
 45
0.0
1001
ACAD
1000
AcDbSavedByObjectVersion
1070
     0
  0
VISUALSTYLE
  5
CA
102
{ACAD_REACTORS
330
23
102
}
102
{ACAD_XDICTIONARY
360
F4
102
}
330
23
100
AcDbVisualStyle
  2
GouraudWithEdges
 70
     3
 71
     2
 72
     2
 73
     1
 90
        2
 40
0.6
 41
30.0
 62
     5
 63
     7
 74
     1
 91
        0
 64
     7
 65
   257
 75
     1
175
     1
 42
1.0
 92
        0
 66
   257
 43
1.0
 76
     1
 77
     6
 78
     2
 67
     7
 79
     5
170
     0
171
     0
290
     0
174
     0
 93
       13
 44
0.0
173
     0
291
     1
 45
0.0
1001
ACAD
1000
AcDbSavedByObjectVersion
1070
     0
  0
VISUALSTYLE
  5
CC
102
{ACAD_REACTORS
330
23
102
}
102
{ACAD_XDICTIONARY
360
F8
102
}
330
23
100
AcDbVisualStyle
  2
Hidden
 70
     6
 71
     1
 72
     2
 73
     2
 90
        0
 40
0.6
 41
30.0
 62
     5
 63
     7
 74
     2
 91
        2
 64
     7
 65
   257
 75
     2
175
     1
 42
40.0
 92
        0
 66
   257
 43
1.0
 76
     1
 77
     6
 78
     2
 67
     7
 79
     3
170
     0
171
     0
290
     0
174
     0
 93
        1
 44
0.0
173
     0
291
     0
 45
0.0
1001
ACAD
1000
AcDbSavedByObjectVersion
1070
     0
  0
VISUALSTYLE
  5
D6
102
{ACAD_REACTORS
330
23
102
}
102
{ACAD_XDICTIONARY
360
10C
102
}
330
23
100
AcDbVisualStyle
  2
JitterOff
 70
    20
 71
     2
 72
     2
 73
     0
 90
        0
 40
0.6
 41
30.0
 62
     5
 63
     7
 74
     1
 91
        4
 64
     7
 65
   257
 75
     1
175
     1
 42
1.0
 92
       10
 66
     7
 43
1.0
 76
     1
 77
     6
 78
     2
 67
     7
 79
     5
170
     0
171
     0
290
     0
174
     0
 93
        1
 44
0.0
173
     0
291
     1
 45
0.0
1001
ACAD
1000
AcDbSavedByObjectVersion
1070
     0
  0
VISUALSTYLE
  5
D3
102
{ACAD_REACTORS
330
23
102
}
102
{ACAD_XDICTIONARY
360
106
102
}
330
23
100
AcDbVisualStyle
  2
Linepattern
 70
    14
 71
     2
 72
     2
 73
     0
 90
        0
 40
0.6
 41
30.0
 62
     5
 63
     7
 74
     1
 91
        4
 64
     7
 65
   257
 75
     7
175
     7
 42
1.0
 92
        8
 66
     7
 43
1.0
 76
     1
 77
     6
 78
     2
 67
     7
 79
     5
170
     0
171
     0
290
     0
174
     0
 93
        1
 44
0.0
173
     0
291
     1
 45
0.0
1001
ACAD
1000
AcDbSavedByObjectVersion
1070
     0
  0
VISUALSTYLE
  5
D7
102
{ACAD_REACTORS
330
23
102
}
102
{ACAD_XDICTIONARY
360
10E
102
}
330
23
100
AcDbVisualStyle
  2
OverhangOff
 70
    21
 71
     2
 72
     2
 73
     0
 90
        0
 40
0.6
 41
30.0
 62
     5
 63
     7
 74
     1
 91
        4
 64
     7
 65
   257
 75
     1
175
     1
 42
1.0
 92
        9
 66
     7
 43
1.0
 76
     1
 77
     6
 78
     2
 67
     7
 79
     5
170
     0
171
     0
290
     0
174
     0
 93
        1
 44
0.0
173
     0
291
     1
 45
0.0
1001
ACAD
1000
AcDbSavedByObjectVersion
1070
     0
  0
VISUALSTYLE
  5
CE
102
{ACAD_REACTORS
330
23
102
}
102
{ACAD_XDICTIONARY
360
FC
102
}
330
23
100
AcDbVisualStyle
  2
Realistic
 70
     8
 71
     2
 72
     3
 73
     0
 90
        2
 40
0.6
 41
30.0
 62
     5
 63
     7
 74
     0
 91
        0
 64
     7
 65
   257
 75
     1
175
     1
 42
1.0
 92
        8
 66
   257
 43
1.0
 76
     1
 77
     6
 78
     2
 67
     7
 79
     3
170
     0
171
     0
290
     0
174
     0
 93
       13
 44
0.0
173
     0
291
     0
 45
0.0
1001
ACAD
1000
AcDbSavedByObjectVersion
1070
     0
  0
VISUALSTYLE
  5
DD
102
{ACAD_REACTORS
330
23
102
}
102
{ACAD_XDICTIONARY
360
11A
102
}
330
23
100
AcDbVisualStyle
  2
Shaded
 70
    27
 71
     2
 72
     2
 73
     1
 90
        2
 40
0.6
 41
30.0
 62
     5
 63
     7
 74
     0
 91
        4
 64
     7
 65
   257
 75
     1
175
     1
 42
1.0
 92
        8
 66
   257
 43
1.0
 76
     1
 77
     6
 78
     2
 67
     8
 79
     3
170
     0
171
     0
290
     0
174
     0
 93
        5
 44
0.0
173
     0
291
     0
 45
0.0
1001
ACAD
1000
AcDbSavedByObjectVersion
1070
     0
  0
VISUALSTYLE
  5
DC
102
{ACAD_REACTORS
330
23
102
}
102
{ACAD_XDICTIONARY
360
118
102
}
330
23
100
AcDbVisualStyle
  2
Shaded with edges
 70
    26
 71
     2
 72
     2
 73
     1
 90
        2
 40
0.6
 41
30.0
 62
     5
 63
     7
 74
     1
 91
       10
 64
     7
 65
   257
 75
     2
175
     1
 42
1.0
 92
        8
 66
   257
 43
1.0
 76
     1
 77
     6
 78
     2
 67
     7
 79
     3
170
     0
171
     0
290
     0
174
     0
 93
        5
 44
0.0
173
     0
291
     0
 45
0.0
1001
ACAD
1000
AcDbSavedByObjectVersion
1070
     0
  0
VISUALSTYLE
  5
D9
102
{ACAD_REACTORS
330
23
102
}
102
{ACAD_XDICTIONARY
360
112
102
}
330
23
100
AcDbVisualStyle
  2
Shades of Gray
 70
    23
 71
     2
 72
     2
 73
     3
 90
        0
 40
0.6
 41
30.0
 62
     5
 63
     7
 74
     2
 91
        2
 64
     7
 65
     7
 75
     1
175
     1
 42
40.0
 92
        8
 66
     7
 43
1.0
 76
     1
 77
     6
 78
     2
 67
     7
 79
     3
170
     0
171
     0
290
     0
174
     0
 93
        1
 44
0.0
173
     0
291
     0
 45
0.0
1001
ACAD
1000
AcDbSavedByObjectVersion
1070
     0
  0
VISUALSTYLE
  5
DA
102
{ACAD_REACTORS
330
23
102
}
102
{ACAD_XDICTIONARY
360
114
102
}
330
23
100
AcDbVisualStyle
  2
Sketchy
 70
    24
 71
     1
 72
     2
 73
     2
 90
        0
 40
0.6
 41
30.0
 62
     5
 63
     7
 74
     2
 91
        2
 64
     7
 65
     7
 75
     1
175
     1
 42
40.0
 92
       11
 66
     7
 43
1.0
 76
     1
 77
     6
 78
     2
 67
     7
 79
     6
170
     0
171
     0
290
     0
174
     0
 93
        1
 44
0.0
173
     0
291
     0
 45
0.0
1001
ACAD
1000
AcDbSavedByObjectVersion
1070
     0
  0
VISUALSTYLE
  5
D2
102
{ACAD_REACTORS
330
23
102
}
102
{ACAD_XDICTIONARY
360
104
102
}
330
23
100
AcDbVisualStyle
  2
Thicken
 70
    13
 71
     2
 72
     2
 73
     0
 90
        0
 40
0.6
 41
30.0
 62
     5
 63
     7
 74
     1
 91
        4
 64
     7
 65
   257
 75
     1
175
     1
 42
1.0
 92
       12
 66
     7
 43
1.0
 76
     1
 77
     6
 78
     2
 67
     7
 79
     5
170
     0
171
     0
290
     0
174
     0
 93
        1
 44
0.0
173
     0
291
     1
 45
0.0
1001
ACAD
1000
AcDbSavedByObjectVersion
1070
     0
  0
VISUALSTYLE
  5
CB
102
{ACAD_REACTORS
330
23
102
}
102
{ACAD_XDICTIONARY
360
F6
102
}
330
23
100
AcDbVisualStyle
  2
Wireframe
 70
     5
 71
     0
 72
     2
 73
     0
 90
        0
 40
0.6
 41
30.0
 62
     5
 63
     7
 74
     1
 91
        4
 64
     7
 65
   257
 75
     1
175
     1
 42
1.0
 92
        0
 66
   257
 43
1.0
 76
     1
 77
     6
 78
     2
 67
     7
 79
     3
170
     0
171
     0
290
     0
174
     0
 93
        1
 44
0.0
173
     0
291
     0
 45
0.0
1001
ACAD
1000
AcDbSavedByObjectVersion
1070
     0
  0
VISUALSTYLE
  5
DB
102
{ACAD_REACTORS
330
23
102
}
102
{ACAD_XDICTIONARY
360
116
102
}
330
23
100
AcDbVisualStyle
  2
X-Ray
 70
    25
 71
     2
 72
     2
 73
     1
 90
        1
 40
0.5
 41
30.0
 62
     5
 63
     7
 74
     1
 91
        0
 64
     7
 65
   257
 75
     1
175
     1
 42
1.0
 92
        8
 66
     7
 43
1.0
 76
     1
 77
     6
 78
     2
 67
     7
 79
     3
170
     0
171
     0
290
     0
174
     0
 93
       13
 44
0.0
173
     0
291
     0
 45
0.0
1001
ACAD
1000
AcDbSavedByObjectVersion
1070
     0
  0
DICTIONARYVAR
  5
C1
102
{ACAD_REACTORS
330
C0
102
}
330
C0
100
DictionaryVariables
280
     0
  1
1:1
  0
DICTIONARYVAR
  5
E0
102
{ACAD_REACTORS
330
C0
102
}
330
C0
100
DictionaryVariables
280
     0
  1
Standard
  0
DICTIONARYVAR
  5
DF
102
{ACAD_REACTORS
330
C0
102
}
330
C0
100
DictionaryVariables
280
     0
  1
Standard
  0
DICTIONARYVAR
  5
E1
102
{ACAD_REACTORS
330
C0
102
}
330
C0
100
DictionaryVariables
280
     0
  1
2
  0
DICTIONARYVAR
  5
E2
102
{ACAD_REACTORS
330
C0
102
}
330
C0
100
DictionaryVariables
280
     0
  1
1
  0
DICTIONARYVAR
  5
E5
102
{ACAD_REACTORS
330
C0
102
}
330
C0
100
DictionaryVariables
280
     0
  1
1
  0
DICTIONARY
  5
EA
330
4C
100
AcDbDictionary
280
     1
281
     1
  3
ACAD_XREC_ROUNDTRIP
360
EB
  0
DICTIONARY
  5
E6
330
E
100
AcDbDictionary
280
     1
281
     1
  3
ACAD_XREC_ROUNDTRIP
360
E7
  0
DICTIONARY
  5
E8
330
6
100
AcDbDictionary
280
     1
281
     1
  3
ACAD_XREC_ROUNDTRIP
360
E9
  0
DICTIONARY
  5
11D
330
C6
100
AcDbDictionary
280
     1
281
     1
  3
ACAD_XREC_ROUNDTRIP
360
11E
  0
DICTIONARY
  5
EC
330
26
100
AcDbDictionary
280
     1
281
     1
  3
ACAD_XREC_ROUNDTRIP
360
ED
  0
DICTIONARY
  5
FA
330
CD
100
AcDbDictionary
280
     1
281
     1
  3
ACAD_XREC_ROUNDTRIP
360
FB
  0
DICTIONARY
  5
102
330
D1
100
AcDbDictionary
280
     1
281
     1
  3
ACAD_XREC_ROUNDTRIP
360
103
  0
DICTIONARY
  5
10A
330
D5
100
AcDbDictionary
280
     1
281
     1
  3
ACAD_XREC_ROUNDTRIP
360
10B
  0
DICTIONARY
  5
FE
330
CF
100
AcDbDictionary
280
     1
281
     1
  3
ACAD_XREC_ROUNDTRIP
360
FF
  0
DICTIONARY
  5
100
330
D0
100
AcDbDictionary
280
     1
281
     1
  3
ACAD_XREC_ROUNDTRIP
360
101
  0
DICTIONARY
  5
110
330
D8
100
AcDbDictionary
280
     1
281
     1
  3
ACAD_XREC_ROUNDTRIP
360
111
  0
DICTIONARY
  5
108
330
D4
100
AcDbDictionary
280
     1
281
     1
  3
ACAD_XREC_ROUNDTRIP
360
109
  0
DICTIONARY
  5
EE
330
C7
100
AcDbDictionary
280
     1
281
     1
  3
ACAD_XREC_ROUNDTRIP
360
EF
  0
DICTIONARY
  5
F0
330
C8
100
AcDbDictionary
280
     1
281
     1
  3
ACAD_XREC_ROUNDTRIP
360
F1
  0
DICTIONARY
  5
F2
330
C9
100
AcDbDictionary
280
     1
281
     1
  3
ACAD_XREC_ROUNDTRIP
360
F3
  0
DICTIONARY
  5
F4
330
CA
100
AcDbDictionary
280
     1
281
     1
  3
ACAD_XREC_ROUNDTRIP
360
F5
  0
DICTIONARY
  5
F8
330
CC
100
AcDbDictionary
280
     1
281
     1
  3
ACAD_XREC_ROUNDTRIP
360
F9
  0
DICTIONARY
  5
10C
330
D6
100
AcDbDictionary
280
     1
281
     1
  3
ACAD_XREC_ROUNDTRIP
360
10D
  0
DICTIONARY
  5
106
330
D3
100
AcDbDictionary
280
     1
281
     1
  3
ACAD_XREC_ROUNDTRIP
360
107
  0
DICTIONARY
  5
10E
330
D7
100
AcDbDictionary
280
     1
281
     1
  3
ACAD_XREC_ROUNDTRIP
360
10F
  0
DICTIONARY
  5
FC
330
CE
100
AcDbDictionary
280
     1
281
     1
  3
ACAD_XREC_ROUNDTRIP
360
FD
  0
DICTIONARY
  5
11A
330
DD
100
AcDbDictionary
280
     1
281
     1
  3
ACAD_XREC_ROUNDTRIP
360
11B
  0
DICTIONARY
  5
118
330
DC
100
AcDbDictionary
280
     1
281
     1
  3
ACAD_XREC_ROUNDTRIP
360
119
  0
DICTIONARY
  5
112
330
D9
100
AcDbDictionary
280
     1
281
     1
  3
ACAD_XREC_ROUNDTRIP
360
113
  0
DICTIONARY
  5
114
330
DA
100
AcDbDictionary
280
     1
281
     1
  3
ACAD_XREC_ROUNDTRIP
360
115
  0
DICTIONARY
  5
104
330
D2
100
AcDbDictionary
280
     1
281
     1
  3
ACAD_XREC_ROUNDTRIP
360
105
  0
DICTIONARY
  5
F6
330
CB
100
AcDbDictionary
280
     1
281
     1
  3
ACAD_XREC_ROUNDTRIP
360
F7
  0
DICTIONARY
  5
116
330
DB
100
AcDbDictionary
280
     1
281
     1
  3
ACAD_XREC_ROUNDTRIP
360
117
  0
XRECORD
  5
EB
102
{ACAD_REACTORS
330
EA
102
}
330
EA
100
AcDbXrecord
280
     1
102
MATERIAL
148
0.0
149
0.0
149
0.0
 93
        0
 94
      127
282
     0
 72
     1
 77
     1
171
     1
175
     1
179
     1
273
     0
  0
XRECORD
  5
E7
102
{ACAD_REACTORS
330
E6
102
}
330
E6
100
AcDbXrecord
280
     1
102
MATERIAL
148
0.0
149
0.0
149
0.0
 93
        0
 94
      127
282
     0
 72
     1
 77
     1
171
     1
175
     1
179
     1
273
     0
  0
XRECORD
  5
E9
102
{ACAD_REACTORS
330
E8
102
}
330
E8
100
AcDbXrecord
280
     1
102
MATERIAL
148
0.0
149
0.0
149
0.0
 93
        0
 94
      127
282
     0
 72
     1
 77
     1
171
     1
175
     1
179
     1
273
     0
  0
XRECORD
  5
11E
102
{ACAD_REACTORS
330
11D
102
}
330
11D
100
AcDbXrecord
280
     1
102
ACAD_ROUNDTRIP_2010_MLEADER_STYLE
  0
XRECORD
  5
ED
102
{ACAD_REACTORS
330
EC
102
}
330
EC
100
AcDbXrecord
280
     1
102
RTVSPropertyOp0
 70
     1
102
RTVSPropertyOp1
 70
     1
102
RTVSPropertyOp2
 70
     1
102
RTVSPropertyOp3
 70
     1
102
RTVSPropertyOp4
 70
     1
102
RTVSPropertyOp5
 70
     1
102
RTVSPropertyOp6
 70
     1
102
RTVSPropertyOp7
 70
     1
102
RTVSPropertyOp8
 70
     1
102
RTVSPropertyOp9
 70
     1
102
RTVSPropertyOp10
 70
     1
102
RTVSPropertyOp11
 70
     1
102
RTVSPropertyOp12
 70
     1
102
RTVSPropertyOp13
 70
     1
102
RTVSPropertyOp14
 70
     1
102
RTVSPropertyOp15
 70
     1
102
RTVSPropertyOp16
 70
     1
102
RTVSPropertyOp17
 70
     1
102
RTVSPropertyOp18
 70
     1
102
RTVSPropertyOp19
 70
     1
102
RTVSPropertyOp20
 70
     1
102
RTVSPropertyOp21
 70
     1
102
RTVSPropertyOp22
 70
     1
102
RTVSPropertyOp23
 70
     1
102
RTVSPropertyOp24
 70
     1
102
RTVSPropertyOp25
 70
     1
102
RTVSPropertyOp26
 70
     1
102
RTVSPropertyOp27
 70
     1
102
RTVSPropertyOp28
 70
     1
102
RTVSPropertyOp29
 70
     1
102
RTVSPropertyOp30
 70
     1
102
RTVSPropertyOp31
 70
     1
102
RTVSPropertyOp32
 70
     1
102
RTVSPropertyOp33
 70
     1
102
RTVSPropertyOp34
 70
     1
102
RTVSPropertyOp35
 70
     1
102
RTVSPropertyOp36
 70
     1
102
RTVSPropertyOp37
 70
     1
102
RTVSPropertyOp38
 70
     1
102
RTVSPropertyOp39
 70
     1
102
RTVSPropertyOp40
 70
     1
102
RTVSPropertyOp41
 70
     1
102
RTVSPropertyOp42
 70
     1
102
RTVSPropertyOp43
 70
     1
102
RTVSPropertyOp44
 70
     1
102
RTVSPropertyOp45
 70
     1
102
RTVSPropertyOp46
 70
     1
102
RTVSPropertyOp47
 70
     1
102
RTVSPropertyOp48
 70
     1
102
RTVSPropertyOp49
 70
     1
102
RTVSPropertyOp50
 70
     1
102
RTVSPropertyOp51
 70
     0
102
RTVSPropertyOp52
 70
     0
102
RTVSPropertyOp53
 70
     1
102
RTVSPropertyOp54
 70
     1
102
RTVSPropertyOp55
 70
     1
102
RTVSPropertyOp56
 70
     1
102
RTVSPropertyOp57
 70
     1
102
RTVSPost2010Prop28
280
     1
102
RTVSPost2010PropOp28
 70
     1
102
RTVSPost2010Prop29
280
     1
102
RTVSPost2010PropOp29
 70
     1
102
RTVSPost2010Prop30
280
     0
102
RTVSPost2010PropOp30
 70
     1
102
RTVSPost2010Prop31
280
     0
102
RTVSPost2010PropOp31
 70
     1
102
RTVSPost2010Prop32
280
     0
102
RTVSPost2010PropOp32
 70
     1
102
RTVSPost2010Prop33
280
     0
102
RTVSPost2010PropOp33
 70
     1
102
RTVSPost2010Prop34
280
     0
102
RTVSPost2010PropOp34
 70
     1
102
RTVSPost2010Prop35
280
     0
102
RTVSPost2010PropOp35
 70
     1
102
RTVSPost2010Prop36
280
     0
102
RTVSPost2010PropOp36
 70
     1
102
RTVSPost2010Prop37
 90
       50
102
RTVSPost2010PropOp37
 70
     1
102
RTVSPost2010Prop38
140
0.0
102
RTVSPost2010PropOp38
 70
     1
102
RTVSPost2010Prop39
140
1.0
102
RTVSPost2010PropOp39
 70
     1
102
RTVSPost2010Prop40
 90
        0
102
RTVSPost2010PropOp40
 70
     1
102
RTVSPost2010Prop41ColorIndex
 90
       18
102
RTVSPost2010Prop41ColorRGB
 90
        0
102
RTVSPost2010PropOp41
 70
     1
102
RTVSPost2010Prop42
 90
       50
102
RTVSPost2010PropOp42
 70
     1
102
RTVSPost2010Prop43
 90
        3
102
RTVSPost2010PropOp43
 70
     1
102
RTVSPost2010Prop44ColorIndex
 90
        5
102
RTVSPost2010Prop44ColorRGB
 90
      255
102
RTVSPost2010PropOp44
 70
     1
102
RTVSPost2010Prop45
280
     0
102
RTVSPost2010PropOp45
 70
     1
102
RTVSPost2010Prop46
 90
       50
102
RTVSPost2010PropOp46
 70
     1
102
RTVSPost2010Prop47
 90
       50
102
RTVSPost2010PropOp47
 70
     1
102
RTVSPost2010Prop48
 90
       50
102
RTVSPost2010PropOp48
 70
     1
102
RTVSPost2010Prop49
280
     0
102
RTVSPost2010PropOp49
 70
     1
102
RTVSPost2010Prop50
 90
       50
102
RTVSPost2010PropOp50
 70
     1
102
RTVSPost2010Prop51ColorIndex
 90
      256
102
RTVSPost2010Prop51ColorRGB
 90
-16777216
102
RTVSPost2010PropOp51
 70
     0
102
RTVSPost2010Prop52
140
1.0
102
RTVSPost2010PropOp52
 70
     0
102
RTVSPost2010Prop53
 90
        2
102
RTVSPost2010PropOp53
 70
     1
102
RTVSPost2010Prop54
  1
strokes_ogs.tif
102
RTVSPost2010PropOp54
 70
     1
102
RTVSPost2010Prop55
280
     0
102
RTVSPost2010PropOp55
 70
     1
102
RTVSPost2010Prop56
140
1.0
102
RTVSPost2010PropOp56
 70
     1
102
RTVSPost2010Prop57
140
1.0
102
RTVSPost2010PropOp57
 70
     1
  0
XRECORD
  5
FB
102
{ACAD_REACTORS
330
FA
102
}
330
FA
100
AcDbXrecord
280
     1
102
RTVSPropertyOp0
 70
     1
102
RTVSPropertyOp1
 70
     1
102
RTVSPropertyOp2
 70
     1
102
RTVSPropertyOp3
 70
     1
102
RTVSPropertyOp4
 70
     1
102
RTVSPropertyOp5
 70
     1
102
RTVSPropertyOp6
 70
     1
102
RTVSPropertyOp7
 70
     1
102
RTVSPropertyOp8
 70
     1
102
RTVSPropertyOp9
 70
     1
102
RTVSPropertyOp10
 70
     1
102
RTVSPropertyOp11
 70
     1
102
RTVSPropertyOp12
 70
     1
102
RTVSPropertyOp13
 70
     1
102
RTVSPropertyOp14
 70
     1
102
RTVSPropertyOp15
 70
     1
102
RTVSPropertyOp16
 70
     1
102
RTVSPropertyOp17
 70
     1
102
RTVSPropertyOp18
 70
     1
102
RTVSPropertyOp19
 70
     1
102
RTVSPropertyOp20
 70
     1
102
RTVSPropertyOp21
 70
     1
102
RTVSPropertyOp22
 70
     1
102
RTVSPropertyOp23
 70
     1
102
RTVSPropertyOp24
 70
     1
102
RTVSPropertyOp25
 70
     1
102
RTVSPropertyOp26
 70
     1
102
RTVSPropertyOp27
 70
     1
102
RTVSPropertyOp28
 70
     1
102
RTVSPropertyOp29
 70
     1
102
RTVSPropertyOp30
 70
     1
102
RTVSPropertyOp31
 70
     1
102
RTVSPropertyOp32
 70
     1
102
RTVSPropertyOp33
 70
     1
102
RTVSPropertyOp34
 70
     1
102
RTVSPropertyOp35
 70
     1
102
RTVSPropertyOp36
 70
     1
102
RTVSPropertyOp37
 70
     1
102
RTVSPropertyOp38
 70
     1
102
RTVSPropertyOp39
 70
     1
102
RTVSPropertyOp40
 70
     1
102
RTVSPropertyOp41
 70
     1
102
RTVSPropertyOp42
 70
     1
102
RTVSPropertyOp43
 70
     1
102
RTVSPropertyOp44
 70
     1
102
RTVSPropertyOp45
 70
     1
102
RTVSPropertyOp46
 70
     1
102
RTVSPropertyOp47
 70
     1
102
RTVSPropertyOp48
 70
     1
102
RTVSPropertyOp49
 70
     1
102
RTVSPropertyOp50
 70
     1
102
RTVSPropertyOp51
 70
     0
102
RTVSPropertyOp52
 70
     0
102
RTVSPropertyOp53
 70
     1
102
RTVSPropertyOp54
 70
     1
102
RTVSPropertyOp55
 70
     1
102
RTVSPropertyOp56
 70
     1
102
RTVSPropertyOp57
 70
     1
102
RTVSPost2010Prop28
280
     0
102
RTVSPost2010PropOp28
 70
     1
102
RTVSPost2010Prop29
280
     1
102
RTVSPost2010PropOp29
 70
     1
102
RTVSPost2010Prop30
280
     1
102
RTVSPost2010PropOp30
 70
     1
102
RTVSPost2010Prop31
280
     0
102
RTVSPost2010PropOp31
 70
     1
102
RTVSPost2010Prop32
280
     0
102
RTVSPost2010PropOp32
 70
     1
102
RTVSPost2010Prop33
280
     0
102
RTVSPost2010PropOp33
 70
     1
102
RTVSPost2010Prop34
280
     0
102
RTVSPost2010PropOp34
 70
     1
102
RTVSPost2010Prop35
280
     0
102
RTVSPost2010PropOp35
 70
     1
102
RTVSPost2010Prop36
280
     0
102
RTVSPost2010PropOp36
 70
     1
102
RTVSPost2010Prop37
 90
       50
102
RTVSPost2010PropOp37
 70
     1
102
RTVSPost2010Prop38
140
0.0
102
RTVSPost2010PropOp38
 70
     1
102
RTVSPost2010Prop39
140
1.0
102
RTVSPost2010PropOp39
 70
     1
102
RTVSPost2010Prop40
 90
        0
102
RTVSPost2010PropOp40
 70
     1
102
RTVSPost2010Prop41ColorIndex
 90
       18
102
RTVSPost2010Prop41ColorRGB
 90
        0
102
RTVSPost2010PropOp41
 70
     1
102
RTVSPost2010Prop42
 90
       50
102
RTVSPost2010PropOp42
 70
     1
102
RTVSPost2010Prop43
 90
        3
102
RTVSPost2010PropOp43
 70
     1
102
RTVSPost2010Prop44ColorIndex
 90
        5
102
RTVSPost2010Prop44ColorRGB
 90
      255
102
RTVSPost2010PropOp44
 70
     1
102
RTVSPost2010Prop45
280
     0
102
RTVSPost2010PropOp45
 70
     1
102
RTVSPost2010Prop46
 90
       50
102
RTVSPost2010PropOp46
 70
     1
102
RTVSPost2010Prop47
 90
       50
102
RTVSPost2010PropOp47
 70
     1
102
RTVSPost2010Prop48
 90
       50
102
RTVSPost2010PropOp48
 70
     1
102
RTVSPost2010Prop49
280
     0
102
RTVSPost2010PropOp49
 70
     1
102
RTVSPost2010Prop50
 90
       50
102
RTVSPost2010PropOp50
 70
     1
102
RTVSPost2010Prop51ColorIndex
 90
      256
102
RTVSPost2010Prop51ColorRGB
 90
-16777216
102
RTVSPost2010PropOp51
 70
     0
102
RTVSPost2010Prop52
140
1.0
102
RTVSPost2010PropOp52
 70
     0
102
RTVSPost2010Prop53
 90
        2
102
RTVSPost2010PropOp53
 70
     1
102
RTVSPost2010Prop54
  1
strokes_ogs.tif
102
RTVSPost2010PropOp54
 70
     1
102
RTVSPost2010Prop55
280
     0
102
RTVSPost2010PropOp55
 70
     1
102
RTVSPost2010Prop56
140
1.0
102
RTVSPost2010PropOp56
 70
     1
102
RTVSPost2010Prop57
140
1.0
102
RTVSPost2010PropOp57
 70
     1
  0
XRECORD
  5
103
102
{ACAD_REACTORS
330
102
102
}
330
102
100
AcDbXrecord
280
     1
102
RTVSPropertyOp0
 70
     1
102
RTVSPropertyOp1
 70
     1
102
RTVSPropertyOp2
 70
     1
102
RTVSPropertyOp3
 70
     1
102
RTVSPropertyOp4
 70
     1
102
RTVSPropertyOp5
 70
     1
102
RTVSPropertyOp6
 70
     1
102
RTVSPropertyOp7
 70
     1
102
RTVSPropertyOp8
 70
     1
102
RTVSPropertyOp9
 70
     1
102
RTVSPropertyOp10
 70
     1
102
RTVSPropertyOp11
 70
     1
102
RTVSPropertyOp12
 70
     1
102
RTVSPropertyOp13
 70
     1
102
RTVSPropertyOp14
 70
     1
102
RTVSPropertyOp15
 70
     1
102
RTVSPropertyOp16
 70
     1
102
RTVSPropertyOp17
 70
     1
102
RTVSPropertyOp18
 70
     1
102
RTVSPropertyOp19
 70
     1
102
RTVSPropertyOp20
 70
     1
102
RTVSPropertyOp21
 70
     1
102
RTVSPropertyOp22
 70
     1
102
RTVSPropertyOp23
 70
     1
102
RTVSPropertyOp24
 70
     1
102
RTVSPropertyOp25
 70
     1
102
RTVSPropertyOp26
 70
     1
102
RTVSPropertyOp27
 70
     1
102
RTVSPropertyOp28
 70
     1
102
RTVSPropertyOp29
 70
     1
102
RTVSPropertyOp30
 70
     1
102
RTVSPropertyOp31
 70
     1
102
RTVSPropertyOp32
 70
     1
102
RTVSPropertyOp33
 70
     1
102
RTVSPropertyOp34
 70
     1
102
RTVSPropertyOp35
 70
     1
102
RTVSPropertyOp36
 70
     1
102
RTVSPropertyOp37
 70
     1
102
RTVSPropertyOp38
 70
     1
102
RTVSPropertyOp39
 70
     1
102
RTVSPropertyOp40
 70
     1
102
RTVSPropertyOp41
 70
     1
102
RTVSPropertyOp42
 70
     1
102
RTVSPropertyOp43
 70
     1
102
RTVSPropertyOp44
 70
     1
102
RTVSPropertyOp45
 70
     1
102
RTVSPropertyOp46
 70
     1
102
RTVSPropertyOp47
 70
     1
102
RTVSPropertyOp48
 70
     1
102
RTVSPropertyOp49
 70
     1
102
RTVSPropertyOp50
 70
     1
102
RTVSPropertyOp51
 70
     0
102
RTVSPropertyOp52
 70
     0
102
RTVSPropertyOp53
 70
     1
102
RTVSPropertyOp54
 70
     1
102
RTVSPropertyOp55
 70
     1
102
RTVSPropertyOp56
 70
     1
102
RTVSPropertyOp57
 70
     1
102
RTVSPost2010Prop28
280
     0
102
RTVSPost2010PropOp28
 70
     1
102
RTVSPost2010Prop29
280
     1
102
RTVSPost2010PropOp29
 70
     1
102
RTVSPost2010Prop30
280
     1
102
RTVSPost2010PropOp30
 70
     1
102
RTVSPost2010Prop31
280
     0
102
RTVSPost2010PropOp31
 70
     1
102
RTVSPost2010Prop32
280
     0
102
RTVSPost2010PropOp32
 70
     1
102
RTVSPost2010Prop33
280
     0
102
RTVSPost2010PropOp33
 70
     1
102
RTVSPost2010Prop34
280
     0
102
RTVSPost2010PropOp34
 70
     1
102
RTVSPost2010Prop35
280
     0
102
RTVSPost2010PropOp35
 70
     1
102
RTVSPost2010Prop36
280
     0
102
RTVSPost2010PropOp36
 70
     1
102
RTVSPost2010Prop37
 90
       50
102
RTVSPost2010PropOp37
 70
     1
102
RTVSPost2010Prop38
140
0.0
102
RTVSPost2010PropOp38
 70
     1
102
RTVSPost2010Prop39
140
1.0
102
RTVSPost2010PropOp39
 70
     1
102
RTVSPost2010Prop40
 90
        0
102
RTVSPost2010PropOp40
 70
     1
102
RTVSPost2010Prop41ColorIndex
 90
       18
102
RTVSPost2010Prop41ColorRGB
 90
        0
102
RTVSPost2010PropOp41
 70
     1
102
RTVSPost2010Prop42
 90
       50
102
RTVSPost2010PropOp42
 70
     1
102
RTVSPost2010Prop43
 90
        3
102
RTVSPost2010PropOp43
 70
     1
102
RTVSPost2010Prop44ColorIndex
 90
        5
102
RTVSPost2010Prop44ColorRGB
 90
      255
102
RTVSPost2010PropOp44
 70
     1
102
RTVSPost2010Prop45
280
     0
102
RTVSPost2010PropOp45
 70
     1
102
RTVSPost2010Prop46
 90
       50
102
RTVSPost2010PropOp46
 70
     1
102
RTVSPost2010Prop47
 90
       50
102
RTVSPost2010PropOp47
 70
     1
102
RTVSPost2010Prop48
 90
       50
102
RTVSPost2010PropOp48
 70
     1
102
RTVSPost2010Prop49
280
     0
102
RTVSPost2010PropOp49
 70
     1
102
RTVSPost2010Prop50
 90
       50
102
RTVSPost2010PropOp50
 70
     1
102
RTVSPost2010Prop51ColorIndex
 90
      256
102
RTVSPost2010Prop51ColorRGB
 90
-16777216
102
RTVSPost2010PropOp51
 70
     0
102
RTVSPost2010Prop52
140
1.0
102
RTVSPost2010PropOp52
 70
     0
102
RTVSPost2010Prop53
 90
        2
102
RTVSPost2010PropOp53
 70
     1
102
RTVSPost2010Prop54
  1
strokes_ogs.tif
102
RTVSPost2010PropOp54
 70
     1
102
RTVSPost2010Prop55
280
     0
102
RTVSPost2010PropOp55
 70
     1
102
RTVSPost2010Prop56
140
1.0
102
RTVSPost2010PropOp56
 70
     1
102
RTVSPost2010Prop57
140
1.0
102
RTVSPost2010PropOp57
 70
     1
  0
XRECORD
  5
10B
102
{ACAD_REACTORS
330
10A
102
}
330
10A
100
AcDbXrecord
280
     1
102
RTVSPropertyOp0
 70
     1
102
RTVSPropertyOp1
 70
     1
102
RTVSPropertyOp2
 70
     1
102
RTVSPropertyOp3
 70
     1
102
RTVSPropertyOp4
 70
     1
102
RTVSPropertyOp5
 70
     1
102
RTVSPropertyOp6
 70
     1
102
RTVSPropertyOp7
 70
     1
102
RTVSPropertyOp8
 70
     1
102
RTVSPropertyOp9
 70
     1
102
RTVSPropertyOp10
 70
     1
102
RTVSPropertyOp11
 70
     1
102
RTVSPropertyOp12
 70
     1
102
RTVSPropertyOp13
 70
     1
102
RTVSPropertyOp14
 70
     1
102
RTVSPropertyOp15
 70
     1
102
RTVSPropertyOp16
 70
     1
102
RTVSPropertyOp17
 70
     1
102
RTVSPropertyOp18
 70
     1
102
RTVSPropertyOp19
 70
     1
102
RTVSPropertyOp20
 70
     1
102
RTVSPropertyOp21
 70
     1
102
RTVSPropertyOp22
 70
     1
102
RTVSPropertyOp23
 70
     1
102
RTVSPropertyOp24
 70
     1
102
RTVSPropertyOp25
 70
     1
102
RTVSPropertyOp26
 70
     1
102
RTVSPropertyOp27
 70
     1
102
RTVSPropertyOp28
 70
     1
102
RTVSPropertyOp29
 70
     1
102
RTVSPropertyOp30
 70
     1
102
RTVSPropertyOp31
 70
     1
102
RTVSPropertyOp32
 70
     1
102
RTVSPropertyOp33
 70
     1
102
RTVSPropertyOp34
 70
     1
102
RTVSPropertyOp35
 70
     1
102
RTVSPropertyOp36
 70
     1
102
RTVSPropertyOp37
 70
     1
102
RTVSPropertyOp38
 70
     1
102
RTVSPropertyOp39
 70
     1
102
RTVSPropertyOp40
 70
     1
102
RTVSPropertyOp41
 70
     1
102
RTVSPropertyOp42
 70
     1
102
RTVSPropertyOp43
 70
     1
102
RTVSPropertyOp44
 70
     1
102
RTVSPropertyOp45
 70
     1
102
RTVSPropertyOp46
 70
     1
102
RTVSPropertyOp47
 70
     1
102
RTVSPropertyOp48
 70
     1
102
RTVSPropertyOp49
 70
     1
102
RTVSPropertyOp50
 70
     1
102
RTVSPropertyOp51
 70
     0
102
RTVSPropertyOp52
 70
     0
102
RTVSPropertyOp53
 70
     1
102
RTVSPropertyOp54
 70
     1
102
RTVSPropertyOp55
 70
     1
102
RTVSPropertyOp56
 70
     1
102
RTVSPropertyOp57
 70
     1
102
RTVSPost2010Prop28
280
     0
102
RTVSPost2010PropOp28
 70
     1
102
RTVSPost2010Prop29
280
     1
102
RTVSPost2010PropOp29
 70
     1
102
RTVSPost2010Prop30
280
     1
102
RTVSPost2010PropOp30
 70
     1
102
RTVSPost2010Prop31
280
     0
102
RTVSPost2010PropOp31
 70
     1
102
RTVSPost2010Prop32
280
     0
102
RTVSPost2010PropOp32
 70
     1
102
RTVSPost2010Prop33
280
     0
102
RTVSPost2010PropOp33
 70
     1
102
RTVSPost2010Prop34
280
     0
102
RTVSPost2010PropOp34
 70
     1
102
RTVSPost2010Prop35
280
     0
102
RTVSPost2010PropOp35
 70
     1
102
RTVSPost2010Prop36
280
     0
102
RTVSPost2010PropOp36
 70
     1
102
RTVSPost2010Prop37
 90
       50
102
RTVSPost2010PropOp37
 70
     1
102
RTVSPost2010Prop38
140
0.0
102
RTVSPost2010PropOp38
 70
     1
102
RTVSPost2010Prop39
140
1.0
102
RTVSPost2010PropOp39
 70
     1
102
RTVSPost2010Prop40
 90
        0
102
RTVSPost2010PropOp40
 70
     1
102
RTVSPost2010Prop41ColorIndex
 90
       18
102
RTVSPost2010Prop41ColorRGB
 90
        0
102
RTVSPost2010PropOp41
 70
     1
102
RTVSPost2010Prop42
 90
       50
102
RTVSPost2010PropOp42
 70
     1
102
RTVSPost2010Prop43
 90
        3
102
RTVSPost2010PropOp43
 70
     1
102
RTVSPost2010Prop44ColorIndex
 90
        5
102
RTVSPost2010Prop44ColorRGB
 90
      255
102
RTVSPost2010PropOp44
 70
     1
102
RTVSPost2010Prop45
280
     0
102
RTVSPost2010PropOp45
 70
     1
102
RTVSPost2010Prop46
 90
       50
102
RTVSPost2010PropOp46
 70
     1
102
RTVSPost2010Prop47
 90
       50
102
RTVSPost2010PropOp47
 70
     1
102
RTVSPost2010Prop48
 90
       50
102
RTVSPost2010PropOp48
 70
     1
102
RTVSPost2010Prop49
280
     0
102
RTVSPost2010PropOp49
 70
     1
102
RTVSPost2010Prop50
 90
       50
102
RTVSPost2010PropOp50
 70
     1
102
RTVSPost2010Prop51ColorIndex
 90
      256
102
RTVSPost2010Prop51ColorRGB
 90
-16777216
102
RTVSPost2010PropOp51
 70
     0
102
RTVSPost2010Prop52
140
1.0
102
RTVSPost2010PropOp52
 70
     0
102
RTVSPost2010Prop53
 90
        2
102
RTVSPost2010PropOp53
 70
     1
102
RTVSPost2010Prop54
  1
strokes_ogs.tif
102
RTVSPost2010PropOp54
 70
     1
102
RTVSPost2010Prop55
280
     0
102
RTVSPost2010PropOp55
 70
     1
102
RTVSPost2010Prop56
140
1.0
102
RTVSPost2010PropOp56
 70
     1
102
RTVSPost2010Prop57
140
1.0
102
RTVSPost2010PropOp57
 70
     1
  0
XRECORD
  5
FF
102
{ACAD_REACTORS
330
FE
102
}
330
FE
100
AcDbXrecord
280
     1
102
RTVSPropertyOp0
 70
     1
102
RTVSPropertyOp1
 70
     1
102
RTVSPropertyOp2
 70
     1
102
RTVSPropertyOp3
 70
     1
102
RTVSPropertyOp4
 70
     1
102
RTVSPropertyOp5
 70
     1
102
RTVSPropertyOp6
 70
     1
102
RTVSPropertyOp7
 70
     1
102
RTVSPropertyOp8
 70
     1
102
RTVSPropertyOp9
 70
     1
102
RTVSPropertyOp10
 70
     1
102
RTVSPropertyOp11
 70
     1
102
RTVSPropertyOp12
 70
     1
102
RTVSPropertyOp13
 70
     1
102
RTVSPropertyOp14
 70
     1
102
RTVSPropertyOp15
 70
     1
102
RTVSPropertyOp16
 70
     1
102
RTVSPropertyOp17
 70
     1
102
RTVSPropertyOp18
 70
     1
102
RTVSPropertyOp19
 70
     1
102
RTVSPropertyOp20
 70
     1
102
RTVSPropertyOp21
 70
     1
102
RTVSPropertyOp22
 70
     1
102
RTVSPropertyOp23
 70
     1
102
RTVSPropertyOp24
 70
     1
102
RTVSPropertyOp25
 70
     1
102
RTVSPropertyOp26
 70
     1
102
RTVSPropertyOp27
 70
     1
102
RTVSPropertyOp28
 70
     1
102
RTVSPropertyOp29
 70
     1
102
RTVSPropertyOp30
 70
     1
102
RTVSPropertyOp31
 70
     1
102
RTVSPropertyOp32
 70
     1
102
RTVSPropertyOp33
 70
     1
102
RTVSPropertyOp34
 70
     1
102
RTVSPropertyOp35
 70
     1
102
RTVSPropertyOp36
 70
     1
102
RTVSPropertyOp37
 70
     1
102
RTVSPropertyOp38
 70
     1
102
RTVSPropertyOp39
 70
     1
102
RTVSPropertyOp40
 70
     1
102
RTVSPropertyOp41
 70
     1
102
RTVSPropertyOp42
 70
     1
102
RTVSPropertyOp43
 70
     1
102
RTVSPropertyOp44
 70
     1
102
RTVSPropertyOp45
 70
     1
102
RTVSPropertyOp46
 70
     1
102
RTVSPropertyOp47
 70
     1
102
RTVSPropertyOp48
 70
     1
102
RTVSPropertyOp49
 70
     1
102
RTVSPropertyOp50
 70
     1
102
RTVSPropertyOp51
 70
     0
102
RTVSPropertyOp52
 70
     0
102
RTVSPropertyOp53
 70
     1
102
RTVSPropertyOp54
 70
     1
102
RTVSPropertyOp55
 70
     1
102
RTVSPropertyOp56
 70
     1
102
RTVSPropertyOp57
 70
     1
102
RTVSPost2010Prop28
280
     0
102
RTVSPost2010PropOp28
 70
     1
102
RTVSPost2010Prop29
280
     1
102
RTVSPost2010PropOp29
 70
     1
102
RTVSPost2010Prop30
280
     1
102
RTVSPost2010PropOp30
 70
     1
102
RTVSPost2010Prop31
280
     0
102
RTVSPost2010PropOp31
 70
     1
102
RTVSPost2010Prop32
280
     0
102
RTVSPost2010PropOp32
 70
     1
102
RTVSPost2010Prop33
280
     0
102
RTVSPost2010PropOp33
 70
     1
102
RTVSPost2010Prop34
280
     0
102
RTVSPost2010PropOp34
 70
     1
102
RTVSPost2010Prop35
280
     0
102
RTVSPost2010PropOp35
 70
     1
102
RTVSPost2010Prop36
280
     0
102
RTVSPost2010PropOp36
 70
     1
102
RTVSPost2010Prop37
 90
       50
102
RTVSPost2010PropOp37
 70
     1
102
RTVSPost2010Prop38
140
0.0
102
RTVSPost2010PropOp38
 70
     1
102
RTVSPost2010Prop39
140
1.0
102
RTVSPost2010PropOp39
 70
     1
102
RTVSPost2010Prop40
 90
        0
102
RTVSPost2010PropOp40
 70
     1
102
RTVSPost2010Prop41ColorIndex
 90
       18
102
RTVSPost2010Prop41ColorRGB
 90
        0
102
RTVSPost2010PropOp41
 70
     1
102
RTVSPost2010Prop42
 90
       50
102
RTVSPost2010PropOp42
 70
     1
102
RTVSPost2010Prop43
 90
        3
102
RTVSPost2010PropOp43
 70
     1
102
RTVSPost2010Prop44ColorIndex
 90
        5
102
RTVSPost2010Prop44ColorRGB
 90
      255
102
RTVSPost2010PropOp44
 70
     1
102
RTVSPost2010Prop45
280
     0
102
RTVSPost2010PropOp45
 70
     1
102
RTVSPost2010Prop46
 90
       50
102
RTVSPost2010PropOp46
 70
     1
102
RTVSPost2010Prop47
 90
       50
102
RTVSPost2010PropOp47
 70
     1
102
RTVSPost2010Prop48
 90
       50
102
RTVSPost2010PropOp48
 70
     1
102
RTVSPost2010Prop49
280
     0
102
RTVSPost2010PropOp49
 70
     1
102
RTVSPost2010Prop50
 90
       50
102
RTVSPost2010PropOp50
 70
     1
102
RTVSPost2010Prop51ColorIndex
 90
      256
102
RTVSPost2010Prop51ColorRGB
 90
-16777216
102
RTVSPost2010PropOp51
 70
     0
102
RTVSPost2010Prop52
140
1.0
102
RTVSPost2010PropOp52
 70
     0
102
RTVSPost2010Prop53
 90
        2
102
RTVSPost2010PropOp53
 70
     1
102
RTVSPost2010Prop54
  1
strokes_ogs.tif
102
RTVSPost2010PropOp54
 70
     1
102
RTVSPost2010Prop55
280
     0
102
RTVSPost2010PropOp55
 70
     1
102
RTVSPost2010Prop56
140
1.0
102
RTVSPost2010PropOp56
 70
     1
102
RTVSPost2010Prop57
140
1.0
102
RTVSPost2010PropOp57
 70
     1
  0
XRECORD
  5
101
102
{ACAD_REACTORS
330
100
102
}
330
100
100
AcDbXrecord
280
     1
102
RTVSPropertyOp0
 70
     1
102
RTVSPropertyOp1
 70
     1
102
RTVSPropertyOp2
 70
     1
102
RTVSPropertyOp3
 70
     1
102
RTVSPropertyOp4
 70
     1
102
RTVSPropertyOp5
 70
     1
102
RTVSPropertyOp6
 70
     1
102
RTVSPropertyOp7
 70
     1
102
RTVSPropertyOp8
 70
     1
102
RTVSPropertyOp9
 70
     1
102
RTVSPropertyOp10
 70
     1
102
RTVSPropertyOp11
 70
     1
102
RTVSPropertyOp12
 70
     1
102
RTVSPropertyOp13
 70
     1
102
RTVSPropertyOp14
 70
     1
102
RTVSPropertyOp15
 70
     1
102
RTVSPropertyOp16
 70
     1
102
RTVSPropertyOp17
 70
     1
102
RTVSPropertyOp18
 70
     1
102
RTVSPropertyOp19
 70
     1
102
RTVSPropertyOp20
 70
     1
102
RTVSPropertyOp21
 70
     1
102
RTVSPropertyOp22
 70
     1
102
RTVSPropertyOp23
 70
     1
102
RTVSPropertyOp24
 70
     1
102
RTVSPropertyOp25
 70
     1
102
RTVSPropertyOp26
 70
     1
102
RTVSPropertyOp27
 70
     1
102
RTVSPropertyOp28
 70
     1
102
RTVSPropertyOp29
 70
     1
102
RTVSPropertyOp30
 70
     1
102
RTVSPropertyOp31
 70
     1
102
RTVSPropertyOp32
 70
     1
102
RTVSPropertyOp33
 70
     1
102
RTVSPropertyOp34
 70
     1
102
RTVSPropertyOp35
 70
     1
102
RTVSPropertyOp36
 70
     1
102
RTVSPropertyOp37
 70
     1
102
RTVSPropertyOp38
 70
     1
102
RTVSPropertyOp39
 70
     1
102
RTVSPropertyOp40
 70
     1
102
RTVSPropertyOp41
 70
     1
102
RTVSPropertyOp42
 70
     1
102
RTVSPropertyOp43
 70
     1
102
RTVSPropertyOp44
 70
     1
102
RTVSPropertyOp45
 70
     1
102
RTVSPropertyOp46
 70
     1
102
RTVSPropertyOp47
 70
     1
102
RTVSPropertyOp48
 70
     1
102
RTVSPropertyOp49
 70
     1
102
RTVSPropertyOp50
 70
     1
102
RTVSPropertyOp51
 70
     0
102
RTVSPropertyOp52
 70
     0
102
RTVSPropertyOp53
 70
     1
102
RTVSPropertyOp54
 70
     1
102
RTVSPropertyOp55
 70
     1
102
RTVSPropertyOp56
 70
     1
102
RTVSPropertyOp57
 70
     1
102
RTVSPost2010Prop28
280
     0
102
RTVSPost2010PropOp28
 70
     1
102
RTVSPost2010Prop29
280
     1
102
RTVSPost2010PropOp29
 70
     1
102
RTVSPost2010Prop30
280
     1
102
RTVSPost2010PropOp30
 70
     1
102
RTVSPost2010Prop31
280
     0
102
RTVSPost2010PropOp31
 70
     1
102
RTVSPost2010Prop32
280
     0
102
RTVSPost2010PropOp32
 70
     1
102
RTVSPost2010Prop33
280
     0
102
RTVSPost2010PropOp33
 70
     1
102
RTVSPost2010Prop34
280
     0
102
RTVSPost2010PropOp34
 70
     1
102
RTVSPost2010Prop35
280
     0
102
RTVSPost2010PropOp35
 70
     1
102
RTVSPost2010Prop36
280
     0
102
RTVSPost2010PropOp36
 70
     1
102
RTVSPost2010Prop37
 90
       50
102
RTVSPost2010PropOp37
 70
     1
102
RTVSPost2010Prop38
140
0.0
102
RTVSPost2010PropOp38
 70
     1
102
RTVSPost2010Prop39
140
1.0
102
RTVSPost2010PropOp39
 70
     1
102
RTVSPost2010Prop40
 90
        0
102
RTVSPost2010PropOp40
 70
     1
102
RTVSPost2010Prop41ColorIndex
 90
       18
102
RTVSPost2010Prop41ColorRGB
 90
        0
102
RTVSPost2010PropOp41
 70
     1
102
RTVSPost2010Prop42
 90
       50
102
RTVSPost2010PropOp42
 70
     1
102
RTVSPost2010Prop43
 90
        3
102
RTVSPost2010PropOp43
 70
     1
102
RTVSPost2010Prop44ColorIndex
 90
        5
102
RTVSPost2010Prop44ColorRGB
 90
      255
102
RTVSPost2010PropOp44
 70
     1
102
RTVSPost2010Prop45
280
     0
102
RTVSPost2010PropOp45
 70
     1
102
RTVSPost2010Prop46
 90
       50
102
RTVSPost2010PropOp46
 70
     1
102
RTVSPost2010Prop47
 90
       50
102
RTVSPost2010PropOp47
 70
     1
102
RTVSPost2010Prop48
 90
       50
102
RTVSPost2010PropOp48
 70
     1
102
RTVSPost2010Prop49
280
     0
102
RTVSPost2010PropOp49
 70
     1
102
RTVSPost2010Prop50
 90
       50
102
RTVSPost2010PropOp50
 70
     1
102
RTVSPost2010Prop51ColorIndex
 90
      256
102
RTVSPost2010Prop51ColorRGB
 90
-16777216
102
RTVSPost2010PropOp51
 70
     0
102
RTVSPost2010Prop52
140
1.0
102
RTVSPost2010PropOp52
 70
     0
102
RTVSPost2010Prop53
 90
        2
102
RTVSPost2010PropOp53
 70
     1
102
RTVSPost2010Prop54
  1
strokes_ogs.tif
102
RTVSPost2010PropOp54
 70
     1
102
RTVSPost2010Prop55
280
     0
102
RTVSPost2010PropOp55
 70
     1
102
RTVSPost2010Prop56
140
1.0
102
RTVSPost2010PropOp56
 70
     1
102
RTVSPost2010Prop57
140
1.0
102
RTVSPost2010PropOp57
 70
     1
  0
XRECORD
  5
111
102
{ACAD_REACTORS
330
110
102
}
330
110
100
AcDbXrecord
280
     1
102
RTVSPropertyOp0
 70
     0
102
RTVSPropertyOp1
 70
     0
102
RTVSPropertyOp2
 70
     0
102
RTVSPropertyOp3
 70
     0
102
RTVSPropertyOp4
 70
     0
102
RTVSPropertyOp5
 70
     0
102
RTVSPropertyOp6
 70
     0
102
RTVSPropertyOp7
 70
     0
102
RTVSPropertyOp8
 70
     0
102
RTVSPropertyOp9
 70
     0
102
RTVSPropertyOp10
 70
     0
102
RTVSPropertyOp11
 70
     0
102
RTVSPropertyOp12
 70
     0
102
RTVSPropertyOp13
 70
     0
102
RTVSPropertyOp14
 70
     2
102
RTVSPropertyOp15
 70
     0
102
RTVSPropertyOp16
 70
     0
102
RTVSPropertyOp17
 70
     0
102
RTVSPropertyOp18
 70
     0
102
RTVSPropertyOp19
 70
     0
102
RTVSPropertyOp20
 70
     0
102
RTVSPropertyOp21
 70
     0
102
RTVSPropertyOp22
 70
     0
102
RTVSPropertyOp23
 70
     0
102
RTVSPropertyOp24
 70
     0
102
RTVSPropertyOp25
 70
     0
102
RTVSPropertyOp26
 70
     0
102
RTVSPropertyOp27
 70
     0
102
RTVSPropertyOp28
 70
     0
102
RTVSPropertyOp29
 70
     0
102
RTVSPropertyOp30
 70
     0
102
RTVSPropertyOp31
 70
     0
102
RTVSPropertyOp32
 70
     0
102
RTVSPropertyOp33
 70
     0
102
RTVSPropertyOp34
 70
     0
102
RTVSPropertyOp35
 70
     0
102
RTVSPropertyOp36
 70
     0
102
RTVSPropertyOp37
 70
     0
102
RTVSPropertyOp38
 70
     0
102
RTVSPropertyOp39
 70
     0
102
RTVSPropertyOp40
 70
     0
102
RTVSPropertyOp41
 70
     0
102
RTVSPropertyOp42
 70
     0
102
RTVSPropertyOp43
 70
     0
102
RTVSPropertyOp44
 70
     0
102
RTVSPropertyOp45
 70
     0
102
RTVSPropertyOp46
 70
     0
102
RTVSPropertyOp47
 70
     0
102
RTVSPropertyOp48
 70
     0
102
RTVSPropertyOp49
 70
     0
102
RTVSPropertyOp50
 70
     0
102
RTVSPropertyOp51
 70
     0
102
RTVSPropertyOp52
 70
     0
102
RTVSPropertyOp53
 70
     0
102
RTVSPropertyOp54
 70
     0
102
RTVSPropertyOp55
 70
     0
102
RTVSPropertyOp56
 70
     0
102
RTVSPropertyOp57
 70
     0
102
RTVSPost2010Prop28
280
     0
102
RTVSPost2010PropOp28
 70
     0
102
RTVSPost2010Prop29
280
     1
102
RTVSPost2010PropOp29
 70
     0
102
RTVSPost2010Prop30
280
     1
102
RTVSPost2010PropOp30
 70
     0
102
RTVSPost2010Prop31
280
     0
102
RTVSPost2010PropOp31
 70
     0
102
RTVSPost2010Prop32
280
     0
102
RTVSPost2010PropOp32
 70
     0
102
RTVSPost2010Prop33
280
     0
102
RTVSPost2010PropOp33
 70
     0
102
RTVSPost2010Prop34
280
     0
102
RTVSPost2010PropOp34
 70
     0
102
RTVSPost2010Prop35
280
     0
102
RTVSPost2010PropOp35
 70
     0
102
RTVSPost2010Prop36
280
     0
102
RTVSPost2010PropOp36
 70
     0
102
RTVSPost2010Prop37
 90
       50
102
RTVSPost2010PropOp37
 70
     0
102
RTVSPost2010Prop38
140
0.0
102
RTVSPost2010PropOp38
 70
     0
102
RTVSPost2010Prop39
140
1.0
102
RTVSPost2010PropOp39
 70
     0
102
RTVSPost2010Prop40
 90
        0
102
RTVSPost2010PropOp40
 70
     0
102
RTVSPost2010Prop41ColorIndex
 90
       18
102
RTVSPost2010Prop41ColorRGB
 90
        0
102
RTVSPost2010PropOp41
 70
     0
102
RTVSPost2010Prop42
 90
       50
102
RTVSPost2010PropOp42
 70
     0
102
RTVSPost2010Prop43
 90
        3
102
RTVSPost2010PropOp43
 70
     0
102
RTVSPost2010Prop44ColorIndex
 90
        5
102
RTVSPost2010Prop44ColorRGB
 90
      255
102
RTVSPost2010PropOp44
 70
     0
102
RTVSPost2010Prop45
280
     0
102
RTVSPost2010PropOp45
 70
     0
102
RTVSPost2010Prop46
 90
       50
102
RTVSPost2010PropOp46
 70
     0
102
RTVSPost2010Prop47
 90
       50
102
RTVSPost2010PropOp47
 70
     0
102
RTVSPost2010Prop48
 90
       50
102
RTVSPost2010PropOp48
 70
     0
102
RTVSPost2010Prop49
280
     0
102
RTVSPost2010PropOp49
 70
     0
102
RTVSPost2010Prop50
 90
       50
102
RTVSPost2010PropOp50
 70
     0
102
RTVSPost2010Prop51ColorIndex
 90
      256
102
RTVSPost2010Prop51ColorRGB
 90
-16777216
102
RTVSPost2010PropOp51
 70
     0
102
RTVSPost2010Prop52
140
1.0
102
RTVSPost2010PropOp52
 70
     0
102
RTVSPost2010Prop53
 90
        2
102
RTVSPost2010PropOp53
 70
     0
102
RTVSPost2010Prop54
  1
strokes_ogs.tif
102
RTVSPost2010PropOp54
 70
     0
102
RTVSPost2010Prop55
280
     0
102
RTVSPost2010PropOp55
 70
     0
102
RTVSPost2010Prop56
140
1.0
102
RTVSPost2010PropOp56
 70
     0
102
RTVSPost2010Prop57
140
1.0
102
RTVSPost2010PropOp57
 70
     0
  0
XRECORD
  5
109
102
{ACAD_REACTORS
330
108
102
}
330
108
100
AcDbXrecord
280
     1
102
RTVSPropertyOp0
 70
     1
102
RTVSPropertyOp1
 70
     1
102
RTVSPropertyOp2
 70
     1
102
RTVSPropertyOp3
 70
     1
102
RTVSPropertyOp4
 70
     1
102
RTVSPropertyOp5
 70
     1
102
RTVSPropertyOp6
 70
     1
102
RTVSPropertyOp7
 70
     1
102
RTVSPropertyOp8
 70
     1
102
RTVSPropertyOp9
 70
     1
102
RTVSPropertyOp10
 70
     1
102
RTVSPropertyOp11
 70
     1
102
RTVSPropertyOp12
 70
     1
102
RTVSPropertyOp13
 70
     1
102
RTVSPropertyOp14
 70
     1
102
RTVSPropertyOp15
 70
     1
102
RTVSPropertyOp16
 70
     1
102
RTVSPropertyOp17
 70
     1
102
RTVSPropertyOp18
 70
     1
102
RTVSPropertyOp19
 70
     1
102
RTVSPropertyOp20
 70
     1
102
RTVSPropertyOp21
 70
     1
102
RTVSPropertyOp22
 70
     1
102
RTVSPropertyOp23
 70
     1
102
RTVSPropertyOp24
 70
     1
102
RTVSPropertyOp25
 70
     1
102
RTVSPropertyOp26
 70
     1
102
RTVSPropertyOp27
 70
     1
102
RTVSPropertyOp28
 70
     1
102
RTVSPropertyOp29
 70
     1
102
RTVSPropertyOp30
 70
     1
102
RTVSPropertyOp31
 70
     1
102
RTVSPropertyOp32
 70
     1
102
RTVSPropertyOp33
 70
     1
102
RTVSPropertyOp34
 70
     1
102
RTVSPropertyOp35
 70
     1
102
RTVSPropertyOp36
 70
     1
102
RTVSPropertyOp37
 70
     1
102
RTVSPropertyOp38
 70
     1
102
RTVSPropertyOp39
 70
     1
102
RTVSPropertyOp40
 70
     1
102
RTVSPropertyOp41
 70
     1
102
RTVSPropertyOp42
 70
     1
102
RTVSPropertyOp43
 70
     1
102
RTVSPropertyOp44
 70
     1
102
RTVSPropertyOp45
 70
     1
102
RTVSPropertyOp46
 70
     1
102
RTVSPropertyOp47
 70
     1
102
RTVSPropertyOp48
 70
     1
102
RTVSPropertyOp49
 70
     1
102
RTVSPropertyOp50
 70
     1
102
RTVSPropertyOp51
 70
     0
102
RTVSPropertyOp52
 70
     0
102
RTVSPropertyOp53
 70
     1
102
RTVSPropertyOp54
 70
     1
102
RTVSPropertyOp55
 70
     1
102
RTVSPropertyOp56
 70
     1
102
RTVSPropertyOp57
 70
     1
102
RTVSPost2010Prop28
280
     0
102
RTVSPost2010PropOp28
 70
     1
102
RTVSPost2010Prop29
280
     1
102
RTVSPost2010PropOp29
 70
     1
102
RTVSPost2010Prop30
280
     1
102
RTVSPost2010PropOp30
 70
     1
102
RTVSPost2010Prop31
280
     0
102
RTVSPost2010PropOp31
 70
     1
102
RTVSPost2010Prop32
280
     0
102
RTVSPost2010PropOp32
 70
     1
102
RTVSPost2010Prop33
280
     0
102
RTVSPost2010PropOp33
 70
     1
102
RTVSPost2010Prop34
280
     0
102
RTVSPost2010PropOp34
 70
     1
102
RTVSPost2010Prop35
280
     0
102
RTVSPost2010PropOp35
 70
     1
102
RTVSPost2010Prop36
280
     0
102
RTVSPost2010PropOp36
 70
     1
102
RTVSPost2010Prop37
 90
       50
102
RTVSPost2010PropOp37
 70
     1
102
RTVSPost2010Prop38
140
0.0
102
RTVSPost2010PropOp38
 70
     1
102
RTVSPost2010Prop39
140
1.0
102
RTVSPost2010PropOp39
 70
     1
102
RTVSPost2010Prop40
 90
        0
102
RTVSPost2010PropOp40
 70
     1
102
RTVSPost2010Prop41ColorIndex
 90
       18
102
RTVSPost2010Prop41ColorRGB
 90
        0
102
RTVSPost2010PropOp41
 70
     1
102
RTVSPost2010Prop42
 90
       50
102
RTVSPost2010PropOp42
 70
     1
102
RTVSPost2010Prop43
 90
        3
102
RTVSPost2010PropOp43
 70
     1
102
RTVSPost2010Prop44ColorIndex
 90
        5
102
RTVSPost2010Prop44ColorRGB
 90
      255
102
RTVSPost2010PropOp44
 70
     1
102
RTVSPost2010Prop45
280
     0
102
RTVSPost2010PropOp45
 70
     1
102
RTVSPost2010Prop46
 90
       50
102
RTVSPost2010PropOp46
 70
     1
102
RTVSPost2010Prop47
 90
       50
102
RTVSPost2010PropOp47
 70
     1
102
RTVSPost2010Prop48
 90
       50
102
RTVSPost2010PropOp48
 70
     1
102
RTVSPost2010Prop49
280
     0
102
RTVSPost2010PropOp49
 70
     1
102
RTVSPost2010Prop50
 90
       50
102
RTVSPost2010PropOp50
 70
     1
102
RTVSPost2010Prop51ColorIndex
 90
      256
102
RTVSPost2010Prop51ColorRGB
 90
-16777216
102
RTVSPost2010PropOp51
 70
     0
102
RTVSPost2010Prop52
140
1.0
102
RTVSPost2010PropOp52
 70
     0
102
RTVSPost2010Prop53
 90
        2
102
RTVSPost2010PropOp53
 70
     1
102
RTVSPost2010Prop54
  1
strokes_ogs.tif
102
RTVSPost2010PropOp54
 70
     1
102
RTVSPost2010Prop55
280
     0
102
RTVSPost2010PropOp55
 70
     1
102
RTVSPost2010Prop56
140
1.0
102
RTVSPost2010PropOp56
 70
     1
102
RTVSPost2010Prop57
140
1.0
102
RTVSPost2010PropOp57
 70
     1
  0
XRECORD
  5
EF
102
{ACAD_REACTORS
330
EE
102
}
330
EE
100
AcDbXrecord
280
     1
102
RTVSPropertyOp0
 70
     1
102
RTVSPropertyOp1
 70
     1
102
RTVSPropertyOp2
 70
     1
102
RTVSPropertyOp3
 70
     1
102
RTVSPropertyOp4
 70
     1
102
RTVSPropertyOp5
 70
     1
102
RTVSPropertyOp6
 70
     1
102
RTVSPropertyOp7
 70
     1
102
RTVSPropertyOp8
 70
     1
102
RTVSPropertyOp9
 70
     1
102
RTVSPropertyOp10
 70
     1
102
RTVSPropertyOp11
 70
     1
102
RTVSPropertyOp12
 70
     1
102
RTVSPropertyOp13
 70
     1
102
RTVSPropertyOp14
 70
     1
102
RTVSPropertyOp15
 70
     1
102
RTVSPropertyOp16
 70
     1
102
RTVSPropertyOp17
 70
     1
102
RTVSPropertyOp18
 70
     1
102
RTVSPropertyOp19
 70
     1
102
RTVSPropertyOp20
 70
     1
102
RTVSPropertyOp21
 70
     1
102
RTVSPropertyOp22
 70
     1
102
RTVSPropertyOp23
 70
     1
102
RTVSPropertyOp24
 70
     1
102
RTVSPropertyOp25
 70
     1
102
RTVSPropertyOp26
 70
     1
102
RTVSPropertyOp27
 70
     1
102
RTVSPropertyOp28
 70
     1
102
RTVSPropertyOp29
 70
     1
102
RTVSPropertyOp30
 70
     1
102
RTVSPropertyOp31
 70
     1
102
RTVSPropertyOp32
 70
     1
102
RTVSPropertyOp33
 70
     1
102
RTVSPropertyOp34
 70
     1
102
RTVSPropertyOp35
 70
     1
102
RTVSPropertyOp36
 70
     1
102
RTVSPropertyOp37
 70
     1
102
RTVSPropertyOp38
 70
     1
102
RTVSPropertyOp39
 70
     1
102
RTVSPropertyOp40
 70
     1
102
RTVSPropertyOp41
 70
     1
102
RTVSPropertyOp42
 70
     1
102
RTVSPropertyOp43
 70
     1
102
RTVSPropertyOp44
 70
     1
102
RTVSPropertyOp45
 70
     1
102
RTVSPropertyOp46
 70
     1
102
RTVSPropertyOp47
 70
     1
102
RTVSPropertyOp48
 70
     1
102
RTVSPropertyOp49
 70
     1
102
RTVSPropertyOp50
 70
     1
102
RTVSPropertyOp51
 70
     0
102
RTVSPropertyOp52
 70
     0
102
RTVSPropertyOp53
 70
     1
102
RTVSPropertyOp54
 70
     1
102
RTVSPropertyOp55
 70
     1
102
RTVSPropertyOp56
 70
     1
102
RTVSPropertyOp57
 70
     1
102
RTVSPost2010Prop28
280
     0
102
RTVSPost2010PropOp28
 70
     1
102
RTVSPost2010Prop29
280
     1
102
RTVSPost2010PropOp29
 70
     1
102
RTVSPost2010Prop30
280
     1
102
RTVSPost2010PropOp30
 70
     1
102
RTVSPost2010Prop31
280
     0
102
RTVSPost2010PropOp31
 70
     1
102
RTVSPost2010Prop32
280
     0
102
RTVSPost2010PropOp32
 70
     1
102
RTVSPost2010Prop33
280
     0
102
RTVSPost2010PropOp33
 70
     1
102
RTVSPost2010Prop34
280
     0
102
RTVSPost2010PropOp34
 70
     1
102
RTVSPost2010Prop35
280
     0
102
RTVSPost2010PropOp35
 70
     1
102
RTVSPost2010Prop36
280
     0
102
RTVSPost2010PropOp36
 70
     1
102
RTVSPost2010Prop37
 90
       50
102
RTVSPost2010PropOp37
 70
     1
102
RTVSPost2010Prop38
140
0.0
102
RTVSPost2010PropOp38
 70
     1
102
RTVSPost2010Prop39
140
1.0
102
RTVSPost2010PropOp39
 70
     1
102
RTVSPost2010Prop40
 90
        0
102
RTVSPost2010PropOp40
 70
     1
102
RTVSPost2010Prop41ColorIndex
 90
       18
102
RTVSPost2010Prop41ColorRGB
 90
        0
102
RTVSPost2010PropOp41
 70
     1
102
RTVSPost2010Prop42
 90
       50
102
RTVSPost2010PropOp42
 70
     1
102
RTVSPost2010Prop43
 90
        3
102
RTVSPost2010PropOp43
 70
     1
102
RTVSPost2010Prop44ColorIndex
 90
        5
102
RTVSPost2010Prop44ColorRGB
 90
      255
102
RTVSPost2010PropOp44
 70
     1
102
RTVSPost2010Prop45
280
     0
102
RTVSPost2010PropOp45
 70
     1
102
RTVSPost2010Prop46
 90
       50
102
RTVSPost2010PropOp46
 70
     1
102
RTVSPost2010Prop47
 90
       50
102
RTVSPost2010PropOp47
 70
     1
102
RTVSPost2010Prop48
 90
       50
102
RTVSPost2010PropOp48
 70
     1
102
RTVSPost2010Prop49
280
     0
102
RTVSPost2010PropOp49
 70
     1
102
RTVSPost2010Prop50
 90
       50
102
RTVSPost2010PropOp50
 70
     1
102
RTVSPost2010Prop51ColorIndex
 90
      256
102
RTVSPost2010Prop51ColorRGB
 90
-16777216
102
RTVSPost2010PropOp51
 70
     0
102
RTVSPost2010Prop52
140
1.0
102
RTVSPost2010PropOp52
 70
     0
102
RTVSPost2010Prop53
 90
        2
102
RTVSPost2010PropOp53
 70
     1
102
RTVSPost2010Prop54
  1
strokes_ogs.tif
102
RTVSPost2010PropOp54
 70
     1
102
RTVSPost2010Prop55
280
     0
102
RTVSPost2010PropOp55
 70
     1
102
RTVSPost2010Prop56
140
1.0
102
RTVSPost2010PropOp56
 70
     1
102
RTVSPost2010Prop57
140
1.0
102
RTVSPost2010PropOp57
 70
     1
  0
XRECORD
  5
F1
102
{ACAD_REACTORS
330
F0
102
}
330
F0
100
AcDbXrecord
280
     1
102
RTVSPropertyOp0
 70
     1
102
RTVSPropertyOp1
 70
     1
102
RTVSPropertyOp2
 70
     1
102
RTVSPropertyOp3
 70
     1
102
RTVSPropertyOp4
 70
     1
102
RTVSPropertyOp5
 70
     1
102
RTVSPropertyOp6
 70
     1
102
RTVSPropertyOp7
 70
     1
102
RTVSPropertyOp8
 70
     1
102
RTVSPropertyOp9
 70
     1
102
RTVSPropertyOp10
 70
     1
102
RTVSPropertyOp11
 70
     1
102
RTVSPropertyOp12
 70
     1
102
RTVSPropertyOp13
 70
     1
102
RTVSPropertyOp14
 70
     1
102
RTVSPropertyOp15
 70
     1
102
RTVSPropertyOp16
 70
     1
102
RTVSPropertyOp17
 70
     1
102
RTVSPropertyOp18
 70
     1
102
RTVSPropertyOp19
 70
     1
102
RTVSPropertyOp20
 70
     1
102
RTVSPropertyOp21
 70
     1
102
RTVSPropertyOp22
 70
     1
102
RTVSPropertyOp23
 70
     1
102
RTVSPropertyOp24
 70
     1
102
RTVSPropertyOp25
 70
     1
102
RTVSPropertyOp26
 70
     1
102
RTVSPropertyOp27
 70
     1
102
RTVSPropertyOp28
 70
     1
102
RTVSPropertyOp29
 70
     1
102
RTVSPropertyOp30
 70
     1
102
RTVSPropertyOp31
 70
     1
102
RTVSPropertyOp32
 70
     1
102
RTVSPropertyOp33
 70
     1
102
RTVSPropertyOp34
 70
     1
102
RTVSPropertyOp35
 70
     1
102
RTVSPropertyOp36
 70
     1
102
RTVSPropertyOp37
 70
     1
102
RTVSPropertyOp38
 70
     1
102
RTVSPropertyOp39
 70
     1
102
RTVSPropertyOp40
 70
     1
102
RTVSPropertyOp41
 70
     1
102
RTVSPropertyOp42
 70
     1
102
RTVSPropertyOp43
 70
     1
102
RTVSPropertyOp44
 70
     1
102
RTVSPropertyOp45
 70
     1
102
RTVSPropertyOp46
 70
     1
102
RTVSPropertyOp47
 70
     1
102
RTVSPropertyOp48
 70
     1
102
RTVSPropertyOp49
 70
     1
102
RTVSPropertyOp50
 70
     1
102
RTVSPropertyOp51
 70
     0
102
RTVSPropertyOp52
 70
     0
102
RTVSPropertyOp53
 70
     1
102
RTVSPropertyOp54
 70
     1
102
RTVSPropertyOp55
 70
     1
102
RTVSPropertyOp56
 70
     1
102
RTVSPropertyOp57
 70
     1
102
RTVSPost2010Prop28
280
     0
102
RTVSPost2010PropOp28
 70
     1
102
RTVSPost2010Prop29
280
     1
102
RTVSPost2010PropOp29
 70
     1
102
RTVSPost2010Prop30
280
     1
102
RTVSPost2010PropOp30
 70
     1
102
RTVSPost2010Prop31
280
     0
102
RTVSPost2010PropOp31
 70
     1
102
RTVSPost2010Prop32
280
     0
102
RTVSPost2010PropOp32
 70
     1
102
RTVSPost2010Prop33
280
     0
102
RTVSPost2010PropOp33
 70
     1
102
RTVSPost2010Prop34
280
     0
102
RTVSPost2010PropOp34
 70
     1
102
RTVSPost2010Prop35
280
     0
102
RTVSPost2010PropOp35
 70
     1
102
RTVSPost2010Prop36
280
     0
102
RTVSPost2010PropOp36
 70
     1
102
RTVSPost2010Prop37
 90
       50
102
RTVSPost2010PropOp37
 70
     1
102
RTVSPost2010Prop38
140
0.0
102
RTVSPost2010PropOp38
 70
     1
102
RTVSPost2010Prop39
140
1.0
102
RTVSPost2010PropOp39
 70
     1
102
RTVSPost2010Prop40
 90
        0
102
RTVSPost2010PropOp40
 70
     1
102
RTVSPost2010Prop41ColorIndex
 90
       18
102
RTVSPost2010Prop41ColorRGB
 90
        0
102
RTVSPost2010PropOp41
 70
     1
102
RTVSPost2010Prop42
 90
       50
102
RTVSPost2010PropOp42
 70
     1
102
RTVSPost2010Prop43
 90
        3
102
RTVSPost2010PropOp43
 70
     1
102
RTVSPost2010Prop44ColorIndex
 90
        5
102
RTVSPost2010Prop44ColorRGB
 90
      255
102
RTVSPost2010PropOp44
 70
     1
102
RTVSPost2010Prop45
280
     0
102
RTVSPost2010PropOp45
 70
     1
102
RTVSPost2010Prop46
 90
       50
102
RTVSPost2010PropOp46
 70
     1
102
RTVSPost2010Prop47
 90
       50
102
RTVSPost2010PropOp47
 70
     1
102
RTVSPost2010Prop48
 90
       50
102
RTVSPost2010PropOp48
 70
     1
102
RTVSPost2010Prop49
280
     0
102
RTVSPost2010PropOp49
 70
     1
102
RTVSPost2010Prop50
 90
       50
102
RTVSPost2010PropOp50
 70
     1
102
RTVSPost2010Prop51ColorIndex
 90
      256
102
RTVSPost2010Prop51ColorRGB
 90
-16777216
102
RTVSPost2010PropOp51
 70
     0
102
RTVSPost2010Prop52
140
1.0
102
RTVSPost2010PropOp52
 70
     0
102
RTVSPost2010Prop53
 90
        2
102
RTVSPost2010PropOp53
 70
     1
102
RTVSPost2010Prop54
  1
strokes_ogs.tif
102
RTVSPost2010PropOp54
 70
     1
102
RTVSPost2010Prop55
280
     0
102
RTVSPost2010PropOp55
 70
     1
102
RTVSPost2010Prop56
140
1.0
102
RTVSPost2010PropOp56
 70
     1
102
RTVSPost2010Prop57
140
1.0
102
RTVSPost2010PropOp57
 70
     1
  0
XRECORD
  5
F3
102
{ACAD_REACTORS
330
F2
102
}
330
F2
100
AcDbXrecord
280
     1
102
RTVSPropertyOp0
 70
     1
102
RTVSPropertyOp1
 70
     1
102
RTVSPropertyOp2
 70
     1
102
RTVSPropertyOp3
 70
     1
102
RTVSPropertyOp4
 70
     1
102
RTVSPropertyOp5
 70
     1
102
RTVSPropertyOp6
 70
     1
102
RTVSPropertyOp7
 70
     1
102
RTVSPropertyOp8
 70
     1
102
RTVSPropertyOp9
 70
     1
102
RTVSPropertyOp10
 70
     1
102
RTVSPropertyOp11
 70
     1
102
RTVSPropertyOp12
 70
     1
102
RTVSPropertyOp13
 70
     1
102
RTVSPropertyOp14
 70
     1
102
RTVSPropertyOp15
 70
     1
102
RTVSPropertyOp16
 70
     1
102
RTVSPropertyOp17
 70
     1
102
RTVSPropertyOp18
 70
     1
102
RTVSPropertyOp19
 70
     1
102
RTVSPropertyOp20
 70
     1
102
RTVSPropertyOp21
 70
     1
102
RTVSPropertyOp22
 70
     1
102
RTVSPropertyOp23
 70
     1
102
RTVSPropertyOp24
 70
     1
102
RTVSPropertyOp25
 70
     1
102
RTVSPropertyOp26
 70
     1
102
RTVSPropertyOp27
 70
     1
102
RTVSPropertyOp28
 70
     1
102
RTVSPropertyOp29
 70
     1
102
RTVSPropertyOp30
 70
     1
102
RTVSPropertyOp31
 70
     1
102
RTVSPropertyOp32
 70
     1
102
RTVSPropertyOp33
 70
     1
102
RTVSPropertyOp34
 70
     1
102
RTVSPropertyOp35
 70
     1
102
RTVSPropertyOp36
 70
     1
102
RTVSPropertyOp37
 70
     1
102
RTVSPropertyOp38
 70
     1
102
RTVSPropertyOp39
 70
     1
102
RTVSPropertyOp40
 70
     1
102
RTVSPropertyOp41
 70
     1
102
RTVSPropertyOp42
 70
     1
102
RTVSPropertyOp43
 70
     1
102
RTVSPropertyOp44
 70
     1
102
RTVSPropertyOp45
 70
     1
102
RTVSPropertyOp46
 70
     1
102
RTVSPropertyOp47
 70
     1
102
RTVSPropertyOp48
 70
     1
102
RTVSPropertyOp49
 70
     1
102
RTVSPropertyOp50
 70
     1
102
RTVSPropertyOp51
 70
     0
102
RTVSPropertyOp52
 70
     0
102
RTVSPropertyOp53
 70
     1
102
RTVSPropertyOp54
 70
     1
102
RTVSPropertyOp55
 70
     1
102
RTVSPropertyOp56
 70
     1
102
RTVSPropertyOp57
 70
     1
102
RTVSPost2010Prop28
280
     0
102
RTVSPost2010PropOp28
 70
     1
102
RTVSPost2010Prop29
280
     1
102
RTVSPost2010PropOp29
 70
     1
102
RTVSPost2010Prop30
280
     1
102
RTVSPost2010PropOp30
 70
     1
102
RTVSPost2010Prop31
280
     0
102
RTVSPost2010PropOp31
 70
     1
102
RTVSPost2010Prop32
280
     0
102
RTVSPost2010PropOp32
 70
     1
102
RTVSPost2010Prop33
280
     0
102
RTVSPost2010PropOp33
 70
     1
102
RTVSPost2010Prop34
280
     0
102
RTVSPost2010PropOp34
 70
     1
102
RTVSPost2010Prop35
280
     0
102
RTVSPost2010PropOp35
 70
     1
102
RTVSPost2010Prop36
280
     0
102
RTVSPost2010PropOp36
 70
     1
102
RTVSPost2010Prop37
 90
       50
102
RTVSPost2010PropOp37
 70
     1
102
RTVSPost2010Prop38
140
0.0
102
RTVSPost2010PropOp38
 70
     1
102
RTVSPost2010Prop39
140
1.0
102
RTVSPost2010PropOp39
 70
     1
102
RTVSPost2010Prop40
 90
        0
102
RTVSPost2010PropOp40
 70
     1
102
RTVSPost2010Prop41ColorIndex
 90
       18
102
RTVSPost2010Prop41ColorRGB
 90
        0
102
RTVSPost2010PropOp41
 70
     1
102
RTVSPost2010Prop42
 90
       50
102
RTVSPost2010PropOp42
 70
     1
102
RTVSPost2010Prop43
 90
        3
102
RTVSPost2010PropOp43
 70
     1
102
RTVSPost2010Prop44ColorIndex
 90
        5
102
RTVSPost2010Prop44ColorRGB
 90
      255
102
RTVSPost2010PropOp44
 70
     1
102
RTVSPost2010Prop45
280
     0
102
RTVSPost2010PropOp45
 70
     1
102
RTVSPost2010Prop46
 90
       50
102
RTVSPost2010PropOp46
 70
     1
102
RTVSPost2010Prop47
 90
       50
102
RTVSPost2010PropOp47
 70
     1
102
RTVSPost2010Prop48
 90
       50
102
RTVSPost2010PropOp48
 70
     1
102
RTVSPost2010Prop49
280
     0
102
RTVSPost2010PropOp49
 70
     1
102
RTVSPost2010Prop50
 90
       50
102
RTVSPost2010PropOp50
 70
     1
102
RTVSPost2010Prop51ColorIndex
 90
      256
102
RTVSPost2010Prop51ColorRGB
 90
-16777216
102
RTVSPost2010PropOp51
 70
     0
102
RTVSPost2010Prop52
140
1.0
102
RTVSPost2010PropOp52
 70
     0
102
RTVSPost2010Prop53
 90
        2
102
RTVSPost2010PropOp53
 70
     1
102
RTVSPost2010Prop54
  1
strokes_ogs.tif
102
RTVSPost2010PropOp54
 70
     1
102
RTVSPost2010Prop55
280
     0
102
RTVSPost2010PropOp55
 70
     1
102
RTVSPost2010Prop56
140
1.0
102
RTVSPost2010PropOp56
 70
     1
102
RTVSPost2010Prop57
140
1.0
102
RTVSPost2010PropOp57
 70
     1
  0
XRECORD
  5
F5
102
{ACAD_REACTORS
330
F4
102
}
330
F4
100
AcDbXrecord
280
     1
102
RTVSPropertyOp0
 70
     1
102
RTVSPropertyOp1
 70
     1
102
RTVSPropertyOp2
 70
     1
102
RTVSPropertyOp3
 70
     1
102
RTVSPropertyOp4
 70
     1
102
RTVSPropertyOp5
 70
     1
102
RTVSPropertyOp6
 70
     1
102
RTVSPropertyOp7
 70
     1
102
RTVSPropertyOp8
 70
     1
102
RTVSPropertyOp9
 70
     1
102
RTVSPropertyOp10
 70
     1
102
RTVSPropertyOp11
 70
     1
102
RTVSPropertyOp12
 70
     1
102
RTVSPropertyOp13
 70
     1
102
RTVSPropertyOp14
 70
     1
102
RTVSPropertyOp15
 70
     1
102
RTVSPropertyOp16
 70
     1
102
RTVSPropertyOp17
 70
     1
102
RTVSPropertyOp18
 70
     1
102
RTVSPropertyOp19
 70
     1
102
RTVSPropertyOp20
 70
     1
102
RTVSPropertyOp21
 70
     1
102
RTVSPropertyOp22
 70
     1
102
RTVSPropertyOp23
 70
     1
102
RTVSPropertyOp24
 70
     1
102
RTVSPropertyOp25
 70
     1
102
RTVSPropertyOp26
 70
     1
102
RTVSPropertyOp27
 70
     1
102
RTVSPropertyOp28
 70
     1
102
RTVSPropertyOp29
 70
     1
102
RTVSPropertyOp30
 70
     1
102
RTVSPropertyOp31
 70
     1
102
RTVSPropertyOp32
 70
     1
102
RTVSPropertyOp33
 70
     1
102
RTVSPropertyOp34
 70
     1
102
RTVSPropertyOp35
 70
     1
102
RTVSPropertyOp36
 70
     1
102
RTVSPropertyOp37
 70
     1
102
RTVSPropertyOp38
 70
     1
102
RTVSPropertyOp39
 70
     1
102
RTVSPropertyOp40
 70
     1
102
RTVSPropertyOp41
 70
     1
102
RTVSPropertyOp42
 70
     1
102
RTVSPropertyOp43
 70
     1
102
RTVSPropertyOp44
 70
     1
102
RTVSPropertyOp45
 70
     1
102
RTVSPropertyOp46
 70
     1
102
RTVSPropertyOp47
 70
     1
102
RTVSPropertyOp48
 70
     1
102
RTVSPropertyOp49
 70
     1
102
RTVSPropertyOp50
 70
     1
102
RTVSPropertyOp51
 70
     0
102
RTVSPropertyOp52
 70
     0
102
RTVSPropertyOp53
 70
     1
102
RTVSPropertyOp54
 70
     1
102
RTVSPropertyOp55
 70
     1
102
RTVSPropertyOp56
 70
     1
102
RTVSPropertyOp57
 70
     1
102
RTVSPost2010Prop28
280
     0
102
RTVSPost2010PropOp28
 70
     1
102
RTVSPost2010Prop29
280
     1
102
RTVSPost2010PropOp29
 70
     1
102
RTVSPost2010Prop30
280
     1
102
RTVSPost2010PropOp30
 70
     1
102
RTVSPost2010Prop31
280
     0
102
RTVSPost2010PropOp31
 70
     1
102
RTVSPost2010Prop32
280
     0
102
RTVSPost2010PropOp32
 70
     1
102
RTVSPost2010Prop33
280
     0
102
RTVSPost2010PropOp33
 70
     1
102
RTVSPost2010Prop34
280
     0
102
RTVSPost2010PropOp34
 70
     1
102
RTVSPost2010Prop35
280
     0
102
RTVSPost2010PropOp35
 70
     1
102
RTVSPost2010Prop36
280
     0
102
RTVSPost2010PropOp36
 70
     1
102
RTVSPost2010Prop37
 90
       50
102
RTVSPost2010PropOp37
 70
     1
102
RTVSPost2010Prop38
140
0.0
102
RTVSPost2010PropOp38
 70
     1
102
RTVSPost2010Prop39
140
1.0
102
RTVSPost2010PropOp39
 70
     1
102
RTVSPost2010Prop40
 90
        0
102
RTVSPost2010PropOp40
 70
     1
102
RTVSPost2010Prop41ColorIndex
 90
       18
102
RTVSPost2010Prop41ColorRGB
 90
        0
102
RTVSPost2010PropOp41
 70
     1
102
RTVSPost2010Prop42
 90
       50
102
RTVSPost2010PropOp42
 70
     1
102
RTVSPost2010Prop43
 90
        3
102
RTVSPost2010PropOp43
 70
     1
102
RTVSPost2010Prop44ColorIndex
 90
        5
102
RTVSPost2010Prop44ColorRGB
 90
      255
102
RTVSPost2010PropOp44
 70
     1
102
RTVSPost2010Prop45
280
     0
102
RTVSPost2010PropOp45
 70
     1
102
RTVSPost2010Prop46
 90
       50
102
RTVSPost2010PropOp46
 70
     1
102
RTVSPost2010Prop47
 90
       50
102
RTVSPost2010PropOp47
 70
     1
102
RTVSPost2010Prop48
 90
       50
102
RTVSPost2010PropOp48
 70
     1
102
RTVSPost2010Prop49
280
     0
102
RTVSPost2010PropOp49
 70
     1
102
RTVSPost2010Prop50
 90
       50
102
RTVSPost2010PropOp50
 70
     1
102
RTVSPost2010Prop51ColorIndex
 90
      256
102
RTVSPost2010Prop51ColorRGB
 90
-16777216
102
RTVSPost2010PropOp51
 70
     0
102
RTVSPost2010Prop52
140
1.0
102
RTVSPost2010PropOp52
 70
     0
102
RTVSPost2010Prop53
 90
        2
102
RTVSPost2010PropOp53
 70
     1
102
RTVSPost2010Prop54
  1
strokes_ogs.tif
102
RTVSPost2010PropOp54
 70
     1
102
RTVSPost2010Prop55
280
     0
102
RTVSPost2010PropOp55
 70
     1
102
RTVSPost2010Prop56
140
1.0
102
RTVSPost2010PropOp56
 70
     1
102
RTVSPost2010Prop57
140
1.0
102
RTVSPost2010PropOp57
 70
     1
  0
XRECORD
  5
F9
102
{ACAD_REACTORS
330
F8
102
}
330
F8
100
AcDbXrecord
280
     1
102
RTVSPropertyOp0
 70
     1
102
RTVSPropertyOp1
 70
     1
102
RTVSPropertyOp2
 70
     1
102
RTVSPropertyOp3
 70
     1
102
RTVSPropertyOp4
 70
     1
102
RTVSPropertyOp5
 70
     1
102
RTVSPropertyOp6
 70
     1
102
RTVSPropertyOp7
 70
     1
102
RTVSPropertyOp8
 70
     1
102
RTVSPropertyOp9
 70
     1
102
RTVSPropertyOp10
 70
     1
102
RTVSPropertyOp11
 70
     1
102
RTVSPropertyOp12
 70
     1
102
RTVSPropertyOp13
 70
     1
102
RTVSPropertyOp14
 70
     1
102
RTVSPropertyOp15
 70
     1
102
RTVSPropertyOp16
 70
     1
102
RTVSPropertyOp17
 70
     1
102
RTVSPropertyOp18
 70
     1
102
RTVSPropertyOp19
 70
     1
102
RTVSPropertyOp20
 70
     1
102
RTVSPropertyOp21
 70
     1
102
RTVSPropertyOp22
 70
     1
102
RTVSPropertyOp23
 70
     1
102
RTVSPropertyOp24
 70
     1
102
RTVSPropertyOp25
 70
     1
102
RTVSPropertyOp26
 70
     1
102
RTVSPropertyOp27
 70
     1
102
RTVSPropertyOp28
 70
     1
102
RTVSPropertyOp29
 70
     1
102
RTVSPropertyOp30
 70
     1
102
RTVSPropertyOp31
 70
     1
102
RTVSPropertyOp32
 70
     1
102
RTVSPropertyOp33
 70
     1
102
RTVSPropertyOp34
 70
     1
102
RTVSPropertyOp35
 70
     1
102
RTVSPropertyOp36
 70
     1
102
RTVSPropertyOp37
 70
     1
102
RTVSPropertyOp38
 70
     1
102
RTVSPropertyOp39
 70
     1
102
RTVSPropertyOp40
 70
     1
102
RTVSPropertyOp41
 70
     1
102
RTVSPropertyOp42
 70
     1
102
RTVSPropertyOp43
 70
     1
102
RTVSPropertyOp44
 70
     1
102
RTVSPropertyOp45
 70
     1
102
RTVSPropertyOp46
 70
     1
102
RTVSPropertyOp47
 70
     1
102
RTVSPropertyOp48
 70
     1
102
RTVSPropertyOp49
 70
     1
102
RTVSPropertyOp50
 70
     1
102
RTVSPropertyOp51
 70
     0
102
RTVSPropertyOp52
 70
     0
102
RTVSPropertyOp53
 70
     1
102
RTVSPropertyOp54
 70
     1
102
RTVSPropertyOp55
 70
     1
102
RTVSPropertyOp56
 70
     1
102
RTVSPropertyOp57
 70
     1
102
RTVSPost2010Prop28
280
     0
102
RTVSPost2010PropOp28
 70
     1
102
RTVSPost2010Prop29
280
     1
102
RTVSPost2010PropOp29
 70
     1
102
RTVSPost2010Prop30
280
     1
102
RTVSPost2010PropOp30
 70
     1
102
RTVSPost2010Prop31
280
     0
102
RTVSPost2010PropOp31
 70
     1
102
RTVSPost2010Prop32
280
     0
102
RTVSPost2010PropOp32
 70
     1
102
RTVSPost2010Prop33
280
     0
102
RTVSPost2010PropOp33
 70
     1
102
RTVSPost2010Prop34
280
     0
102
RTVSPost2010PropOp34
 70
     1
102
RTVSPost2010Prop35
280
     0
102
RTVSPost2010PropOp35
 70
     1
102
RTVSPost2010Prop36
280
     0
102
RTVSPost2010PropOp36
 70
     1
102
RTVSPost2010Prop37
 90
       50
102
RTVSPost2010PropOp37
 70
     1
102
RTVSPost2010Prop38
140
0.0
102
RTVSPost2010PropOp38
 70
     1
102
RTVSPost2010Prop39
140
1.0
102
RTVSPost2010PropOp39
 70
     1
102
RTVSPost2010Prop40
 90
        0
102
RTVSPost2010PropOp40
 70
     1
102
RTVSPost2010Prop41ColorIndex
 90
       18
102
RTVSPost2010Prop41ColorRGB
 90
        0
102
RTVSPost2010PropOp41
 70
     1
102
RTVSPost2010Prop42
 90
       50
102
RTVSPost2010PropOp42
 70
     1
102
RTVSPost2010Prop43
 90
        3
102
RTVSPost2010PropOp43
 70
     1
102
RTVSPost2010Prop44ColorIndex
 90
        5
102
RTVSPost2010Prop44ColorRGB
 90
      255
102
RTVSPost2010PropOp44
 70
     1
102
RTVSPost2010Prop45
280
     0
102
RTVSPost2010PropOp45
 70
     1
102
RTVSPost2010Prop46
 90
       50
102
RTVSPost2010PropOp46
 70
     1
102
RTVSPost2010Prop47
 90
       50
102
RTVSPost2010PropOp47
 70
     1
102
RTVSPost2010Prop48
 90
       50
102
RTVSPost2010PropOp48
 70
     1
102
RTVSPost2010Prop49
280
     0
102
RTVSPost2010PropOp49
 70
     1
102
RTVSPost2010Prop50
 90
       50
102
RTVSPost2010PropOp50
 70
     1
102
RTVSPost2010Prop51ColorIndex
 90
      256
102
RTVSPost2010Prop51ColorRGB
 90
-16777216
102
RTVSPost2010PropOp51
 70
     0
102
RTVSPost2010Prop52
140
1.0
102
RTVSPost2010PropOp52
 70
     0
102
RTVSPost2010Prop53
 90
        2
102
RTVSPost2010PropOp53
 70
     1
102
RTVSPost2010Prop54
  1
strokes_ogs.tif
102
RTVSPost2010PropOp54
 70
     1
102
RTVSPost2010Prop55
280
     0
102
RTVSPost2010PropOp55
 70
     1
102
RTVSPost2010Prop56
140
1.0
102
RTVSPost2010PropOp56
 70
     1
102
RTVSPost2010Prop57
140
1.0
102
RTVSPost2010PropOp57
 70
     1
  0
XRECORD
  5
10D
102
{ACAD_REACTORS
330
10C
102
}
330
10C
100
AcDbXrecord
280
     1
102
RTVSPropertyOp0
 70
     0
102
RTVSPropertyOp1
 70
     0
102
RTVSPropertyOp2
 70
     0
102
RTVSPropertyOp3
 70
     0
102
RTVSPropertyOp4
 70
     0
102
RTVSPropertyOp5
 70
     0
102
RTVSPropertyOp6
 70
     0
102
RTVSPropertyOp7
 70
     0
102
RTVSPropertyOp8
 70
     0
102
RTVSPropertyOp9
 70
     0
102
RTVSPropertyOp10
 70
     0
102
RTVSPropertyOp11
 70
     0
102
RTVSPropertyOp12
 70
     0
102
RTVSPropertyOp13
 70
     0
102
RTVSPropertyOp14
 70
     2
102
RTVSPropertyOp15
 70
     0
102
RTVSPropertyOp16
 70
     0
102
RTVSPropertyOp17
 70
     0
102
RTVSPropertyOp18
 70
     0
102
RTVSPropertyOp19
 70
     0
102
RTVSPropertyOp20
 70
     0
102
RTVSPropertyOp21
 70
     0
102
RTVSPropertyOp22
 70
     0
102
RTVSPropertyOp23
 70
     0
102
RTVSPropertyOp24
 70
     0
102
RTVSPropertyOp25
 70
     0
102
RTVSPropertyOp26
 70
     0
102
RTVSPropertyOp27
 70
     0
102
RTVSPropertyOp28
 70
     0
102
RTVSPropertyOp29
 70
     0
102
RTVSPropertyOp30
 70
     0
102
RTVSPropertyOp31
 70
     0
102
RTVSPropertyOp32
 70
     0
102
RTVSPropertyOp33
 70
     0
102
RTVSPropertyOp34
 70
     0
102
RTVSPropertyOp35
 70
     0
102
RTVSPropertyOp36
 70
     0
102
RTVSPropertyOp37
 70
     0
102
RTVSPropertyOp38
 70
     0
102
RTVSPropertyOp39
 70
     0
102
RTVSPropertyOp40
 70
     0
102
RTVSPropertyOp41
 70
     0
102
RTVSPropertyOp42
 70
     0
102
RTVSPropertyOp43
 70
     0
102
RTVSPropertyOp44
 70
     0
102
RTVSPropertyOp45
 70
     0
102
RTVSPropertyOp46
 70
     0
102
RTVSPropertyOp47
 70
     0
102
RTVSPropertyOp48
 70
     0
102
RTVSPropertyOp49
 70
     0
102
RTVSPropertyOp50
 70
     0
102
RTVSPropertyOp51
 70
     0
102
RTVSPropertyOp52
 70
     0
102
RTVSPropertyOp53
 70
     0
102
RTVSPropertyOp54
 70
     0
102
RTVSPropertyOp55
 70
     0
102
RTVSPropertyOp56
 70
     0
102
RTVSPropertyOp57
 70
     0
102
RTVSPost2010Prop28
280
     0
102
RTVSPost2010PropOp28
 70
     0
102
RTVSPost2010Prop29
280
     1
102
RTVSPost2010PropOp29
 70
     0
102
RTVSPost2010Prop30
280
     1
102
RTVSPost2010PropOp30
 70
     0
102
RTVSPost2010Prop31
280
     0
102
RTVSPost2010PropOp31
 70
     0
102
RTVSPost2010Prop32
280
     0
102
RTVSPost2010PropOp32
 70
     0
102
RTVSPost2010Prop33
280
     0
102
RTVSPost2010PropOp33
 70
     0
102
RTVSPost2010Prop34
280
     0
102
RTVSPost2010PropOp34
 70
     0
102
RTVSPost2010Prop35
280
     0
102
RTVSPost2010PropOp35
 70
     0
102
RTVSPost2010Prop36
280
     0
102
RTVSPost2010PropOp36
 70
     0
102
RTVSPost2010Prop37
 90
       50
102
RTVSPost2010PropOp37
 70
     0
102
RTVSPost2010Prop38
140
0.0
102
RTVSPost2010PropOp38
 70
     0
102
RTVSPost2010Prop39
140
1.0
102
RTVSPost2010PropOp39
 70
     0
102
RTVSPost2010Prop40
 90
        0
102
RTVSPost2010PropOp40
 70
     0
102
RTVSPost2010Prop41ColorIndex
 90
       18
102
RTVSPost2010Prop41ColorRGB
 90
        0
102
RTVSPost2010PropOp41
 70
     0
102
RTVSPost2010Prop42
 90
       50
102
RTVSPost2010PropOp42
 70
     0
102
RTVSPost2010Prop43
 90
        3
102
RTVSPost2010PropOp43
 70
     0
102
RTVSPost2010Prop44ColorIndex
 90
        5
102
RTVSPost2010Prop44ColorRGB
 90
      255
102
RTVSPost2010PropOp44
 70
     0
102
RTVSPost2010Prop45
280
     0
102
RTVSPost2010PropOp45
 70
     0
102
RTVSPost2010Prop46
 90
       50
102
RTVSPost2010PropOp46
 70
     0
102
RTVSPost2010Prop47
 90
       50
102
RTVSPost2010PropOp47
 70
     0
102
RTVSPost2010Prop48
 90
       50
102
RTVSPost2010PropOp48
 70
     0
102
RTVSPost2010Prop49
280
     0
102
RTVSPost2010PropOp49
 70
     0
102
RTVSPost2010Prop50
 90
       50
102
RTVSPost2010PropOp50
 70
     0
102
RTVSPost2010Prop51ColorIndex
 90
      256
102
RTVSPost2010Prop51ColorRGB
 90
-16777216
102
RTVSPost2010PropOp51
 70
     0
102
RTVSPost2010Prop52
140
1.0
102
RTVSPost2010PropOp52
 70
     0
102
RTVSPost2010Prop53
 90
        2
102
RTVSPost2010PropOp53
 70
     0
102
RTVSPost2010Prop54
  1
strokes_ogs.tif
102
RTVSPost2010PropOp54
 70
     0
102
RTVSPost2010Prop55
280
     0
102
RTVSPost2010PropOp55
 70
     0
102
RTVSPost2010Prop56
140
1.0
102
RTVSPost2010PropOp56
 70
     0
102
RTVSPost2010Prop57
140
1.0
102
RTVSPost2010PropOp57
 70
     0
  0
XRECORD
  5
107
102
{ACAD_REACTORS
330
106
102
}
330
106
100
AcDbXrecord
280
     1
102
RTVSPropertyOp0
 70
     1
102
RTVSPropertyOp1
 70
     1
102
RTVSPropertyOp2
 70
     1
102
RTVSPropertyOp3
 70
     1
102
RTVSPropertyOp4
 70
     1
102
RTVSPropertyOp5
 70
     1
102
RTVSPropertyOp6
 70
     1
102
RTVSPropertyOp7
 70
     1
102
RTVSPropertyOp8
 70
     1
102
RTVSPropertyOp9
 70
     1
102
RTVSPropertyOp10
 70
     1
102
RTVSPropertyOp11
 70
     1
102
RTVSPropertyOp12
 70
     1
102
RTVSPropertyOp13
 70
     1
102
RTVSPropertyOp14
 70
     1
102
RTVSPropertyOp15
 70
     1
102
RTVSPropertyOp16
 70
     1
102
RTVSPropertyOp17
 70
     1
102
RTVSPropertyOp18
 70
     1
102
RTVSPropertyOp19
 70
     1
102
RTVSPropertyOp20
 70
     1
102
RTVSPropertyOp21
 70
     1
102
RTVSPropertyOp22
 70
     1
102
RTVSPropertyOp23
 70
     1
102
RTVSPropertyOp24
 70
     1
102
RTVSPropertyOp25
 70
     1
102
RTVSPropertyOp26
 70
     1
102
RTVSPropertyOp27
 70
     1
102
RTVSPropertyOp28
 70
     1
102
RTVSPropertyOp29
 70
     1
102
RTVSPropertyOp30
 70
     1
102
RTVSPropertyOp31
 70
     1
102
RTVSPropertyOp32
 70
     1
102
RTVSPropertyOp33
 70
     1
102
RTVSPropertyOp34
 70
     1
102
RTVSPropertyOp35
 70
     1
102
RTVSPropertyOp36
 70
     1
102
RTVSPropertyOp37
 70
     1
102
RTVSPropertyOp38
 70
     1
102
RTVSPropertyOp39
 70
     1
102
RTVSPropertyOp40
 70
     1
102
RTVSPropertyOp41
 70
     1
102
RTVSPropertyOp42
 70
     1
102
RTVSPropertyOp43
 70
     1
102
RTVSPropertyOp44
 70
     1
102
RTVSPropertyOp45
 70
     1
102
RTVSPropertyOp46
 70
     1
102
RTVSPropertyOp47
 70
     1
102
RTVSPropertyOp48
 70
     1
102
RTVSPropertyOp49
 70
     1
102
RTVSPropertyOp50
 70
     1
102
RTVSPropertyOp51
 70
     0
102
RTVSPropertyOp52
 70
     0
102
RTVSPropertyOp53
 70
     1
102
RTVSPropertyOp54
 70
     1
102
RTVSPropertyOp55
 70
     1
102
RTVSPropertyOp56
 70
     1
102
RTVSPropertyOp57
 70
     1
102
RTVSPost2010Prop28
280
     0
102
RTVSPost2010PropOp28
 70
     1
102
RTVSPost2010Prop29
280
     1
102
RTVSPost2010PropOp29
 70
     1
102
RTVSPost2010Prop30
280
     1
102
RTVSPost2010PropOp30
 70
     1
102
RTVSPost2010Prop31
280
     0
102
RTVSPost2010PropOp31
 70
     1
102
RTVSPost2010Prop32
280
     0
102
RTVSPost2010PropOp32
 70
     1
102
RTVSPost2010Prop33
280
     0
102
RTVSPost2010PropOp33
 70
     1
102
RTVSPost2010Prop34
280
     0
102
RTVSPost2010PropOp34
 70
     1
102
RTVSPost2010Prop35
280
     0
102
RTVSPost2010PropOp35
 70
     1
102
RTVSPost2010Prop36
280
     0
102
RTVSPost2010PropOp36
 70
     1
102
RTVSPost2010Prop37
 90
       50
102
RTVSPost2010PropOp37
 70
     1
102
RTVSPost2010Prop38
140
0.0
102
RTVSPost2010PropOp38
 70
     1
102
RTVSPost2010Prop39
140
1.0
102
RTVSPost2010PropOp39
 70
     1
102
RTVSPost2010Prop40
 90
        0
102
RTVSPost2010PropOp40
 70
     1
102
RTVSPost2010Prop41ColorIndex
 90
       18
102
RTVSPost2010Prop41ColorRGB
 90
        0
102
RTVSPost2010PropOp41
 70
     1
102
RTVSPost2010Prop42
 90
       50
102
RTVSPost2010PropOp42
 70
     1
102
RTVSPost2010Prop43
 90
        3
102
RTVSPost2010PropOp43
 70
     1
102
RTVSPost2010Prop44ColorIndex
 90
        5
102
RTVSPost2010Prop44ColorRGB
 90
      255
102
RTVSPost2010PropOp44
 70
     1
102
RTVSPost2010Prop45
280
     0
102
RTVSPost2010PropOp45
 70
     1
102
RTVSPost2010Prop46
 90
       50
102
RTVSPost2010PropOp46
 70
     1
102
RTVSPost2010Prop47
 90
       50
102
RTVSPost2010PropOp47
 70
     1
102
RTVSPost2010Prop48
 90
       50
102
RTVSPost2010PropOp48
 70
     1
102
RTVSPost2010Prop49
280
     0
102
RTVSPost2010PropOp49
 70
     1
102
RTVSPost2010Prop50
 90
       50
102
RTVSPost2010PropOp50
 70
     1
102
RTVSPost2010Prop51ColorIndex
 90
      256
102
RTVSPost2010Prop51ColorRGB
 90
-16777216
102
RTVSPost2010PropOp51
 70
     0
102
RTVSPost2010Prop52
140
1.0
102
RTVSPost2010PropOp52
 70
     0
102
RTVSPost2010Prop53
 90
        2
102
RTVSPost2010PropOp53
 70
     1
102
RTVSPost2010Prop54
  1
strokes_ogs.tif
102
RTVSPost2010PropOp54
 70
     1
102
RTVSPost2010Prop55
280
     0
102
RTVSPost2010PropOp55
 70
     1
102
RTVSPost2010Prop56
140
1.0
102
RTVSPost2010PropOp56
 70
     1
102
RTVSPost2010Prop57
140
1.0
102
RTVSPost2010PropOp57
 70
     1
  0
XRECORD
  5
10F
102
{ACAD_REACTORS
330
10E
102
}
330
10E
100
AcDbXrecord
280
     1
102
RTVSPropertyOp0
 70
     0
102
RTVSPropertyOp1
 70
     0
102
RTVSPropertyOp2
 70
     0
102
RTVSPropertyOp3
 70
     0
102
RTVSPropertyOp4
 70
     0
102
RTVSPropertyOp5
 70
     0
102
RTVSPropertyOp6
 70
     0
102
RTVSPropertyOp7
 70
     0
102
RTVSPropertyOp8
 70
     0
102
RTVSPropertyOp9
 70
     0
102
RTVSPropertyOp10
 70
     0
102
RTVSPropertyOp11
 70
     0
102
RTVSPropertyOp12
 70
     0
102
RTVSPropertyOp13
 70
     0
102
RTVSPropertyOp14
 70
     2
102
RTVSPropertyOp15
 70
     0
102
RTVSPropertyOp16
 70
     0
102
RTVSPropertyOp17
 70
     0
102
RTVSPropertyOp18
 70
     0
102
RTVSPropertyOp19
 70
     0
102
RTVSPropertyOp20
 70
     0
102
RTVSPropertyOp21
 70
     0
102
RTVSPropertyOp22
 70
     0
102
RTVSPropertyOp23
 70
     0
102
RTVSPropertyOp24
 70
     0
102
RTVSPropertyOp25
 70
     0
102
RTVSPropertyOp26
 70
     0
102
RTVSPropertyOp27
 70
     0
102
RTVSPropertyOp28
 70
     0
102
RTVSPropertyOp29
 70
     0
102
RTVSPropertyOp30
 70
     0
102
RTVSPropertyOp31
 70
     0
102
RTVSPropertyOp32
 70
     0
102
RTVSPropertyOp33
 70
     0
102
RTVSPropertyOp34
 70
     0
102
RTVSPropertyOp35
 70
     0
102
RTVSPropertyOp36
 70
     0
102
RTVSPropertyOp37
 70
     0
102
RTVSPropertyOp38
 70
     0
102
RTVSPropertyOp39
 70
     0
102
RTVSPropertyOp40
 70
     0
102
RTVSPropertyOp41
 70
     0
102
RTVSPropertyOp42
 70
     0
102
RTVSPropertyOp43
 70
     0
102
RTVSPropertyOp44
 70
     0
102
RTVSPropertyOp45
 70
     0
102
RTVSPropertyOp46
 70
     0
102
RTVSPropertyOp47
 70
     0
102
RTVSPropertyOp48
 70
     0
102
RTVSPropertyOp49
 70
     0
102
RTVSPropertyOp50
 70
     0
102
RTVSPropertyOp51
 70
     0
102
RTVSPropertyOp52
 70
     0
102
RTVSPropertyOp53
 70
     0
102
RTVSPropertyOp54
 70
     0
102
RTVSPropertyOp55
 70
     0
102
RTVSPropertyOp56
 70
     0
102
RTVSPropertyOp57
 70
     0
102
RTVSPost2010Prop28
280
     0
102
RTVSPost2010PropOp28
 70
     0
102
RTVSPost2010Prop29
280
     1
102
RTVSPost2010PropOp29
 70
     0
102
RTVSPost2010Prop30
280
     1
102
RTVSPost2010PropOp30
 70
     0
102
RTVSPost2010Prop31
280
     0
102
RTVSPost2010PropOp31
 70
     0
102
RTVSPost2010Prop32
280
     0
102
RTVSPost2010PropOp32
 70
     0
102
RTVSPost2010Prop33
280
     0
102
RTVSPost2010PropOp33
 70
     0
102
RTVSPost2010Prop34
280
     0
102
RTVSPost2010PropOp34
 70
     0
102
RTVSPost2010Prop35
280
     0
102
RTVSPost2010PropOp35
 70
     0
102
RTVSPost2010Prop36
280
     0
102
RTVSPost2010PropOp36
 70
     0
102
RTVSPost2010Prop37
 90
       50
102
RTVSPost2010PropOp37
 70
     0
102
RTVSPost2010Prop38
140
0.0
102
RTVSPost2010PropOp38
 70
     0
102
RTVSPost2010Prop39
140
1.0
102
RTVSPost2010PropOp39
 70
     0
102
RTVSPost2010Prop40
 90
        0
102
RTVSPost2010PropOp40
 70
     0
102
RTVSPost2010Prop41ColorIndex
 90
       18
102
RTVSPost2010Prop41ColorRGB
 90
        0
102
RTVSPost2010PropOp41
 70
     0
102
RTVSPost2010Prop42
 90
       50
102
RTVSPost2010PropOp42
 70
     0
102
RTVSPost2010Prop43
 90
        3
102
RTVSPost2010PropOp43
 70
     0
102
RTVSPost2010Prop44ColorIndex
 90
        5
102
RTVSPost2010Prop44ColorRGB
 90
      255
102
RTVSPost2010PropOp44
 70
     0
102
RTVSPost2010Prop45
280
     0
102
RTVSPost2010PropOp45
 70
     0
102
RTVSPost2010Prop46
 90
       50
102
RTVSPost2010PropOp46
 70
     0
102
RTVSPost2010Prop47
 90
       50
102
RTVSPost2010PropOp47
 70
     0
102
RTVSPost2010Prop48
 90
       50
102
RTVSPost2010PropOp48
 70
     0
102
RTVSPost2010Prop49
280
     0
102
RTVSPost2010PropOp49
 70
     0
102
RTVSPost2010Prop50
 90
       50
102
RTVSPost2010PropOp50
 70
     0
102
RTVSPost2010Prop51ColorIndex
 90
      256
102
RTVSPost2010Prop51ColorRGB
 90
-16777216
102
RTVSPost2010PropOp51
 70
     0
102
RTVSPost2010Prop52
140
1.0
102
RTVSPost2010PropOp52
 70
     0
102
RTVSPost2010Prop53
 90
        2
102
RTVSPost2010PropOp53
 70
     0
102
RTVSPost2010Prop54
  1
strokes_ogs.tif
102
RTVSPost2010PropOp54
 70
     0
102
RTVSPost2010Prop55
280
     0
102
RTVSPost2010PropOp55
 70
     0
102
RTVSPost2010Prop56
140
1.0
102
RTVSPost2010PropOp56
 70
     0
102
RTVSPost2010Prop57
140
1.0
102
RTVSPost2010PropOp57
 70
     0
  0
XRECORD
  5
FD
102
{ACAD_REACTORS
330
FC
102
}
330
FC
100
AcDbXrecord
280
     1
102
RTVSPropertyOp0
 70
     1
102
RTVSPropertyOp1
 70
     1
102
RTVSPropertyOp2
 70
     1
102
RTVSPropertyOp3
 70
     1
102
RTVSPropertyOp4
 70
     1
102
RTVSPropertyOp5
 70
     1
102
RTVSPropertyOp6
 70
     1
102
RTVSPropertyOp7
 70
     1
102
RTVSPropertyOp8
 70
     1
102
RTVSPropertyOp9
 70
     1
102
RTVSPropertyOp10
 70
     1
102
RTVSPropertyOp11
 70
     1
102
RTVSPropertyOp12
 70
     1
102
RTVSPropertyOp13
 70
     1
102
RTVSPropertyOp14
 70
     1
102
RTVSPropertyOp15
 70
     1
102
RTVSPropertyOp16
 70
     1
102
RTVSPropertyOp17
 70
     1
102
RTVSPropertyOp18
 70
     1
102
RTVSPropertyOp19
 70
     1
102
RTVSPropertyOp20
 70
     1
102
RTVSPropertyOp21
 70
     1
102
RTVSPropertyOp22
 70
     1
102
RTVSPropertyOp23
 70
     1
102
RTVSPropertyOp24
 70
     1
102
RTVSPropertyOp25
 70
     1
102
RTVSPropertyOp26
 70
     1
102
RTVSPropertyOp27
 70
     1
102
RTVSPropertyOp28
 70
     1
102
RTVSPropertyOp29
 70
     1
102
RTVSPropertyOp30
 70
     1
102
RTVSPropertyOp31
 70
     1
102
RTVSPropertyOp32
 70
     1
102
RTVSPropertyOp33
 70
     1
102
RTVSPropertyOp34
 70
     1
102
RTVSPropertyOp35
 70
     1
102
RTVSPropertyOp36
 70
     1
102
RTVSPropertyOp37
 70
     1
102
RTVSPropertyOp38
 70
     1
102
RTVSPropertyOp39
 70
     1
102
RTVSPropertyOp40
 70
     1
102
RTVSPropertyOp41
 70
     1
102
RTVSPropertyOp42
 70
     1
102
RTVSPropertyOp43
 70
     1
102
RTVSPropertyOp44
 70
     1
102
RTVSPropertyOp45
 70
     1
102
RTVSPropertyOp46
 70
     1
102
RTVSPropertyOp47
 70
     1
102
RTVSPropertyOp48
 70
     1
102
RTVSPropertyOp49
 70
     1
102
RTVSPropertyOp50
 70
     1
102
RTVSPropertyOp51
 70
     0
102
RTVSPropertyOp52
 70
     0
102
RTVSPropertyOp53
 70
     1
102
RTVSPropertyOp54
 70
     1
102
RTVSPropertyOp55
 70
     1
102
RTVSPropertyOp56
 70
     1
102
RTVSPropertyOp57
 70
     1
102
RTVSPost2010Prop28
280
     0
102
RTVSPost2010PropOp28
 70
     1
102
RTVSPost2010Prop29
280
     1
102
RTVSPost2010PropOp29
 70
     1
102
RTVSPost2010Prop30
280
     1
102
RTVSPost2010PropOp30
 70
     1
102
RTVSPost2010Prop31
280
     0
102
RTVSPost2010PropOp31
 70
     1
102
RTVSPost2010Prop32
280
     0
102
RTVSPost2010PropOp32
 70
     1
102
RTVSPost2010Prop33
280
     0
102
RTVSPost2010PropOp33
 70
     1
102
RTVSPost2010Prop34
280
     0
102
RTVSPost2010PropOp34
 70
     1
102
RTVSPost2010Prop35
280
     0
102
RTVSPost2010PropOp35
 70
     1
102
RTVSPost2010Prop36
280
     0
102
RTVSPost2010PropOp36
 70
     1
102
RTVSPost2010Prop37
 90
       50
102
RTVSPost2010PropOp37
 70
     1
102
RTVSPost2010Prop38
140
0.0
102
RTVSPost2010PropOp38
 70
     1
102
RTVSPost2010Prop39
140
1.0
102
RTVSPost2010PropOp39
 70
     1
102
RTVSPost2010Prop40
 90
        0
102
RTVSPost2010PropOp40
 70
     1
102
RTVSPost2010Prop41ColorIndex
 90
       18
102
RTVSPost2010Prop41ColorRGB
 90
        0
102
RTVSPost2010PropOp41
 70
     1
102
RTVSPost2010Prop42
 90
       50
102
RTVSPost2010PropOp42
 70
     1
102
RTVSPost2010Prop43
 90
        3
102
RTVSPost2010PropOp43
 70
     1
102
RTVSPost2010Prop44ColorIndex
 90
        5
102
RTVSPost2010Prop44ColorRGB
 90
      255
102
RTVSPost2010PropOp44
 70
     1
102
RTVSPost2010Prop45
280
     0
102
RTVSPost2010PropOp45
 70
     1
102
RTVSPost2010Prop46
 90
       50
102
RTVSPost2010PropOp46
 70
     1
102
RTVSPost2010Prop47
 90
       50
102
RTVSPost2010PropOp47
 70
     1
102
RTVSPost2010Prop48
 90
       50
102
RTVSPost2010PropOp48
 70
     1
102
RTVSPost2010Prop49
280
     0
102
RTVSPost2010PropOp49
 70
     1
102
RTVSPost2010Prop50
 90
       50
102
RTVSPost2010PropOp50
 70
     1
102
RTVSPost2010Prop51ColorIndex
 90
      256
102
RTVSPost2010Prop51ColorRGB
 90
-16777216
102
RTVSPost2010PropOp51
 70
     0
102
RTVSPost2010Prop52
140
1.0
102
RTVSPost2010PropOp52
 70
     0
102
RTVSPost2010Prop53
 90
        2
102
RTVSPost2010PropOp53
 70
     1
102
RTVSPost2010Prop54
  1
strokes_ogs.tif
102
RTVSPost2010PropOp54
 70
     1
102
RTVSPost2010Prop55
280
     0
102
RTVSPost2010PropOp55
 70
     1
102
RTVSPost2010Prop56
140
1.0
102
RTVSPost2010PropOp56
 70
     1
102
RTVSPost2010Prop57
140
1.0
102
RTVSPost2010PropOp57
 70
     1
  0
XRECORD
  5
11B
102
{ACAD_REACTORS
330
11A
102
}
330
11A
100
AcDbXrecord
280
     1
102
RTVSPropertyOp0
 70
     1
102
RTVSPropertyOp1
 70
     1
102
RTVSPropertyOp2
 70
     1
102
RTVSPropertyOp3
 70
     1
102
RTVSPropertyOp4
 70
     1
102
RTVSPropertyOp5
 70
     1
102
RTVSPropertyOp6
 70
     1
102
RTVSPropertyOp7
 70
     1
102
RTVSPropertyOp8
 70
     1
102
RTVSPropertyOp9
 70
     1
102
RTVSPropertyOp10
 70
     1
102
RTVSPropertyOp11
 70
     1
102
RTVSPropertyOp12
 70
     1
102
RTVSPropertyOp13
 70
     1
102
RTVSPropertyOp14
 70
     1
102
RTVSPropertyOp15
 70
     1
102
RTVSPropertyOp16
 70
     1
102
RTVSPropertyOp17
 70
     1
102
RTVSPropertyOp18
 70
     1
102
RTVSPropertyOp19
 70
     1
102
RTVSPropertyOp20
 70
     1
102
RTVSPropertyOp21
 70
     1
102
RTVSPropertyOp22
 70
     1
102
RTVSPropertyOp23
 70
     1
102
RTVSPropertyOp24
 70
     1
102
RTVSPropertyOp25
 70
     1
102
RTVSPropertyOp26
 70
     1
102
RTVSPropertyOp27
 70
     1
102
RTVSPropertyOp28
 70
     1
102
RTVSPropertyOp29
 70
     1
102
RTVSPropertyOp30
 70
     1
102
RTVSPropertyOp31
 70
     1
102
RTVSPropertyOp32
 70
     1
102
RTVSPropertyOp33
 70
     1
102
RTVSPropertyOp34
 70
     1
102
RTVSPropertyOp35
 70
     1
102
RTVSPropertyOp36
 70
     1
102
RTVSPropertyOp37
 70
     1
102
RTVSPropertyOp38
 70
     1
102
RTVSPropertyOp39
 70
     1
102
RTVSPropertyOp40
 70
     1
102
RTVSPropertyOp41
 70
     1
102
RTVSPropertyOp42
 70
     1
102
RTVSPropertyOp43
 70
     1
102
RTVSPropertyOp44
 70
     1
102
RTVSPropertyOp45
 70
     1
102
RTVSPropertyOp46
 70
     1
102
RTVSPropertyOp47
 70
     1
102
RTVSPropertyOp48
 70
     1
102
RTVSPropertyOp49
 70
     1
102
RTVSPropertyOp50
 70
     1
102
RTVSPropertyOp51
 70
     0
102
RTVSPropertyOp52
 70
     0
102
RTVSPropertyOp53
 70
     1
102
RTVSPropertyOp54
 70
     1
102
RTVSPropertyOp55
 70
     1
102
RTVSPropertyOp56
 70
     1
102
RTVSPropertyOp57
 70
     1
102
RTVSPost2010Prop28
280
     0
102
RTVSPost2010PropOp28
 70
     1
102
RTVSPost2010Prop29
280
     1
102
RTVSPost2010PropOp29
 70
     1
102
RTVSPost2010Prop30
280
     1
102
RTVSPost2010PropOp30
 70
     1
102
RTVSPost2010Prop31
280
     0
102
RTVSPost2010PropOp31
 70
     1
102
RTVSPost2010Prop32
280
     0
102
RTVSPost2010PropOp32
 70
     1
102
RTVSPost2010Prop33
280
     0
102
RTVSPost2010PropOp33
 70
     1
102
RTVSPost2010Prop34
280
     0
102
RTVSPost2010PropOp34
 70
     1
102
RTVSPost2010Prop35
280
     0
102
RTVSPost2010PropOp35
 70
     1
102
RTVSPost2010Prop36
280
     0
102
RTVSPost2010PropOp36
 70
     1
102
RTVSPost2010Prop37
 90
       50
102
RTVSPost2010PropOp37
 70
     1
102
RTVSPost2010Prop38
140
0.0
102
RTVSPost2010PropOp38
 70
     1
102
RTVSPost2010Prop39
140
1.0
102
RTVSPost2010PropOp39
 70
     1
102
RTVSPost2010Prop40
 90
        0
102
RTVSPost2010PropOp40
 70
     1
102
RTVSPost2010Prop41ColorIndex
 90
       18
102
RTVSPost2010Prop41ColorRGB
 90
        0
102
RTVSPost2010PropOp41
 70
     1
102
RTVSPost2010Prop42
 90
       50
102
RTVSPost2010PropOp42
 70
     1
102
RTVSPost2010Prop43
 90
        3
102
RTVSPost2010PropOp43
 70
     1
102
RTVSPost2010Prop44ColorIndex
 90
        5
102
RTVSPost2010Prop44ColorRGB
 90
      255
102
RTVSPost2010PropOp44
 70
     1
102
RTVSPost2010Prop45
280
     0
102
RTVSPost2010PropOp45
 70
     1
102
RTVSPost2010Prop46
 90
       50
102
RTVSPost2010PropOp46
 70
     1
102
RTVSPost2010Prop47
 90
       50
102
RTVSPost2010PropOp47
 70
     1
102
RTVSPost2010Prop48
 90
       50
102
RTVSPost2010PropOp48
 70
     1
102
RTVSPost2010Prop49
280
     0
102
RTVSPost2010PropOp49
 70
     1
102
RTVSPost2010Prop50
 90
       50
102
RTVSPost2010PropOp50
 70
     1
102
RTVSPost2010Prop51ColorIndex
 90
      256
102
RTVSPost2010Prop51ColorRGB
 90
-16777216
102
RTVSPost2010PropOp51
 70
     0
102
RTVSPost2010Prop52
140
1.0
102
RTVSPost2010PropOp52
 70
     0
102
RTVSPost2010Prop53
 90
        2
102
RTVSPost2010PropOp53
 70
     1
102
RTVSPost2010Prop54
  1
strokes_ogs.tif
102
RTVSPost2010PropOp54
 70
     1
102
RTVSPost2010Prop55
280
     0
102
RTVSPost2010PropOp55
 70
     1
102
RTVSPost2010Prop56
140
1.0
102
RTVSPost2010PropOp56
 70
     1
102
RTVSPost2010Prop57
140
1.0
102
RTVSPost2010PropOp57
 70
     1
  0
XRECORD
  5
119
102
{ACAD_REACTORS
330
118
102
}
330
118
100
AcDbXrecord
280
     1
102
RTVSPropertyOp0
 70
     1
102
RTVSPropertyOp1
 70
     1
102
RTVSPropertyOp2
 70
     1
102
RTVSPropertyOp3
 70
     1
102
RTVSPropertyOp4
 70
     1
102
RTVSPropertyOp5
 70
     1
102
RTVSPropertyOp6
 70
     1
102
RTVSPropertyOp7
 70
     1
102
RTVSPropertyOp8
 70
     1
102
RTVSPropertyOp9
 70
     1
102
RTVSPropertyOp10
 70
     1
102
RTVSPropertyOp11
 70
     1
102
RTVSPropertyOp12
 70
     1
102
RTVSPropertyOp13
 70
     1
102
RTVSPropertyOp14
 70
     1
102
RTVSPropertyOp15
 70
     1
102
RTVSPropertyOp16
 70
     1
102
RTVSPropertyOp17
 70
     1
102
RTVSPropertyOp18
 70
     1
102
RTVSPropertyOp19
 70
     1
102
RTVSPropertyOp20
 70
     1
102
RTVSPropertyOp21
 70
     1
102
RTVSPropertyOp22
 70
     1
102
RTVSPropertyOp23
 70
     1
102
RTVSPropertyOp24
 70
     1
102
RTVSPropertyOp25
 70
     1
102
RTVSPropertyOp26
 70
     1
102
RTVSPropertyOp27
 70
     1
102
RTVSPropertyOp28
 70
     1
102
RTVSPropertyOp29
 70
     1
102
RTVSPropertyOp30
 70
     1
102
RTVSPropertyOp31
 70
     1
102
RTVSPropertyOp32
 70
     1
102
RTVSPropertyOp33
 70
     1
102
RTVSPropertyOp34
 70
     1
102
RTVSPropertyOp35
 70
     1
102
RTVSPropertyOp36
 70
     1
102
RTVSPropertyOp37
 70
     1
102
RTVSPropertyOp38
 70
     1
102
RTVSPropertyOp39
 70
     1
102
RTVSPropertyOp40
 70
     1
102
RTVSPropertyOp41
 70
     1
102
RTVSPropertyOp42
 70
     1
102
RTVSPropertyOp43
 70
     1
102
RTVSPropertyOp44
 70
     1
102
RTVSPropertyOp45
 70
     1
102
RTVSPropertyOp46
 70
     1
102
RTVSPropertyOp47
 70
     1
102
RTVSPropertyOp48
 70
     1
102
RTVSPropertyOp49
 70
     1
102
RTVSPropertyOp50
 70
     1
102
RTVSPropertyOp51
 70
     0
102
RTVSPropertyOp52
 70
     0
102
RTVSPropertyOp53
 70
     1
102
RTVSPropertyOp54
 70
     1
102
RTVSPropertyOp55
 70
     1
102
RTVSPropertyOp56
 70
     1
102
RTVSPropertyOp57
 70
     1
102
RTVSPost2010Prop28
280
     0
102
RTVSPost2010PropOp28
 70
     1
102
RTVSPost2010Prop29
280
     1
102
RTVSPost2010PropOp29
 70
     1
102
RTVSPost2010Prop30
280
     1
102
RTVSPost2010PropOp30
 70
     1
102
RTVSPost2010Prop31
280
     0
102
RTVSPost2010PropOp31
 70
     1
102
RTVSPost2010Prop32
280
     0
102
RTVSPost2010PropOp32
 70
     1
102
RTVSPost2010Prop33
280
     0
102
RTVSPost2010PropOp33
 70
     1
102
RTVSPost2010Prop34
280
     0
102
RTVSPost2010PropOp34
 70
     1
102
RTVSPost2010Prop35
280
     0
102
RTVSPost2010PropOp35
 70
     1
102
RTVSPost2010Prop36
280
     0
102
RTVSPost2010PropOp36
 70
     1
102
RTVSPost2010Prop37
 90
       50
102
RTVSPost2010PropOp37
 70
     1
102
RTVSPost2010Prop38
140
0.0
102
RTVSPost2010PropOp38
 70
     1
102
RTVSPost2010Prop39
140
1.0
102
RTVSPost2010PropOp39
 70
     1
102
RTVSPost2010Prop40
 90
        0
102
RTVSPost2010PropOp40
 70
     1
102
RTVSPost2010Prop41ColorIndex
 90
       18
102
RTVSPost2010Prop41ColorRGB
 90
        0
102
RTVSPost2010PropOp41
 70
     1
102
RTVSPost2010Prop42
 90
       50
102
RTVSPost2010PropOp42
 70
     1
102
RTVSPost2010Prop43
 90
        3
102
RTVSPost2010PropOp43
 70
     1
102
RTVSPost2010Prop44ColorIndex
 90
        5
102
RTVSPost2010Prop44ColorRGB
 90
      255
102
RTVSPost2010PropOp44
 70
     1
102
RTVSPost2010Prop45
280
     0
102
RTVSPost2010PropOp45
 70
     1
102
RTVSPost2010Prop46
 90
       50
102
RTVSPost2010PropOp46
 70
     1
102
RTVSPost2010Prop47
 90
       50
102
RTVSPost2010PropOp47
 70
     1
102
RTVSPost2010Prop48
 90
       50
102
RTVSPost2010PropOp48
 70
     1
102
RTVSPost2010Prop49
280
     0
102
RTVSPost2010PropOp49
 70
     1
102
RTVSPost2010Prop50
 90
       50
102
RTVSPost2010PropOp50
 70
     1
102
RTVSPost2010Prop51ColorIndex
 90
      256
102
RTVSPost2010Prop51ColorRGB
 90
-16777216
102
RTVSPost2010PropOp51
 70
     0
102
RTVSPost2010Prop52
140
1.0
102
RTVSPost2010PropOp52
 70
     0
102
RTVSPost2010Prop53
 90
        2
102
RTVSPost2010PropOp53
 70
     1
102
RTVSPost2010Prop54
  1
strokes_ogs.tif
102
RTVSPost2010PropOp54
 70
     1
102
RTVSPost2010Prop55
280
     0
102
RTVSPost2010PropOp55
 70
     1
102
RTVSPost2010Prop56
140
1.0
102
RTVSPost2010PropOp56
 70
     1
102
RTVSPost2010Prop57
140
1.0
102
RTVSPost2010PropOp57
 70
     1
  0
XRECORD
  5
113
102
{ACAD_REACTORS
330
112
102
}
330
112
100
AcDbXrecord
280
     1
102
RTVSPropertyOp0
 70
     1
102
RTVSPropertyOp1
 70
     1
102
RTVSPropertyOp2
 70
     1
102
RTVSPropertyOp3
 70
     1
102
RTVSPropertyOp4
 70
     1
102
RTVSPropertyOp5
 70
     1
102
RTVSPropertyOp6
 70
     1
102
RTVSPropertyOp7
 70
     1
102
RTVSPropertyOp8
 70
     1
102
RTVSPropertyOp9
 70
     1
102
RTVSPropertyOp10
 70
     1
102
RTVSPropertyOp11
 70
     1
102
RTVSPropertyOp12
 70
     1
102
RTVSPropertyOp13
 70
     1
102
RTVSPropertyOp14
 70
     1
102
RTVSPropertyOp15
 70
     1
102
RTVSPropertyOp16
 70
     1
102
RTVSPropertyOp17
 70
     1
102
RTVSPropertyOp18
 70
     1
102
RTVSPropertyOp19
 70
     1
102
RTVSPropertyOp20
 70
     1
102
RTVSPropertyOp21
 70
     1
102
RTVSPropertyOp22
 70
     1
102
RTVSPropertyOp23
 70
     1
102
RTVSPropertyOp24
 70
     1
102
RTVSPropertyOp25
 70
     1
102
RTVSPropertyOp26
 70
     1
102
RTVSPropertyOp27
 70
     1
102
RTVSPropertyOp28
 70
     1
102
RTVSPropertyOp29
 70
     1
102
RTVSPropertyOp30
 70
     1
102
RTVSPropertyOp31
 70
     1
102
RTVSPropertyOp32
 70
     1
102
RTVSPropertyOp33
 70
     1
102
RTVSPropertyOp34
 70
     1
102
RTVSPropertyOp35
 70
     1
102
RTVSPropertyOp36
 70
     1
102
RTVSPropertyOp37
 70
     1
102
RTVSPropertyOp38
 70
     1
102
RTVSPropertyOp39
 70
     1
102
RTVSPropertyOp40
 70
     1
102
RTVSPropertyOp41
 70
     1
102
RTVSPropertyOp42
 70
     1
102
RTVSPropertyOp43
 70
     1
102
RTVSPropertyOp44
 70
     1
102
RTVSPropertyOp45
 70
     1
102
RTVSPropertyOp46
 70
     1
102
RTVSPropertyOp47
 70
     1
102
RTVSPropertyOp48
 70
     1
102
RTVSPropertyOp49
 70
     1
102
RTVSPropertyOp50
 70
     1
102
RTVSPropertyOp51
 70
     0
102
RTVSPropertyOp52
 70
     0
102
RTVSPropertyOp53
 70
     1
102
RTVSPropertyOp54
 70
     1
102
RTVSPropertyOp55
 70
     1
102
RTVSPropertyOp56
 70
     1
102
RTVSPropertyOp57
 70
     1
102
RTVSPost2010Prop28
280
     0
102
RTVSPost2010PropOp28
 70
     1
102
RTVSPost2010Prop29
280
     1
102
RTVSPost2010PropOp29
 70
     1
102
RTVSPost2010Prop30
280
     1
102
RTVSPost2010PropOp30
 70
     1
102
RTVSPost2010Prop31
280
     0
102
RTVSPost2010PropOp31
 70
     1
102
RTVSPost2010Prop32
280
     0
102
RTVSPost2010PropOp32
 70
     1
102
RTVSPost2010Prop33
280
     0
102
RTVSPost2010PropOp33
 70
     1
102
RTVSPost2010Prop34
280
     0
102
RTVSPost2010PropOp34
 70
     1
102
RTVSPost2010Prop35
280
     0
102
RTVSPost2010PropOp35
 70
     1
102
RTVSPost2010Prop36
280
     0
102
RTVSPost2010PropOp36
 70
     1
102
RTVSPost2010Prop37
 90
       50
102
RTVSPost2010PropOp37
 70
     1
102
RTVSPost2010Prop38
140
0.0
102
RTVSPost2010PropOp38
 70
     1
102
RTVSPost2010Prop39
140
1.0
102
RTVSPost2010PropOp39
 70
     1
102
RTVSPost2010Prop40
 90
        0
102
RTVSPost2010PropOp40
 70
     1
102
RTVSPost2010Prop41ColorIndex
 90
       18
102
RTVSPost2010Prop41ColorRGB
 90
        0
102
RTVSPost2010PropOp41
 70
     1
102
RTVSPost2010Prop42
 90
       50
102
RTVSPost2010PropOp42
 70
     1
102
RTVSPost2010Prop43
 90
        3
102
RTVSPost2010PropOp43
 70
     1
102
RTVSPost2010Prop44ColorIndex
 90
        5
102
RTVSPost2010Prop44ColorRGB
 90
      255
102
RTVSPost2010PropOp44
 70
     1
102
RTVSPost2010Prop45
280
     0
102
RTVSPost2010PropOp45
 70
     1
102
RTVSPost2010Prop46
 90
       50
102
RTVSPost2010PropOp46
 70
     1
102
RTVSPost2010Prop47
 90
       50
102
RTVSPost2010PropOp47
 70
     1
102
RTVSPost2010Prop48
 90
       50
102
RTVSPost2010PropOp48
 70
     1
102
RTVSPost2010Prop49
280
     0
102
RTVSPost2010PropOp49
 70
     1
102
RTVSPost2010Prop50
 90
       50
102
RTVSPost2010PropOp50
 70
     1
102
RTVSPost2010Prop51ColorIndex
 90
      256
102
RTVSPost2010Prop51ColorRGB
 90
-16777216
102
RTVSPost2010PropOp51
 70
     0
102
RTVSPost2010Prop52
140
1.0
102
RTVSPost2010PropOp52
 70
     0
102
RTVSPost2010Prop53
 90
        2
102
RTVSPost2010PropOp53
 70
     1
102
RTVSPost2010Prop54
  1
strokes_ogs.tif
102
RTVSPost2010PropOp54
 70
     1
102
RTVSPost2010Prop55
280
     0
102
RTVSPost2010PropOp55
 70
     1
102
RTVSPost2010Prop56
140
1.0
102
RTVSPost2010PropOp56
 70
     1
102
RTVSPost2010Prop57
140
1.0
102
RTVSPost2010PropOp57
 70
     1
  0
XRECORD
  5
115
102
{ACAD_REACTORS
330
114
102
}
330
114
100
AcDbXrecord
280
     1
102
RTVSPropertyOp0
 70
     1
102
RTVSPropertyOp1
 70
     1
102
RTVSPropertyOp2
 70
     1
102
RTVSPropertyOp3
 70
     1
102
RTVSPropertyOp4
 70
     1
102
RTVSPropertyOp5
 70
     1
102
RTVSPropertyOp6
 70
     1
102
RTVSPropertyOp7
 70
     1
102
RTVSPropertyOp8
 70
     1
102
RTVSPropertyOp9
 70
     1
102
RTVSPropertyOp10
 70
     1
102
RTVSPropertyOp11
 70
     1
102
RTVSPropertyOp12
 70
     1
102
RTVSPropertyOp13
 70
     1
102
RTVSPropertyOp14
 70
     1
102
RTVSPropertyOp15
 70
     1
102
RTVSPropertyOp16
 70
     1
102
RTVSPropertyOp17
 70
     1
102
RTVSPropertyOp18
 70
     1
102
RTVSPropertyOp19
 70
     1
102
RTVSPropertyOp20
 70
     1
102
RTVSPropertyOp21
 70
     1
102
RTVSPropertyOp22
 70
     1
102
RTVSPropertyOp23
 70
     1
102
RTVSPropertyOp24
 70
     1
102
RTVSPropertyOp25
 70
     1
102
RTVSPropertyOp26
 70
     1
102
RTVSPropertyOp27
 70
     1
102
RTVSPropertyOp28
 70
     1
102
RTVSPropertyOp29
 70
     1
102
RTVSPropertyOp30
 70
     1
102
RTVSPropertyOp31
 70
     1
102
RTVSPropertyOp32
 70
     1
102
RTVSPropertyOp33
 70
     1
102
RTVSPropertyOp34
 70
     1
102
RTVSPropertyOp35
 70
     1
102
RTVSPropertyOp36
 70
     1
102
RTVSPropertyOp37
 70
     1
102
RTVSPropertyOp38
 70
     1
102
RTVSPropertyOp39
 70
     1
102
RTVSPropertyOp40
 70
     1
102
RTVSPropertyOp41
 70
     1
102
RTVSPropertyOp42
 70
     1
102
RTVSPropertyOp43
 70
     1
102
RTVSPropertyOp44
 70
     1
102
RTVSPropertyOp45
 70
     1
102
RTVSPropertyOp46
 70
     1
102
RTVSPropertyOp47
 70
     1
102
RTVSPropertyOp48
 70
     1
102
RTVSPropertyOp49
 70
     1
102
RTVSPropertyOp50
 70
     1
102
RTVSPropertyOp51
 70
     0
102
RTVSPropertyOp52
 70
     0
102
RTVSPropertyOp53
 70
     1
102
RTVSPropertyOp54
 70
     1
102
RTVSPropertyOp55
 70
     1
102
RTVSPropertyOp56
 70
     1
102
RTVSPropertyOp57
 70
     1
102
RTVSPost2010Prop28
280
     0
102
RTVSPost2010PropOp28
 70
     1
102
RTVSPost2010Prop29
280
     1
102
RTVSPost2010PropOp29
 70
     1
102
RTVSPost2010Prop30
280
     1
102
RTVSPost2010PropOp30
 70
     1
102
RTVSPost2010Prop31
280
     0
102
RTVSPost2010PropOp31
 70
     1
102
RTVSPost2010Prop32
280
     0
102
RTVSPost2010PropOp32
 70
     1
102
RTVSPost2010Prop33
280
     0
102
RTVSPost2010PropOp33
 70
     1
102
RTVSPost2010Prop34
280
     0
102
RTVSPost2010PropOp34
 70
     1
102
RTVSPost2010Prop35
280
     0
102
RTVSPost2010PropOp35
 70
     1
102
RTVSPost2010Prop36
280
     0
102
RTVSPost2010PropOp36
 70
     1
102
RTVSPost2010Prop37
 90
       50
102
RTVSPost2010PropOp37
 70
     1
102
RTVSPost2010Prop38
140
0.0
102
RTVSPost2010PropOp38
 70
     1
102
RTVSPost2010Prop39
140
1.0
102
RTVSPost2010PropOp39
 70
     1
102
RTVSPost2010Prop40
 90
        0
102
RTVSPost2010PropOp40
 70
     1
102
RTVSPost2010Prop41ColorIndex
 90
       18
102
RTVSPost2010Prop41ColorRGB
 90
        0
102
RTVSPost2010PropOp41
 70
     1
102
RTVSPost2010Prop42
 90
       50
102
RTVSPost2010PropOp42
 70
     1
102
RTVSPost2010Prop43
 90
        3
102
RTVSPost2010PropOp43
 70
     1
102
RTVSPost2010Prop44ColorIndex
 90
        5
102
RTVSPost2010Prop44ColorRGB
 90
      255
102
RTVSPost2010PropOp44
 70
     1
102
RTVSPost2010Prop45
280
     0
102
RTVSPost2010PropOp45
 70
     1
102
RTVSPost2010Prop46
 90
       50
102
RTVSPost2010PropOp46
 70
     1
102
RTVSPost2010Prop47
 90
       50
102
RTVSPost2010PropOp47
 70
     1
102
RTVSPost2010Prop48
 90
       50
102
RTVSPost2010PropOp48
 70
     1
102
RTVSPost2010Prop49
280
     0
102
RTVSPost2010PropOp49
 70
     1
102
RTVSPost2010Prop50
 90
       50
102
RTVSPost2010PropOp50
 70
     1
102
RTVSPost2010Prop51ColorIndex
 90
      256
102
RTVSPost2010Prop51ColorRGB
 90
-16777216
102
RTVSPost2010PropOp51
 70
     0
102
RTVSPost2010Prop52
140
1.0
102
RTVSPost2010PropOp52
 70
     0
102
RTVSPost2010Prop53
 90
        2
102
RTVSPost2010PropOp53
 70
     1
102
RTVSPost2010Prop54
  1
strokes_ogs.tif
102
RTVSPost2010PropOp54
 70
     1
102
RTVSPost2010Prop55
280
     0
102
RTVSPost2010PropOp55
 70
     1
102
RTVSPost2010Prop56
140
1.0
102
RTVSPost2010PropOp56
 70
     1
102
RTVSPost2010Prop57
140
1.0
102
RTVSPost2010PropOp57
 70
     1
  0
XRECORD
  5
105
102
{ACAD_REACTORS
330
104
102
}
330
104
100
AcDbXrecord
280
     1
102
RTVSPropertyOp0
 70
     1
102
RTVSPropertyOp1
 70
     1
102
RTVSPropertyOp2
 70
     1
102
RTVSPropertyOp3
 70
     1
102
RTVSPropertyOp4
 70
     1
102
RTVSPropertyOp5
 70
     1
102
RTVSPropertyOp6
 70
     1
102
RTVSPropertyOp7
 70
     1
102
RTVSPropertyOp8
 70
     1
102
RTVSPropertyOp9
 70
     1
102
RTVSPropertyOp10
 70
     1
102
RTVSPropertyOp11
 70
     1
102
RTVSPropertyOp12
 70
     1
102
RTVSPropertyOp13
 70
     1
102
RTVSPropertyOp14
 70
     1
102
RTVSPropertyOp15
 70
     1
102
RTVSPropertyOp16
 70
     1
102
RTVSPropertyOp17
 70
     1
102
RTVSPropertyOp18
 70
     1
102
RTVSPropertyOp19
 70
     1
102
RTVSPropertyOp20
 70
     1
102
RTVSPropertyOp21
 70
     1
102
RTVSPropertyOp22
 70
     1
102
RTVSPropertyOp23
 70
     1
102
RTVSPropertyOp24
 70
     1
102
RTVSPropertyOp25
 70
     1
102
RTVSPropertyOp26
 70
     1
102
RTVSPropertyOp27
 70
     1
102
RTVSPropertyOp28
 70
     1
102
RTVSPropertyOp29
 70
     1
102
RTVSPropertyOp30
 70
     1
102
RTVSPropertyOp31
 70
     1
102
RTVSPropertyOp32
 70
     1
102
RTVSPropertyOp33
 70
     1
102
RTVSPropertyOp34
 70
     1
102
RTVSPropertyOp35
 70
     1
102
RTVSPropertyOp36
 70
     1
102
RTVSPropertyOp37
 70
     1
102
RTVSPropertyOp38
 70
     1
102
RTVSPropertyOp39
 70
     1
102
RTVSPropertyOp40
 70
     1
102
RTVSPropertyOp41
 70
     1
102
RTVSPropertyOp42
 70
     1
102
RTVSPropertyOp43
 70
     1
102
RTVSPropertyOp44
 70
     1
102
RTVSPropertyOp45
 70
     1
102
RTVSPropertyOp46
 70
     1
102
RTVSPropertyOp47
 70
     1
102
RTVSPropertyOp48
 70
     1
102
RTVSPropertyOp49
 70
     1
102
RTVSPropertyOp50
 70
     1
102
RTVSPropertyOp51
 70
     0
102
RTVSPropertyOp52
 70
     0
102
RTVSPropertyOp53
 70
     1
102
RTVSPropertyOp54
 70
     1
102
RTVSPropertyOp55
 70
     1
102
RTVSPropertyOp56
 70
     1
102
RTVSPropertyOp57
 70
     1
102
RTVSPost2010Prop28
280
     0
102
RTVSPost2010PropOp28
 70
     1
102
RTVSPost2010Prop29
280
     1
102
RTVSPost2010PropOp29
 70
     1
102
RTVSPost2010Prop30
280
     1
102
RTVSPost2010PropOp30
 70
     1
102
RTVSPost2010Prop31
280
     0
102
RTVSPost2010PropOp31
 70
     1
102
RTVSPost2010Prop32
280
     0
102
RTVSPost2010PropOp32
 70
     1
102
RTVSPost2010Prop33
280
     0
102
RTVSPost2010PropOp33
 70
     1
102
RTVSPost2010Prop34
280
     0
102
RTVSPost2010PropOp34
 70
     1
102
RTVSPost2010Prop35
280
     0
102
RTVSPost2010PropOp35
 70
     1
102
RTVSPost2010Prop36
280
     0
102
RTVSPost2010PropOp36
 70
     1
102
RTVSPost2010Prop37
 90
       50
102
RTVSPost2010PropOp37
 70
     1
102
RTVSPost2010Prop38
140
0.0
102
RTVSPost2010PropOp38
 70
     1
102
RTVSPost2010Prop39
140
1.0
102
RTVSPost2010PropOp39
 70
     1
102
RTVSPost2010Prop40
 90
        0
102
RTVSPost2010PropOp40
 70
     1
102
RTVSPost2010Prop41ColorIndex
 90
       18
102
RTVSPost2010Prop41ColorRGB
 90
        0
102
RTVSPost2010PropOp41
 70
     1
102
RTVSPost2010Prop42
 90
       50
102
RTVSPost2010PropOp42
 70
     1
102
RTVSPost2010Prop43
 90
        3
102
RTVSPost2010PropOp43
 70
     1
102
RTVSPost2010Prop44ColorIndex
 90
        5
102
RTVSPost2010Prop44ColorRGB
 90
      255
102
RTVSPost2010PropOp44
 70
     1
102
RTVSPost2010Prop45
280
     0
102
RTVSPost2010PropOp45
 70
     1
102
RTVSPost2010Prop46
 90
       50
102
RTVSPost2010PropOp46
 70
     1
102
RTVSPost2010Prop47
 90
       50
102
RTVSPost2010PropOp47
 70
     1
102
RTVSPost2010Prop48
 90
       50
102
RTVSPost2010PropOp48
 70
     1
102
RTVSPost2010Prop49
280
     0
102
RTVSPost2010PropOp49
 70
     1
102
RTVSPost2010Prop50
 90
       50
102
RTVSPost2010PropOp50
 70
     1
102
RTVSPost2010Prop51ColorIndex
 90
      256
102
RTVSPost2010Prop51ColorRGB
 90
-16777216
102
RTVSPost2010PropOp51
 70
     0
102
RTVSPost2010Prop52
140
1.0
102
RTVSPost2010PropOp52
 70
     0
102
RTVSPost2010Prop53
 90
        2
102
RTVSPost2010PropOp53
 70
     1
102
RTVSPost2010Prop54
  1
strokes_ogs.tif
102
RTVSPost2010PropOp54
 70
     1
102
RTVSPost2010Prop55
280
     0
102
RTVSPost2010PropOp55
 70
     1
102
RTVSPost2010Prop56
140
1.0
102
RTVSPost2010PropOp56
 70
     1
102
RTVSPost2010Prop57
140
1.0
102
RTVSPost2010PropOp57
 70
     1
  0
XRECORD
  5
F7
102
{ACAD_REACTORS
330
F6
102
}
330
F6
100
AcDbXrecord
280
     1
102
RTVSPropertyOp0
 70
     1
102
RTVSPropertyOp1
 70
     1
102
RTVSPropertyOp2
 70
     1
102
RTVSPropertyOp3
 70
     1
102
RTVSPropertyOp4
 70
     1
102
RTVSPropertyOp5
 70
     1
102
RTVSPropertyOp6
 70
     1
102
RTVSPropertyOp7
 70
     1
102
RTVSPropertyOp8
 70
     1
102
RTVSPropertyOp9
 70
     1
102
RTVSPropertyOp10
 70
     1
102
RTVSPropertyOp11
 70
     1
102
RTVSPropertyOp12
 70
     1
102
RTVSPropertyOp13
 70
     1
102
RTVSPropertyOp14
 70
     1
102
RTVSPropertyOp15
 70
     1
102
RTVSPropertyOp16
 70
     1
102
RTVSPropertyOp17
 70
     1
102
RTVSPropertyOp18
 70
     1
102
RTVSPropertyOp19
 70
     1
102
RTVSPropertyOp20
 70
     1
102
RTVSPropertyOp21
 70
     1
102
RTVSPropertyOp22
 70
     1
102
RTVSPropertyOp23
 70
     1
102
RTVSPropertyOp24
 70
     1
102
RTVSPropertyOp25
 70
     1
102
RTVSPropertyOp26
 70
     1
102
RTVSPropertyOp27
 70
     1
102
RTVSPropertyOp28
 70
     1
102
RTVSPropertyOp29
 70
     1
102
RTVSPropertyOp30
 70
     1
102
RTVSPropertyOp31
 70
     1
102
RTVSPropertyOp32
 70
     1
102
RTVSPropertyOp33
 70
     1
102
RTVSPropertyOp34
 70
     1
102
RTVSPropertyOp35
 70
     1
102
RTVSPropertyOp36
 70
     1
102
RTVSPropertyOp37
 70
     1
102
RTVSPropertyOp38
 70
     1
102
RTVSPropertyOp39
 70
     1
102
RTVSPropertyOp40
 70
     1
102
RTVSPropertyOp41
 70
     1
102
RTVSPropertyOp42
 70
     1
102
RTVSPropertyOp43
 70
     1
102
RTVSPropertyOp44
 70
     1
102
RTVSPropertyOp45
 70
     1
102
RTVSPropertyOp46
 70
     1
102
RTVSPropertyOp47
 70
     1
102
RTVSPropertyOp48
 70
     1
102
RTVSPropertyOp49
 70
     1
102
RTVSPropertyOp50
 70
     1
102
RTVSPropertyOp51
 70
     0
102
RTVSPropertyOp52
 70
     0
102
RTVSPropertyOp53
 70
     1
102
RTVSPropertyOp54
 70
     1
102
RTVSPropertyOp55
 70
     1
102
RTVSPropertyOp56
 70
     1
102
RTVSPropertyOp57
 70
     1
102
RTVSPost2010Prop28
280
     0
102
RTVSPost2010PropOp28
 70
     1
102
RTVSPost2010Prop29
280
     1
102
RTVSPost2010PropOp29
 70
     1
102
RTVSPost2010Prop30
280
     1
102
RTVSPost2010PropOp30
 70
     1
102
RTVSPost2010Prop31
280
     0
102
RTVSPost2010PropOp31
 70
     1
102
RTVSPost2010Prop32
280
     0
102
RTVSPost2010PropOp32
 70
     1
102
RTVSPost2010Prop33
280
     0
102
RTVSPost2010PropOp33
 70
     1
102
RTVSPost2010Prop34
280
     0
102
RTVSPost2010PropOp34
 70
     1
102
RTVSPost2010Prop35
280
     0
102
RTVSPost2010PropOp35
 70
     1
102
RTVSPost2010Prop36
280
     0
102
RTVSPost2010PropOp36
 70
     1
102
RTVSPost2010Prop37
 90
       50
102
RTVSPost2010PropOp37
 70
     1
102
RTVSPost2010Prop38
140
0.0
102
RTVSPost2010PropOp38
 70
     1
102
RTVSPost2010Prop39
140
1.0
102
RTVSPost2010PropOp39
 70
     1
102
RTVSPost2010Prop40
 90
        0
102
RTVSPost2010PropOp40
 70
     1
102
RTVSPost2010Prop41ColorIndex
 90
       18
102
RTVSPost2010Prop41ColorRGB
 90
        0
102
RTVSPost2010PropOp41
 70
     1
102
RTVSPost2010Prop42
 90
       50
102
RTVSPost2010PropOp42
 70
     1
102
RTVSPost2010Prop43
 90
        3
102
RTVSPost2010PropOp43
 70
     1
102
RTVSPost2010Prop44ColorIndex
 90
        5
102
RTVSPost2010Prop44ColorRGB
 90
      255
102
RTVSPost2010PropOp44
 70
     1
102
RTVSPost2010Prop45
280
     0
102
RTVSPost2010PropOp45
 70
     1
102
RTVSPost2010Prop46
 90
       50
102
RTVSPost2010PropOp46
 70
     1
102
RTVSPost2010Prop47
 90
       50
102
RTVSPost2010PropOp47
 70
     1
102
RTVSPost2010Prop48
 90
       50
102
RTVSPost2010PropOp48
 70
     1
102
RTVSPost2010Prop49
280
     0
102
RTVSPost2010PropOp49
 70
     1
102
RTVSPost2010Prop50
 90
       50
102
RTVSPost2010PropOp50
 70
     1
102
RTVSPost2010Prop51ColorIndex
 90
      256
102
RTVSPost2010Prop51ColorRGB
 90
-16777216
102
RTVSPost2010PropOp51
 70
     0
102
RTVSPost2010Prop52
140
1.0
102
RTVSPost2010PropOp52
 70
     0
102
RTVSPost2010Prop53
 90
        2
102
RTVSPost2010PropOp53
 70
     1
102
RTVSPost2010Prop54
  1
strokes_ogs.tif
102
RTVSPost2010PropOp54
 70
     1
102
RTVSPost2010Prop55
280
     0
102
RTVSPost2010PropOp55
 70
     1
102
RTVSPost2010Prop56
140
1.0
102
RTVSPost2010PropOp56
 70
     1
102
RTVSPost2010Prop57
140
1.0
102
RTVSPost2010PropOp57
 70
     1
  0
XRECORD
  5
117
102
{ACAD_REACTORS
330
116
102
}
330
116
100
AcDbXrecord
280
     1
102
RTVSPropertyOp0
 70
     1
102
RTVSPropertyOp1
 70
     1
102
RTVSPropertyOp2
 70
     1
102
RTVSPropertyOp3
 70
     1
102
RTVSPropertyOp4
 70
     1
102
RTVSPropertyOp5
 70
     1
102
RTVSPropertyOp6
 70
     1
102
RTVSPropertyOp7
 70
     1
102
RTVSPropertyOp8
 70
     1
102
RTVSPropertyOp9
 70
     1
102
RTVSPropertyOp10
 70
     1
102
RTVSPropertyOp11
 70
     1
102
RTVSPropertyOp12
 70
     1
102
RTVSPropertyOp13
 70
     1
102
RTVSPropertyOp14
 70
     1
102
RTVSPropertyOp15
 70
     1
102
RTVSPropertyOp16
 70
     1
102
RTVSPropertyOp17
 70
     1
102
RTVSPropertyOp18
 70
     1
102
RTVSPropertyOp19
 70
     1
102
RTVSPropertyOp20
 70
     1
102
RTVSPropertyOp21
 70
     1
102
RTVSPropertyOp22
 70
     1
102
RTVSPropertyOp23
 70
     1
102
RTVSPropertyOp24
 70
     1
102
RTVSPropertyOp25
 70
     1
102
RTVSPropertyOp26
 70
     1
102
RTVSPropertyOp27
 70
     1
102
RTVSPropertyOp28
 70
     1
102
RTVSPropertyOp29
 70
     1
102
RTVSPropertyOp30
 70
     1
102
RTVSPropertyOp31
 70
     1
102
RTVSPropertyOp32
 70
     1
102
RTVSPropertyOp33
 70
     1
102
RTVSPropertyOp34
 70
     1
102
RTVSPropertyOp35
 70
     1
102
RTVSPropertyOp36
 70
     1
102
RTVSPropertyOp37
 70
     1
102
RTVSPropertyOp38
 70
     1
102
RTVSPropertyOp39
 70
     1
102
RTVSPropertyOp40
 70
     1
102
RTVSPropertyOp41
 70
     1
102
RTVSPropertyOp42
 70
     1
102
RTVSPropertyOp43
 70
     1
102
RTVSPropertyOp44
 70
     1
102
RTVSPropertyOp45
 70
     1
102
RTVSPropertyOp46
 70
     1
102
RTVSPropertyOp47
 70
     1
102
RTVSPropertyOp48
 70
     1
102
RTVSPropertyOp49
 70
     1
102
RTVSPropertyOp50
 70
     1
102
RTVSPropertyOp51
 70
     0
102
RTVSPropertyOp52
 70
     0
102
RTVSPropertyOp53
 70
     1
102
RTVSPropertyOp54
 70
     1
102
RTVSPropertyOp55
 70
     1
102
RTVSPropertyOp56
 70
     1
102
RTVSPropertyOp57
 70
     1
102
RTVSPost2010Prop28
280
     0
102
RTVSPost2010PropOp28
 70
     1
102
RTVSPost2010Prop29
280
     1
102
RTVSPost2010PropOp29
 70
     1
102
RTVSPost2010Prop30
280
     1
102
RTVSPost2010PropOp30
 70
     1
102
RTVSPost2010Prop31
280
     0
102
RTVSPost2010PropOp31
 70
     1
102
RTVSPost2010Prop32
280
     0
102
RTVSPost2010PropOp32
 70
     1
102
RTVSPost2010Prop33
280
     0
102
RTVSPost2010PropOp33
 70
     1
102
RTVSPost2010Prop34
280
     0
102
RTVSPost2010PropOp34
 70
     1
102
RTVSPost2010Prop35
280
     0
102
RTVSPost2010PropOp35
 70
     1
102
RTVSPost2010Prop36
280
     0
102
RTVSPost2010PropOp36
 70
     1
102
RTVSPost2010Prop37
 90
       50
102
RTVSPost2010PropOp37
 70
     1
102
RTVSPost2010Prop38
140
0.0
102
RTVSPost2010PropOp38
 70
     1
102
RTVSPost2010Prop39
140
1.0
102
RTVSPost2010PropOp39
 70
     1
102
RTVSPost2010Prop40
 90
        0
102
RTVSPost2010PropOp40
 70
     1
102
RTVSPost2010Prop41ColorIndex
 90
       18
102
RTVSPost2010Prop41ColorRGB
 90
        0
102
RTVSPost2010PropOp41
 70
     1
102
RTVSPost2010Prop42
 90
       50
102
RTVSPost2010PropOp42
 70
     1
102
RTVSPost2010Prop43
 90
        3
102
RTVSPost2010PropOp43
 70
     1
102
RTVSPost2010Prop44ColorIndex
 90
        5
102
RTVSPost2010Prop44ColorRGB
 90
      255
102
RTVSPost2010PropOp44
 70
     1
102
RTVSPost2010Prop45
280
     0
102
RTVSPost2010PropOp45
 70
     1
102
RTVSPost2010Prop46
 90
       50
102
RTVSPost2010PropOp46
 70
     1
102
RTVSPost2010Prop47
 90
       50
102
RTVSPost2010PropOp47
 70
     1
102
RTVSPost2010Prop48
 90
       50
102
RTVSPost2010PropOp48
 70
     1
102
RTVSPost2010Prop49
280
     0
102
RTVSPost2010PropOp49
 70
     1
102
RTVSPost2010Prop50
 90
       50
102
RTVSPost2010PropOp50
 70
     1
102
RTVSPost2010Prop51ColorIndex
 90
      256
102
RTVSPost2010Prop51ColorRGB
 90
-16777216
102
RTVSPost2010PropOp51
 70
     0
102
RTVSPost2010Prop52
140
1.0
102
RTVSPost2010PropOp52
 70
     0
102
RTVSPost2010Prop53
 90
        2
102
RTVSPost2010PropOp53
 70
     1
102
RTVSPost2010Prop54
  1
strokes_ogs.tif
102
RTVSPost2010PropOp54
 70
     1
102
RTVSPost2010Prop55
280
     0
102
RTVSPost2010PropOp55
 70
     1
102
RTVSPost2010Prop56
140
1.0
102
RTVSPost2010PropOp56
 70
     1
102
RTVSPost2010Prop57
140
1.0
102
RTVSPost2010PropOp57
 70
     1
  0
ENDSEC
  0
EOF
