  0
SECTION
  2
HEADER
  9
$ACADVER
  1
AC1015
  9
$ACADMAINTVER
 70
     6
  9
$DWGCODEPAGE
  3
ANSI_1252
  9
$INSBASE
 10
287.4403927386447
 20
360.5878908907835
 30
0.0
  9
$EXTMIN
 10
239.2465232774134
 20
354.3112492585733
 30
0.0
  9
$EXTMAX
 10
329.8456306858146
 20
370.1991906479817
 30
0.0
  9
$LIMMIN
 10
0.0
 20
0.0
  9
$LIMMAX
 10
12.0
 20
9.0
  9
$ORTHOMODE
 70
     0
  9
$REGENMODE
 70
     1
  9
$FILLMODE
 70
     1
  9
$QTEXTMODE
 70
     0
  9
$MIRRTEXT
 70
     1
  9
$LTSCALE
 40
1.0
  9
$ATTMODE
 70
     1
  9
$TEXTSIZE
 40
0.2
  9
$TRACEWID
 40
0.05
  9
$TEXTSTYLE
  7
Standard
  9
$CLAYER
  8
0
  9
$CELTYPE
  6
ByLayer
  9
$CECOLOR
 62
   256
  9
$CELTSCALE
 40
1.0
  9
$DISPSILH
 70
     0
  9
$DIMSCALE
 40
1.0
  9
$DIMASZ
 40
0.18
  9
$DIMEXO
 40
0.0625
  9
$DIMDLI
 40
0.38
  9
$DIMRND
 40
0.0
  9
$DIMDLE
 40
0.0
  9
$DIMEXE
 40
0.18
  9
$DIMTP
 40
0.0
  9
$DIMTM
 40
0.0
  9
$DIMTXT
 40
0.18
  9
$DIMCEN
 40
0.09
  9
$DIMTSZ
 40
0.0
  9
$DIMTOL
 70
     0
  9
$DIMLIM
 70
     0
  9
$DIMTIH
 70
     1
  9
$DIMTOH
 70
     1
  9
$DIMSE1
 70
     0
  9
$DIMSE2
 70
     0
  9
$DIMTAD
 70
     0
  9
$DIMZIN
 70
     0
  9
$DIMBLK
  1

  9
$DIMASO
 70
     1
  9
$DIMSHO
 70
     1
  9
$DIMPOST
  1

  9
$DIMAPOST
  1

  9
$DIMALT
 70
     0
  9
$DIMALTD
 70
     2
  9
$DIMALTF
 40
25.4
  9
$DIMLFAC
 40
1.0
  9
$DIMTOFL
 70
     0
  9
$DIMTVP
 40
0.0
  9
$DIMTIX
 70
     0
  9
$DIMSOXD
 70
     0
  9
$DIMSAH
 70
     0
  9
$DIMBLK1
  1

  9
$DIMBLK2
  1

  9
$DIMSTYLE
  2
Standard
  9
$DIMCLRD
 70
     0
  9
$DIMCLRE
 70
     0
  9
$DIMCLRT
 70
     0
  9
$DIMTFAC
 40
1.0
  9
$DIMGAP
 40
0.09
  9
$DIMJUST
 70
     0
  9
$DIMSD1
 70
     0
  9
$DIMSD2
 70
     0
  9
$DIMTOLJ
 70
     1
  9
$DIMTZIN
 70
     0
  9
$DIMALTZ
 70
     0
  9
$DIMALTTZ
 70
     0
  9
$DIMUPT
 70
     0
  9
$DIMDEC
 70
     4
  9
$DIMTDEC
 70
     4
  9
$DIMALTU
 70
     2
  9
$DIMALTTD
 70
     2
  9
$DIMTXSTY
  7
Standard
  9
$DIMAUNIT
 70
     0
  9
$DIMADEC
 70
     0
  9
$DIMALTRND
 40
0.0
  9
$DIMAZIN
 70
     0
  9
$DIMDSEP
 70
    46
  9
$DIMATFIT
 70
     3
  9
$DIMFRAC
 70
     0
  9
$DIMLDRBLK
  1

  9
$DIMLUNIT
 70
     2
  9
$DIMLWD
 70
    -2
  9
$DIMLWE
 70
    -2
  9
$DIMTMOVE
 70
     0
  9
$LUNITS
 70
     2
  9
$LUPREC
 70
     4
  9
$SKETCHINC
 40
0.1
  9
$FILLETRAD
 40
0.5
  9
$AUNITS
 70
     0
  9
$AUPREC
 70
     0
  9
$MENU
  1
.
  9
$ELEVATION
 40
0.0
  9
$PELEVATION
 40
0.0
  9
$THICKNESS
 40
0.0
  9
$LIMCHECK
 70
     0
  9
$CHAMFERA
 40
0.5
  9
$CHAMFERB
 40
0.5
  9
$CHAMFERC
 40
1.0
  9
$CHAMFERD
 40
0.0
  9
$SKPOLY
 70
     0
  9
$TDCREATE
 40
2458676.485268229
  9
$TDUCREATE
 40
2458676.651934896
  9
$TDUPDATE
 40
2458708.512763599
  9
$TDUUPDATE
 40
2458708.679430266
  9
$TDINDWG
 40
0.0866415162
  9
$TDUSRTIMER
 40
0.0866415162
  9
$USRTIMER
 70
     1
  9
$ANGBASE
 50
0.0
  9
$ANGDIR
 70
     0
  9
$PDMODE
 70
     0
  9
$PDSIZE
 40
0.0
  9
$PLINEWID
 40
0.0
  9
$SPLFRAME
 70
     0
  9
$SPLINETYPE
 70
     6
  9
$SPLINESEGS
 70
     8
  9
$HANDSEED
  5
1A0
  9
$SURFTAB1
 70
     6
  9
$SURFTAB2
 70
     6
  9
$SURFTYPE
 70
     6
  9
$SURFU
 70
     6
  9
$SURFV
 70
     6
  9
$UCSBASE
  2

  9
$UCSNAME
  2

  9
$UCSORG
 10
0.0
 20
0.0
 30
0.0
  9
$UCSXDIR
 10
1.0
 20
0.0
 30
0.0
  9
$UCSYDIR
 10
0.0
 20
1.0
 30
0.0
  9
$UCSORTHOREF
  2

  9
$UCSORTHOVIEW
 70
     0
  9
$UCSORGTOP
 10
0.0
 20
0.0
 30
0.0
  9
$UCSORGBOTTOM
 10
0.0
 20
0.0
 30
0.0
  9
$UCSORGLEFT
 10
0.0
 20
0.0
 30
0.0
  9
$UCSORGRIGHT
 10
0.0
 20
0.0
 30
0.0
  9
$UCSORGFRONT
 10
0.0
 20
0.0
 30
0.0
  9
$UCSORGBACK
 10
0.0
 20
0.0
 30
0.0
  9
$PUCSBASE
  2

  9
$PUCSNAME
  2

  9
$PUCSORG
 10
0.0
 20
0.0
 30
0.0
  9
$PUCSXDIR
 10
1.0
 20
0.0
 30
0.0
  9
$PUCSYDIR
 10
0.0
 20
1.0
 30
0.0
  9
$PUCSORTHOREF
  2

  9
$PUCSORTHOVIEW
 70
     0
  9
$PUCSORGTOP
 10
0.0
 20
0.0
 30
0.0
  9
$PUCSORGBOTTOM
 10
0.0
 20
0.0
 30
0.0
  9
$PUCSORGLEFT
 10
0.0
 20
0.0
 30
0.0
  9
$PUCSORGRIGHT
 10
0.0
 20
0.0
 30
0.0
  9
$PUCSORGFRONT
 10
0.0
 20
0.0
 30
0.0
  9
$PUCSORGBACK
 10
0.0
 20
0.0
 30
0.0
  9
$USERI1
 70
     0
  9
$USERI2
 70
     0
  9
$USERI3
 70
     0
  9
$USERI4
 70
     0
  9
$USERI5
 70
     0
  9
$USERR1
 40
0.0
  9
$USERR2
 40
0.0
  9
$USERR3
 40
0.0
  9
$USERR4
 40
0.0
  9
$USERR5
 40
0.0
  9
$WORLDVIEW
 70
     1
  9
$SHADEDGE
 70
     3
  9
$SHADEDIF
 70
    70
  9
$TILEMODE
 70
     1
  9
$MAXACTVP
 70
    64
  9
$PINSBASE
 10
0.0
 20
0.0
 30
0.0
  9
$PLIMCHECK
 70
     0
  9
$PEXTMIN
 10
1.000000000000000E+20
 20
1.000000000000000E+20
 30
1.000000000000000E+20
  9
$PEXTMAX
 10
-1.000000000000000E+20
 20
-1.000000000000000E+20
 30
-1.000000000000000E+20
  9
$PLIMMIN
 10
-0.25
 20
-0.25
  9
$PLIMMAX
 10
10.75
 20
8.25
  9
$UNITMODE
 70
     0
  9
$VISRETAIN
 70
     1
  9
$PLINEGEN
 70
     0
  9
$PSLTSCALE
 70
     1
  9
$TREEDEPTH
 70
  3020
  9
$CMLSTYLE
  2
Standard
  9
$CMLJUST
 70
     0
  9
$CMLSCALE
 40
1.0
  9
$PROXYGRAPHICS
 70
     1
  9
$MEASUREMENT
 70
     0
  9
$CELWEIGHT
370
    -1
  9
$ENDCAPS
280
     0
  9
$JOINSTYLE
280
     0
  9
$LWDISPLAY
290
     1
  9
$INSUNITS
 70
     1
  9
$HYPERLINKBASE
  1

  9
$STYLESHEET
  1

  9
$XEDIT
290
     1
  9
$CEPSNTYPE
380
     0
  9
$PSTYLEMODE
290
     1
  9
$FINGERPRINTGUID
  2
{3FF96223-F9C2-48F7-A4C5-C732E40B2087}
  9
$VERSIONGUID
  2
{FAEB1C32-E019-11D5-929B-00C0DF256EC4}
  9
$EXTNAMES
290
     1
  9
$PSVPSCALE
 40
0.0
  9
$OLESTARTUP
290
     0
  0
ENDSEC
  0
SECTION
  2
CLASSES
  0
CLASS
  1
ACDBDICTIONARYWDFLT
  2
AcDbDictionaryWithDefault
  3
ObjectDBX Classes
 90
        0
280
     0
281
     0
  0
CLASS
  1
MATERIAL
  2
AcDbMaterial
  3
ObjectDBX Classes
 90
     1153
280
     0
281
     0
  0
CLASS
  1
VISUALSTYLE
  2
AcDbVisualStyle
  3
ObjectDBX Classes
 90
     4095
280
     0
281
     0
  0
CLASS
  1
SUN
  2
AcDbSun
  3
SCENEOE
 90
     1153
280
     0
281
     0
  0
CLASS
  1
SCALE
  2
AcDbScale
  3
ObjectDBX Classes
 90
     1153
280
     0
281
     0
  0
CLASS
  1
DICTIONARYVAR
  2
AcDbDictionaryVar
  3
ObjectDBX Classes
 90
        0
280
     0
281
     0
  0
CLASS
  1
MLEADERSTYLE
  2
AcDbMLeaderStyle
  3
ACDB_MLEADERSTYLE_CLASS
 90
     4095
280
     0
281
     0
  0
CLASS
  1
TABLESTYLE
  2
AcDbTableStyle
  3
ObjectDBX Classes
 90
     4095
280
     0
281
     0
  0
CLASS
  1
ACDBPLACEHOLDER
  2
AcDbPlaceHolder
  3
ObjectDBX Classes
 90
        0
280
     0
281
     0
  0
CLASS
  1
LAYOUT
  2
AcDbLayout
  3
ObjectDBX Classes
 90
        0
280
     0
281
     0
  0
ENDSEC
  0
SECTION
  2
TABLES
  0
TABLE
  2
VPORT
  5
1F
102
{ACAD_XDICTIONARY
360
164
102
}
330
0
100
AcDbSymbolTable
 70
     1
  0
VPORT
  5
25
330
1F
100
AcDbSymbolTableRecord
100
AcDbViewportTableRecord
  2
*Active
 70
     0
 10
0.0
 20
0.0
 11
1.0
 21
1.0
 12
284.546076981614
 22
362.2552199532776
 13
0.0
 23
0.0
 14
0.5
 24
0.5
 15
0.5
 25
0.5
 16
0.0
 26
0.0
 36
1.0
 17
0.0
 27
0.0
 37
0.0
 40
16.2057002171967
 41
5.702381774192464
 42
50.0
 43
0.0
 44
0.0
 50
0.0
 51
0.0
 71
    16
 72
   100
 73
     1
 74
     3
 75
     0
 76
     0
 77
     0
 78
     0
281
     0
 65
     1
110
0.0
120
0.0
130
0.0
111
1.0
121
0.0
131
0.0
112
0.0
122
1.0
132
0.0
 79
     0
146
0.0
  0
ENDTAB
  0
TABLE
  2
LTYPE
  5
9
330
0
100
AcDbSymbolTable
 70
     1
  0
LTYPE
  5
A
330
9
100
AcDbSymbolTableRecord
100
AcDbLinetypeTableRecord
  2
ByBlock
 70
     0
  3

 72
    65
 73
     0
 40
0.0
  0
LTYPE
  5
B
330
9
100
AcDbSymbolTableRecord
100
AcDbLinetypeTableRecord
  2
ByLayer
 70
     0
  3

 72
    65
 73
     0
 40
0.0
  0
LTYPE
  5
8
330
9
100
AcDbSymbolTableRecord
100
AcDbLinetypeTableRecord
  2
Continuous
 70
     0
  3
Solid line
 72
    65
 73
     0
 40
0.0
  0
ENDTAB
  0
TABLE
  2
LAYER
  5
2
330
0
100
AcDbSymbolTable
 70
     2
  0
LAYER
  5
1
330
2
100
AcDbSymbolTableRecord
100
AcDbLayerTableRecord
  2
0
 70
     0
 62
     7
  6
Continuous
370
    -3
390
3
  0
LAYER
  5
4E
330
2
100
AcDbSymbolTableRecord
100
AcDbLayerTableRecord
  2
Layer 1
 70
     0
 62
     7
  6
Continuous
370
    -3
390
3
  0
ENDTAB
  0
TABLE
  2
STYLE
  5
D
330
0
100
AcDbSymbolTable
 70
     1
  0
STYLE
  5
C
330
D
100
AcDbSymbolTableRecord
100
AcDbTextStyleTableRecord
  2
Standard
 70
     0
 40
0.0
 41
1.0
 50
0.0
 71
     0
 42
0.2
  3
txt
  4

  0
ENDTAB
  0
TABLE
  2
VIEW
  5
1D
330
0
100
AcDbSymbolTable
 70
     0
  0
ENDTAB
  0
TABLE
  2
UCS
  5
1E
330
0
100
AcDbSymbolTable
 70
     0
  0
ENDTAB
  0
TABLE
  2
APPID
  5
20
330
0
100
AcDbSymbolTable
 70
     2
  0
APPID
  5
24
330
20
100
AcDbSymbolTableRecord
100
AcDbRegAppTableRecord
  2
ACAD
 70
     0
  0
APPID
  5
19D
330
20
100
AcDbSymbolTableRecord
100
AcDbRegAppTableRecord
  2
ACAD_MLEADERVER
 70
     0
  0
ENDTAB
  0
TABLE
  2
DIMSTYLE
  5
10
330
0
100
AcDbSymbolTable
 70
     1
100
AcDbDimStyleTable
  0
DIMSTYLE
105
F
330
10
100
AcDbSymbolTableRecord
100
AcDbDimStyleTableRecord
  2
Standard
 70
     0
178
     0
340
C
  0
ENDTAB
  0
TABLE
  2
BLOCK_RECORD
  5
13
330
0
100
AcDbSymbolTable
 70
     1
  0
BLOCK_RECORD
  5
14
330
13
100
AcDbSymbolTableRecord
100
AcDbBlockTableRecord
  2
*Model_Space
340
17
  0
BLOCK_RECORD
  5
19
330
13
100
AcDbSymbolTableRecord
100
AcDbBlockTableRecord
  2
*Paper_Space
340
1C
  0
BLOCK_RECORD
  5
4F
330
13
100
AcDbSymbolTableRecord
100
AcDbBlockTableRecord
  2
block 6
340
0
102
{BLKREFS
331
4D
102
}
  0
ENDTAB
  0
ENDSEC
  0
SECTION
  2
BLOCKS
  0
BLOCK
  5
15
330
14
100
AcDbEntity
  8
0
100
AcDbBlockBegin
  2
*Model_Space
 70
     0
 10
0.0
 20
0.0
 30
0.0
  3
*Model_Space
  1

  0
ENDBLK
  5
16
330
14
100
AcDbEntity
  8
0
100
AcDbBlockEnd
  0
BLOCK
  5
1A
330
19
100
AcDbEntity
 67
     1
  8
0
100
AcDbBlockBegin
  2
*Paper_Space
 70
     0
 10
0.0
 20
0.0
 30
0.0
  3
*Paper_Space
  1

  0
ENDBLK
  5
1B
330
19
100
AcDbEntity
 67
     1
  8
0
100
AcDbBlockEnd
  0
BLOCK
  5
50
330
4F
100
AcDbEntity
  8
0
100
AcDbBlockBegin
  2
block 6
 70
     0
 10
0.0
 20
0.0
 30
0.0
  3
block 6
  1

  0
SPLINE
  5
51
330
4F
100
AcDbEntity
  8
Layer 1
370
     0
100
AcDbSpline
210
0.0
220
0.0
230
1.0
 70
    11
 71
     3
 72
   377
 73
   373
 74
     0
 42
0.000000001
 43
0.0000000001
 40
0.0
 40
0.0
 40
0.0
 40
0.0
 40
1.0
 40
1.0
 40
1.0
 40
2.0
 40
2.0
 40
2.0
 40
3.0
 40
3.0
 40
3.0
 40
4.0
 40
4.0
 40
4.0
 40
5.0
 40
5.0
 40
5.0
 40
6.0
 40
6.0
 40
6.0
 40
7.0
 40
7.0
 40
7.0
 40
8.0
 40
8.0
 40
8.0
 40
9.0
 40
9.0
 40
9.0
 40
10.0
 40
10.0
 40
10.0
 40
11.0
 40
11.0
 40
11.0
 40
12.0
 40
12.0
 40
12.0
 40
13.0
 40
13.0
 40
13.0
 40
14.0
 40
14.0
 40
14.0
 40
15.0
 40
15.0
 40
15.0
 40
16.0
 40
16.0
 40
16.0
 40
17.0
 40
17.0
 40
17.0
 40
18.0
 40
18.0
 40
18.0
 40
19.0
 40
19.0
 40
19.0
 40
20.0
 40
20.0
 40
20.0
 40
21.0
 40
21.0
 40
21.0
 40
22.0
 40
22.0
 40
22.0
 40
23.0
 40
23.0
 40
23.0
 40
24.0
 40
24.0
 40
24.0
 40
25.0
 40
25.0
 40
25.0
 40
26.0
 40
26.0
 40
26.0
 40
27.0
 40
27.0
 40
27.0
 40
28.0
 40
28.0
 40
28.0
 40
29.0
 40
29.0
 40
29.0
 40
30.0
 40
30.0
 40
30.0
 40
31.0
 40
31.0
 40
31.0
 40
32.0
 40
32.0
 40
32.0
 40
33.0
 40
33.0
 40
33.0
 40
34.0
 40
34.0
 40
34.0
 40
35.0
 40
35.0
 40
35.0
 40
36.0
 40
36.0
 40
36.0
 40
37.0
 40
37.0
 40
37.0
 40
38.0
 40
38.0
 40
38.0
 40
39.0
 40
39.0
 40
39.0
 40
40.0
 40
40.0
 40
40.0
 40
41.0
 40
41.0
 40
41.0
 40
42.0
 40
42.0
 40
42.0
 40
43.0
 40
43.0
 40
43.0
 40
44.0
 40
44.0
 40
44.0
 40
45.0
 40
45.0
 40
45.0
 40
46.0
 40
46.0
 40
46.0
 40
47.0
 40
47.0
 40
47.0
 40
48.0
 40
48.0
 40
48.0
 40
49.0
 40
49.0
 40
49.0
 40
50.0
 40
50.0
 40
50.0
 40
51.0
 40
51.0
 40
51.0
 40
52.0
 40
52.0
 40
52.0
 40
53.0
 40
53.0
 40
53.0
 40
54.0
 40
54.0
 40
54.0
 40
55.0
 40
55.0
 40
55.0
 40
56.0
 40
56.0
 40
56.0
 40
57.0
 40
57.0
 40
57.0
 40
58.0
 40
58.0
 40
58.0
 40
59.0
 40
59.0
 40
59.0
 40
60.0
 40
60.0
 40
60.0
 40
61.0
 40
61.0
 40
61.0
 40
62.0
 40
62.0
 40
62.0
 40
63.0
 40
63.0
 40
63.0
 40
64.0
 40
64.0
 40
64.0
 40
65.0
 40
65.0
 40
65.0
 40
66.0
 40
66.0
 40
66.0
 40
67.0
 40
67.0
 40
67.0
 40
68.0
 40
68.0
 40
68.0
 40
69.0
 40
69.0
 40
69.0
 40
70.0
 40
70.0
 40
70.0
 40
71.0
 40
71.0
 40
71.0
 40
72.0
 40
72.0
 40
72.0
 40
73.0
 40
73.0
 40
73.0
 40
74.0
 40
74.0
 40
74.0
 40
75.0
 40
75.0
 40
75.0
 40
76.0
 40
76.0
 40
76.0
 40
77.0
 40
77.0
 40
77.0
 40
78.0
 40
78.0
 40
78.0
 40
79.0
 40
79.0
 40
79.0
 40
80.0
 40
80.0
 40
80.0
 40
81.0
 40
81.0
 40
81.0
 40
82.0
 40
82.0
 40
82.0
 40
83.0
 40
83.0
 40
83.0
 40
84.0
 40
84.0
 40
84.0
 40
85.0
 40
85.0
 40
85.0
 40
86.0
 40
86.0
 40
86.0
 40
87.0
 40
87.0
 40
87.0
 40
88.0
 40
88.0
 40
88.0
 40
89.0
 40
89.0
 40
89.0
 40
90.0
 40
90.0
 40
90.0
 40
91.0
 40
91.0
 40
91.0
 40
92.0
 40
92.0
 40
92.0
 40
93.0
 40
93.0
 40
93.0
 40
94.0
 40
94.0
 40
94.0
 40
95.0
 40
95.0
 40
95.0
 40
96.0
 40
96.0
 40
96.0
 40
97.0
 40
97.0
 40
97.0
 40
98.0
 40
98.0
 40
98.0
 40
99.0
 40
99.0
 40
99.0
 40
100.0
 40
100.0
 40
100.0
 40
101.0
 40
101.0
 40
101.0
 40
102.0
 40
102.0
 40
102.0
 40
103.0
 40
103.0
 40
103.0
 40
104.0
 40
104.0
 40
104.0
 40
105.0
 40
105.0
 40
105.0
 40
106.0
 40
106.0
 40
106.0
 40
107.0
 40
107.0
 40
107.0
 40
108.0
 40
108.0
 40
108.0
 40
109.0
 40
109.0
 40
109.0
 40
110.0
 40
110.0
 40
110.0
 40
111.0
 40
111.0
 40
111.0
 40
112.0
 40
112.0
 40
112.0
 40
113.0
 40
113.0
 40
113.0
 40
114.0
 40
114.0
 40
114.0
 40
115.0
 40
115.0
 40
115.0
 40
116.0
 40
116.0
 40
116.0
 40
117.0
 40
117.0
 40
117.0
 40
118.0
 40
118.0
 40
118.0
 40
119.0
 40
119.0
 40
119.0
 40
120.0
 40
120.0
 40
120.0
 40
121.0
 40
121.0
 40
121.0
 40
122.0
 40
122.0
 40
122.0
 40
123.0
 40
123.0
 40
123.0
 40
124.0
 40
124.0
 40
124.0
 40
124.0
 10
282.5541928620805
 20
370.1991906479816
 30
0.0
 10
282.5541928620805
 20
370.1991906479816
 30
0.0
 10
323.3808918307113
 20
370.1991906479816
 30
0.0
 10
323.3808918307113
 20
370.1991906479816
 30
0.0
 10
323.3808918307113
 20
370.1991906479816
 30
0.0
 10
324.5419999999995
 20
370.1991906479816
 30
0.0
 10
324.5419999999995
 20
370.1991906479816
 30
0.0
 10
324.5419999999995
 20
370.1991906479816
 30
0.0
 10
327.7577917201415
 20
370.1991906479816
 30
0.0
 10
327.7577917201415
 20
370.1991906479816
 30
0.0
 10
327.7577917201415
 20
370.1991906479816
 30
0.0
 10
328.2147917085967
 20
369.7147906602186
 30
0.0
 10
328.2147917085967
 20
369.7147906602186
 30
0.0
 10
328.2147917085967
 20
369.7147906602186
 30
0.0
 10
327.8593917175749
 20
367.0058907286511
 30
0.0
 10
327.8593917175749
 20
367.0058907286511
 30
0.0
 10
328.3046917063257
 20
366.9784907293433
 30
0.0
 10
328.7440916952255
 20
366.903290731243
 30
0.0
 10
328.9042916911785
 20
366.7235907357826
 30
0.0
 10
329.1952916838272
 20
366.3974907440206
 30
0.0
 10
329.375
 20
365.2694907725163
 30
0.0
 10
329.4081916784489
 20
365.0419999999995
 30
0.0
 10
329.4931916763016
 20
365.0409999999993
 30
0.0
 10
329.5556916747228
 20
365.0292907785843
 30
0.0
 10
329.5780916741569
 20
365.0048907792007
 30
0.0
 10
329.6757916716888
 20
364.8964907819391
 30
0.0
 10
329.9590000000007
 20
362.94729083118
 30
0.0
 10
329.8065916683845
 20
362.8495908336481
 30
0.0
 10
329.6542916722319
 20
362.75
 30
0.0
 10
328.75
 20
362.8261908342392
 30
0.0
 10
328.75
 20
362.8261908342392
 30
0.0
 10
328.75
 20
362.8261908342392
 30
0.0
 10
328.585891699222
 20
364.9511907805572
 30
0.0
 10
328.585891699222
 20
364.9511907805572
 30
0.0
 10
328.585891699222
 20
364.9511907805572
 30
0.0
 10
328.6728916970242
 20
364.9667907801631
 30
0.0
 10
328.7948916939422
 20
364.9853907796933
 30
0.0
 10
328.7577916948794
 20
365.2323907734535
 30
0.0
 10
328.6151916984818
 20
366.1200907510283
 30
0.0
 10
328.4433917028218
 20
366.3144907461174
 30
0.0
 10
328.2890917067198
 20
366.4882907417268
 30
0.0
 10
326.8290917436025
 20
366.3905907441949
 30
0.0
 10
326.7577917454037
 20
366.3847907443414
 30
0.0
 10
326.7577917454037
 20
366.3847907443414
 30
0.0
 10
327.3241917310952
 20
360.5010000000002
 30
0.0
 10
327.3241917310952
 20
360.5010000000002
 30
0.0
 10
327.3241917310952
 20
360.5010000000002
 30
0.0
 10
328.1435917103954
 20
360.5010000000002
 30
0.0
 10
328.1435917103954
 20
360.5010000000002
 30
0.0
 10
328.1894917092359
 20
359.0849999999991
 30
0.0
 10
328.1210917109638
 20
357.7851909615856
 30
0.0
 10
327.9306917157737
 20
356.7245909883786
 30
0.0
 10
327.9306917157737
 20
356.7245909883786
 30
0.0
 10
325.8593917680992
 20
355.9003910091997
 30
0.0
 10
325.8593917680992
 20
355.9003910091997
 30
0.0
 10
325.8593917680992
 20
355.9003910091997
 30
0.0
 10
319.8651919195254
 20
355.9003910091997
 30
0.0
 10
319.8651919195254
 20
355.9003910091997
 30
0.0
 10
319.8651919195254
 20
355.9003910091997
 30
0.0
 10
319.8388919201898
 20
356.6991909890203
 30
0.0
 10
319.8388919201898
 20
356.6991909890203
 30
0.0
 10
319.837891920215
 20
356.7265909883281
 30
0.0
 10
319.8358919202656
 20
356.7538909876384
 30
0.0
 10
319.8358919202656
 20
356.7812909869463
 30
0.0
 10
319.8358919202656
 20
356.7812909869463
 30
0.0
 10
319.8358919202656
 20
356.7812909869463
 30
0.0
 10
319.8358919202656
 20
356.7812909869463
 30
0.0
 10
319.8007919211523
 20
357.5077909685933
 30
0.0
 10
319.4911919289734
 20
358.1620909520643
 30
0.0
 10
319.0087919411599
 20
358.6464909398273
 30
0.0
 10
319.0087919411599
 20
358.6464909398273
 30
0.0
 10
319.0077919411851
 20
358.6483909397793
 30
0.0
 10
319.0077919411851
 20
358.6483909397793
 30
0.0
 10
319.0077919411851
 20
358.6483909397793
 30
0.0
 10
319.0058919412331
 20
358.6483909397793
 30
0.0
 10
319.0058919412331
 20
358.6483909397793
 30
0.0
 10
318.4921919542103
 20
359.1620909268022
 30
0.0
 10
317.7831919721211
 20
359.4784909188093
 30
0.0
 10
317.0058919917574
 20
359.4784909188093
 30
0.0
 10
316.2245920114947
 20
359.4784909188093
 30
0.0
 10
315.517592029355
 20
359.1620909268022
 30
0.0
 10
315.0038920423322
 20
358.6503909397288
 30
0.0
 10
315.0038920423322
 20
358.6503909397288
 30
0.0
 10
315.0020000000004
 20
358.6503909397288
 30
0.0
 10
315.0020000000004
 20
358.6503909397288
 30
0.0
 10
314.4882920553573
 20
358.136690952706
 30
0.0
 10
314.1718920633502
 20
357.4276909706168
 30
0.0
 10
314.1718920633502
 20
356.6464909903516
 30
0.0
 10
314.1718920633502
 20
356.5780909920795
 30
0.0
 10
314.1737920633022
 20
356.5116909937569
 30
0.0
 10
314.1786920631785
 20
356.4452909954343
 30
0.0
 10
314.1786920631785
 20
356.4452909954343
 30
0.0
 10
314.1972920627086
 20
355.9003910091997
 30
0.0
 10
314.1972920627086
 20
355.9003910091997
 30
0.0
 10
314.1972920627086
 20
355.9003910091997
 30
0.0
 10
297.0082924969392
 20
355.9003910091997
 30
0.0
 10
297.0082924969392
 20
355.9003910091997
 30
0.0
 10
297.0082924969392
 20
355.9003910091997
 30
0.0
 10
296.9535924983211
 20
356.6132909911903
 30
0.0
 10
296.9535924983211
 20
356.6132909911903
 30
0.0
 10
296.9535924983211
 20
356.6132909911903
 30
0.0
 10
296.9535924983211
 20
356.6464909903516
 30
0.0
 10
296.9535924983211
 20
356.6464909903516
 30
0.0
 10
296.9535924983211
 20
356.8026909864057
 30
0.0
 10
296.9408924986419
 20
356.9570000000003
 30
0.0
 10
296.9160000000002
 20
357.1073909787083
 30
0.0
 10
296.9160000000002
 20
357.1073909787083
 30
0.0
 10
296.9160000000002
 20
357.1073909787083
 30
0.0
 10
296.9160000000002
 20
357.1073909787083
 30
0.0
 10
296.9160000000002
 20
357.1073909787083
 30
0.0
 10
296.9160000000002
 20
357.1073909787083
 30
0.0
 10
296.9160000000002
 20
357.1073909787083
 30
0.0
 10
296.8173925017618
 20
357.7030909636596
 30
0.0
 10
296.5331925089413
 20
358.2362909501899
 30
0.0
 10
296.1234925192912
 20
358.6464909398273
 30
0.0
 10
296.1234925192912
 20
358.6464909398273
 30
0.0
 10
296.1225925193139
 20
358.6483909397793
 30
0.0
 10
296.1225925193139
 20
358.6483909397793
 30
0.0
 10
296.1225925193139
 20
358.6483909397793
 30
0.0
 10
296.1205925193644
 20
358.6483909397793
 30
0.0
 10
296.1205925193644
 20
358.6483909397793
 30
0.0
 10
295.6063925323542
 20
359.1620909268022
 30
0.0
 10
294.8988925502272
 20
359.4784909188093
 30
0.0
 10
294.1205925698887
 20
359.4784909188093
 30
0.0
 10
293.3393925896235
 20
359.4784909188093
 30
0.0
 10
292.6312926075116
 20
359.1620909268022
 30
0.0
 10
292.1190926204508
 20
358.6503909397288
 30
0.0
 10
292.1190926204508
 20
358.6503909397288
 30
0.0
 10
292.1166926205115
 20
358.6503909397288
 30
0.0
 10
292.1166926205115
 20
358.6503909397288
 30
0.0
 10
291.6864926313792
 20
358.220690950584
 30
0.0
 10
291.3940000000002
 20
357.6522909649429
 30
0.0
 10
291.3104926408778
 20
357.0194909809288
 30
0.0
 10
291.3104926408778
 20
357.0194909809288
 30
0.0
 10
291.3104926408778
 20
357.0194909809288
 30
0.0
 10
291.3104926408778
 20
357.0194909809288
 30
0.0
 10
291.3104926408778
 20
357.0194909809288
 30
0.0
 10
291.3104926408778
 20
357.0175909809768
 30
0.0
 10
291.3104926408778
 20
357.0175909809768
 30
0.0
 10
291.2948926412719
 20
356.8964909840361
 30
0.0
 10
291.2860926414942
 20
356.7714909871938
 30
0.0
 10
291.2860926414942
 20
356.6464909903516
 30
0.0
 10
291.2860926414942
 20
356.5683909923246
 30
0.0
 10
291.2895926414058
 20
356.4901909943001
 30
0.0
 10
291.2958926412466
 20
356.4140909962225
 30
0.0
 10
291.2958926412466
 20
356.4140909962225
 30
0.0
 10
291.2875926414563
 20
356.0546910053017
 30
0.0
 10
291.2875926414563
 20
356.0546910053017
 30
0.0
 10
291.2875926414563
 20
356.0546910053017
 30
0.0
 10
290.497092661426
 20
356.0565910052537
 30
0.0
 10
290.497092661426
 20
356.0565910052537
 30
0.0
 10
290.497092661426
 20
356.0565910052537
 30
0.0
 10
290.474092662007
 20
356.6503909902531
 30
0.0
 10
290.474092662007
 20
356.6503909902531
 30
0.0
 10
290.474092662007
 20
356.7245909883786
 30
0.0
 10
290.4701926621055
 20
356.7968909865522
 30
0.0
 10
290.4643926622521
 20
356.8710909846777
 30
0.0
 10
290.4643926622521
 20
356.8710909846777
 30
0.0
 10
290.4643926622521
 20
356.8729999999996
 30
0.0
 10
290.4643926622521
 20
356.8729999999996
 30
0.0
 10
290.4643926622521
 20
356.8729999999996
 30
0.0
 10
290.4643926622521
 20
356.8729999999996
 30
0.0
 10
290.4643926622521
 20
356.8729999999996
 30
0.0
 10
290.4101926636213
 20
357.5624909672115
 30
0.0
 10
290.1049999999996
 20
358.1864909514479
 30
0.0
 10
289.6410926830504
 20
358.6522909396808
 30
0.0
 10
289.6410926830504
 20
358.6522909396808
 30
0.0
 10
289.6391926830984
 20
358.6542909396303
 30
0.0
 10
289.6391926830984
 20
358.6542909396303
 30
0.0
 10
289.6391926830984
 20
358.6542909396303
 30
0.0
 10
289.6381926831236
 20
358.655290939605
 30
0.0
 10
289.6381926831236
 20
358.655290939605
 30
0.0
 10
289.1220926961614
 20
359.1698909266051
 30
0.0
 10
288.4125927140849
 20
359.4882909185617
 30
0.0
 10
287.6312927338222
 20
359.4882909185617
 30
0.0
 10
286.8480927536075
 20
359.4882909185617
 30
0.0
 10
286.1386927715284
 20
359.1698909266051
 30
0.0
 10
285.6244927845182
 20
358.655290939605
 30
0.0
 10
285.6244927845182
 20
358.655290939605
 30
0.0
 10
285.6215927845915
 20
358.655290939605
 30
0.0
 10
285.6215927845915
 20
358.655290939605
 30
0.0
 10
285.1073927975813
 20
358.1405909526075
 30
0.0
 10
284.7885928056348
 20
357.4296909705663
 30
0.0
 10
284.7885928056348
 20
356.6464909903516
 30
0.0
 10
284.7885928056348
 20
356.6464909903516
 30
0.0
 10
284.7885928056348
 20
356.6366909905992
 30
0.0
 10
284.7885928056348
 20
356.6366909905992
 30
0.0
 10
284.7885928056348
 20
356.6366909905992
 30
0.0
 10
284.7885928056348
 20
356.6270000000004
 30
0.0
 10
284.7885928056348
 20
356.6270000000004
 30
0.0
 10
284.7885928056348
 20
356.6270000000004
 30
0.0
 10
284.7885928056348
 20
356.6171909910918
 30
0.0
 10
284.7885928056348
 20
356.6171909910918
 30
0.0
 10
284.7885928056348
 20
356.6171909910918
 30
0.0
 10
284.79
 20
356.6093909912888
 30
0.0
 10
284.79
 20
356.6093909912888
 30
0.0
 10
284.79
 20
356.6093909912888
 30
0.0
 10
284.7924928055363
 20
356.0663910050062
 30
0.0
 10
284.7924928055363
 20
356.0663910050062
 30
0.0
 10
284.7924928055363
 20
356.0663910050062
 30
0.0
 10
282.7280000000001
 20
356.0702910049076
 30
0.0
 10
282.7280000000001
 20
356.0702910049076
 30
0.0
 10
282.6942928585413
 20
356.2675909999234
 30
0.0
 10
282.6596928594154
 20
356.4667909948912
 30
0.0
 10
282.6264928602541
 20
356.6659999999993
 30
0.0
 10
282.6264928602541
 20
356.6659999999993
 30
0.0
 10
282.4613928644249
 20
356.5468909928677
 30
0.0
 10
282.4613928644249
 20
356.5468909928677
 30
0.0
 10
282.4613928644249
 20
356.5468909928677
 30
0.0
 10
281.8544928797564
 20
356.9979999999996
 30
0.0
 10
281.8544928797564
 20
356.9979999999996
 30
0.0
 10
281.8544928797564
 20
356.9979999999996
 30
0.0
 10
281.2270928956059
 20
356.5468909928677
 30
0.0
 10
281.2270928956059
 20
356.5468909928677
 30
0.0
 10
281.2270928956059
 20
356.5468909928677
 30
0.0
 10
280.6205929109274
 20
356.9979999999996
 30
0.0
 10
280.6205929109274
 20
356.9979999999996
 30
0.0
 10
280.6205929109274
 20
356.9979999999996
 30
0.0
 10
279.9931929267768
 20
356.5468909928677
 30
0.0
 10
279.9931929267768
 20
356.5468909928677
 30
0.0
 10
279.9931929267768
 20
356.5468909928677
 30
0.0
 10
279.3856929421236
 20
356.9979999999996
 30
0.0
 10
279.3856929421236
 20
356.9979999999996
 30
0.0
 10
279.3856929421236
 20
356.9979999999996
 30
0.0
 10
278.7592929579478
 20
356.5468909928677
 30
0.0
 10
278.7592929579478
 20
356.5468909928677
 30
0.0
 10
278.7592929579478
 20
356.5468909928677
 30
0.0
 10
278.1513929733046
 20
356.9979999999996
 30
0.0
 10
278.1513929733046
 20
356.9979999999996
 30
0.0
 10
278.1513929733046
 20
356.9979999999996
 30
0.0
 10
277.5238929891566
 20
356.5468909928677
 30
0.0
 10
277.5238929891566
 20
356.5468909928677
 30
0.0
 10
277.5238929891566
 20
356.5468909928677
 30
0.0
 10
277.0785930004058
 20
356.8788909844807
 30
0.0
 10
277.0785930004058
 20
356.8788909844807
 30
0.0
 10
277.0341930015275
 20
356.6073909913393
 30
0.0
 10
276.9887930026744
 20
356.3378909981475
 30
0.0
 10
276.9413930038718
 20
356.0702910049076
 30
0.0
 10
276.9413930038718
 20
356.0702910049076
 30
0.0
 10
273.9755930787942
 20
356.0663910050062
 30
0.0
 10
273.9755930787942
 20
356.0663910050062
 30
0.0
 10
273.9755930787942
 20
356.0663910050062
 30
0.0
 10
273.9790000000003
 20
356.6093909912888
 30
0.0
 10
273.9790000000003
 20
356.6093909912888
 30
0.0
 10
273.9790000000003
 20
356.6093909912888
 30
0.0
 10
273.9790000000003
 20
356.6171909910918
 30
0.0
 10
273.9790000000003
 20
356.6171909910918
 30
0.0
 10
273.9790000000003
 20
356.6171909910918
 30
0.0
 10
273.9790000000003
 20
356.6270000000004
 30
0.0
 10
273.9790000000003
 20
356.6270000000004
 30
0.0
 10
273.9790000000003
 20
356.6270000000004
 30
0.0
 10
273.9790000000003
 20
356.6366909905992
 30
0.0
 10
273.9790000000003
 20
356.6366909905992
 30
0.0
 10
273.9790000000003
 20
356.6366909905992
 30
0.0
 10
273.9790000000003
 20
356.6464909903516
 30
0.0
 10
273.9790000000003
 20
356.6464909903516
 30
0.0
 10
273.9790000000003
 20
357.4296909705663
 30
0.0
 10
273.6605930867518
 20
358.1405909526075
 30
0.0
 10
273.146493099739
 20
358.655290939605
 30
0.0
 10
273.146493099739
 20
358.655290939605
 30
0.0
 10
273.1435930998123
 20
358.655290939605
 30
0.0
 10
273.1435930998123
 20
358.655290939605
 30
0.0
 10
272.6293931128021
 20
359.1698909266051
 30
0.0
 10
271.9193931307382
 20
359.4882909185617
 30
0.0
 10
271.1366931505108
 20
359.4882909185617
 30
0.0
 10
270.3554931702456
 20
359.4882909185617
 30
0.0
 10
269.6459999999997
 20
359.1698909266051
 30
0.0
 10
269.1298932012069
 20
358.655290939605
 30
0.0
 10
269.1298932012069
 20
358.655290939605
 30
0.0
 10
269.1288932012321
 20
358.6542909396303
 30
0.0
 10
269.1288932012321
 20
358.6542909396303
 30
0.0
 10
269.1288932012321
 20
358.6542909396303
 30
0.0
 10
269.1270000000004
 20
358.6522909396808
 30
0.0
 10
269.1270000000004
 20
358.6522909396808
 30
0.0
 10
268.6630932129992
 20
358.1864909514479
 30
0.0
 10
268.358893220684
 20
357.5624909672115
 30
0.0
 10
268.3031932220911
 20
356.8729999999996
 30
0.0
 10
268.3031932220911
 20
356.8729999999996
 30
0.0
 10
268.3031932220911
 20
356.8729999999996
 30
0.0
 10
268.3031932220911
 20
356.8729999999996
 30
0.0
 10
268.3031932220911
 20
356.8729999999996
 30
0.0
 10
268.3031932220911
 20
356.8710909846777
 30
0.0
 10
268.3031932220911
 20
356.8710909846777
 30
0.0
 10
268.2982932222149
 20
356.7968909865522
 30
0.0
 10
268.2948932223007
 20
356.7245909883786
 30
0.0
 10
268.293893222326
 20
356.6503909902531
 30
0.0
 10
268.293893222326
 20
356.6503909902531
 30
0.0
 10
268.2709999999997
 20
356.0565910052537
 30
0.0
 10
268.2709999999997
 20
356.0565910052537
 30
0.0
 10
268.2709999999997
 20
356.0565910052537
 30
0.0
 10
248.6270000000004
 20
355.9003910091997
 30
0.0
 10
248.6270000000004
 20
355.9003910091997
 30
0.0
 10
248.6270000000004
 20
355.9003910091997
 30
0.0
 10
248.6464937186611
 20
356.4452909954343
 30
0.0
 10
248.6464937186611
 20
356.4452909954343
 30
0.0
 10
248.6513937185373
 20
356.5116909937569
 30
0.0
 10
248.654293718464
 20
356.5780909920795
 30
0.0
 10
248.654293718464
 20
356.6464909903516
 30
0.0
 10
248.654293718464
 20
357.4276909706168
 30
0.0
 10
248.3363937264949
 20
358.136690952706
 30
0.0
 10
247.8231937394594
 20
358.6503909397288
 30
0.0
 10
247.8231937394594
 20
358.6503909397288
 30
0.0
 10
247.8197937395453
 20
358.6503909397288
 30
0.0
 10
247.8197937395453
 20
358.6503909397288
 30
0.0
 10
247.3080937524719
 20
359.1620909268022
 30
0.0
 10
246.5995937703701
 20
359.4784909188093
 30
0.0
 10
245.8197937900695
 20
359.4784909188093
 30
0.0
 10
245.0404938097563
 20
359.4784909188093
 30
0.0
 10
244.3339999999998
 20
359.1620909268022
 30
0.0
 10
243.818793840619
 20
358.6483909397793
 30
0.0
 10
243.818793840619
 20
358.6483909397793
 30
0.0
 10
243.8173938406544
 20
358.6483909397793
 30
0.0
 10
243.8173938406544
 20
358.6483909397793
 30
0.0
 10
243.8173938406544
 20
358.6483909397793
 30
0.0
 10
243.8158938406923
 20
358.6464909398273
 30
0.0
 10
243.8158938406923
 20
358.6464909398273
 30
0.0
 10
243.3329999999996
 20
358.1620909520643
 30
0.0
 10
243.0233938607125
 20
357.5077909685933
 30
0.0
 10
242.989293861574
 20
356.7812909869463
 30
0.0
 10
242.989293861574
 20
356.7812909869463
 30
0.0
 10
242.989293861574
 20
356.7812909869463
 30
0.0
 10
242.989293861574
 20
356.7812909869463
 30
0.0
 10
242.9877938616119
 20
356.7538909876384
 30
0.0
 10
242.9867938616371
 20
356.7265909883281
 30
0.0
 10
242.9867938616371
 20
356.6991909890203
 30
0.0
 10
242.9867938616371
 20
356.6991909890203
 30
0.0
 10
242.96
 20
355.9003910091997
 30
0.0
 10
242.96
 20
355.9003910091997
 30
0.0
 10
242.96
 20
355.9003910091997
 30
0.0
 10
239.6752939452927
 20
355.9003910091997
 30
0.0
 10
239.6752939452927
 20
355.9003910091997
 30
0.0
 10
239.1083939596137
 20
360.7694908861959
 30
0.0
 10
239.0766939604146
 20
365.5429999999997
 30
0.0
 10
239.6752939452927
 20
370.1991906479816
 30
0.0
 10
239.6752939452927
 20
370.1991906479816
 30
0.0
 10
277.1156929994686
 20
370.1991906479816
 30
0.0
 10
277.1156929994686
 20
370.1991906479816
 30
0.0
 10
277.1850929977154
 20
369.8681906563434
 30
0.0
 10
277.2470929961491
 20
369.5341906647809
 30
0.0
 10
277.3036929947193
 20
369.1972906732917
 30
0.0
 10
277.3036929947193
 20
369.1972906732917
 30
0.0
 10
277.5102929895002
 20
369.3554906692952
 30
0.0
 10
277.5102929895002
 20
369.3554906692952
 30
0.0
 10
277.5102929895002
 20
369.3554906692952
 30
0.0
 10
278.1513929733046
 20
368.9042906806935
 30
0.0
 10
278.1513929733046
 20
368.9042906806935
 30
0.0
 10
278.1513929733046
 20
368.9042906806935
 30
0.0
 10
278.7440929583317
 20
369.3554906692952
 30
0.0
 10
278.7440929583317
 20
369.3554906692952
 30
0.0
 10
278.7440929583317
 20
369.3554906692952
 30
0.0
 10
279.3856929421236
 20
368.9042906806935
 30
0.0
 10
279.3856929421236
 20
368.9042906806935
 30
0.0
 10
279.3856929421236
 20
368.9042906806935
 30
0.0
 10
279.9784929271482
 20
369.3554906692952
 30
0.0
 10
279.9784929271482
 20
369.3554906692952
 30
0.0
 10
279.9784929271482
 20
369.3554906692952
 30
0.0
 10
280.6205929109274
 20
368.9042906806935
 30
0.0
 10
280.6205929109274
 20
368.9042906806935
 30
0.0
 10
280.6205929109274
 20
368.9042906806935
 30
0.0
 10
281.2138928959394
 20
369.3554906692952
 30
0.0
 10
281.2138928959394
 20
369.3554906692952
 30
0.0
 10
281.2138928959394
 20
369.3554906692952
 30
0.0
 10
281.8544928797564
 20
368.9042906806935
 30
0.0
 10
281.8544928797564
 20
368.9042906806935
 30
0.0
 10
281.8544928797564
 20
368.9042906806935
 30
0.0
 10
282.3847928663599
 20
369.3075906705053
 30
0.0
 10
282.3847928663599
 20
369.3075906705053
 30
0.0
 10
282.4359999999997
 20
369.6073906629317
 30
0.0
 10
282.4921928636468
 20
369.9042906554314
 30
0.0
 10
282.5541928620805
 20
370.1991906479816
 30
0.0
 10
282.5541928620805
 20
370.1991906479816
 30
0.0
 10
282.5541928620805
 20
370.1991906479816
 30
0.0
 10
282.5541928620805
 20
370.1991906479816
 30
0.0
  0
SPLINE
  5
52
330
4F
100
AcDbEntity
  8
Layer 1
370
     0
100
AcDbSpline
210
0.0
220
0.0
230
1.0
 70
    11
 71
     3
 72
    50
 73
    46
 74
     0
 42
0.000000001
 43
0.0000000001
 40
0.0
 40
0.0
 40
0.0
 40
0.0
 40
1.0
 40
1.0
 40
1.0
 40
2.0
 40
2.0
 40
2.0
 40
3.0
 40
3.0
 40
3.0
 40
4.0
 40
4.0
 40
4.0
 40
5.0
 40
5.0
 40
5.0
 40
6.0
 40
6.0
 40
6.0
 40
7.0
 40
7.0
 40
7.0
 40
8.0
 40
8.0
 40
8.0
 40
9.0
 40
9.0
 40
9.0
 40
10.0
 40
10.0
 40
10.0
 40
11.0
 40
11.0
 40
11.0
 40
12.0
 40
12.0
 40
12.0
 40
13.0
 40
13.0
 40
13.0
 40
14.0
 40
14.0
 40
14.0
 40
15.0
 40
15.0
 40
15.0
 40
15.0
 10
271.1366931505108
 20
358.9813909313671
 30
0.0
 10
270.4945931667316
 20
358.9813909313671
 30
0.0
 10
269.9120931814468
 20
358.7206909379529
 30
0.0
 10
269.4872931921782
 20
358.2978909486337
 30
0.0
 10
269.4872931921782
 20
358.2978909486337
 30
0.0
 10
269.4867931921908
 20
358.2958909486842
 30
0.0
 10
269.4867931921908
 20
358.2958909486842
 30
0.0
 10
269.4867931921908
 20
358.2958909486842
 30
0.0
 10
269.4848931922388
 20
358.2948909487095
 30
0.0
 10
269.4848931922388
 20
358.2948909487095
 30
0.0
 10
269.0624932029095
 20
357.8710909594156
 30
0.0
 10
268.801293209508
 20
357.2870909741687
 30
0.0
 10
268.801293209508
 20
356.6464909903516
 30
0.0
 10
268.801293209508
 20
356.0020000000004
 30
0.0
 10
269.0624932029095
 20
355.4198910213381
 30
0.0
 10
269.4848931922388
 20
354.9960910320442
 30
0.0
 10
269.4848931922388
 20
354.9960910320442
 30
0.0
 10
269.4848931922388
 20
354.9940910320947
 30
0.0
 10
269.4848931922388
 20
354.9940910320947
 30
0.0
 10
269.9081931815454
 20
354.5702910428008
 30
0.0
 10
270.4916931668049
 20
354.3104910493639
 30
0.0
 10
271.1366931505108
 20
354.3104910493639
 30
0.0
 10
271.77879313429
 20
354.3104910493639
 30
0.0
 10
272.3622931195496
 20
354.5702910428008
 30
0.0
 10
272.7855931088561
 20
354.9940910320947
 30
0.0
 10
272.7855931088561
 20
354.9940910320947
 30
0.0
 10
272.788093108793
 20
354.9940910320947
 30
0.0
 10
272.788093108793
 20
354.9940910320947
 30
0.0
 10
272.788093108793
 20
354.9940910320947
 30
0.0
 10
272.7885931087803
 20
354.9960910320442
 30
0.0
 10
272.7885931087803
 20
354.9960910320442
 30
0.0
 10
273.2113930980995
 20
355.4198910213381
 30
0.0
 10
273.4730930914884
 20
356.003891006585
 30
0.0
 10
273.4730930914884
 20
356.6464909903516
 30
0.0
 10
273.4730930914884
 20
357.2909999999993
 30
0.0
 10
273.2113930980995
 20
357.875
 30
0.0
 10
272.7885931087803
 20
358.2978909486337
 30
0.0
 10
272.7885931087803
 20
358.2978909486337
 30
0.0
 10
272.7855931088561
 20
358.2978909486337
 30
0.0
 10
272.7855931088561
 20
358.2978909486337
 30
0.0
 10
272.3637931195117
 20
358.7206909379529
 30
0.0
 10
271.7797931342648
 20
358.9813909313671
 30
0.0
 10
271.1366931505108
 20
358.9813909313671
 30
0.0
 10
271.1366931505108
 20
358.9813909313671
 30
0.0
 10
271.1366931505108
 20
358.9813909313671
 30
0.0
 10
271.1366931505108
 20
358.9813909313671
 30
0.0
  0
SPLINE
  5
53
330
4F
100
AcDbEntity
  8
Layer 1
370
     0
100
AcDbSpline
210
0.0
220
0.0
230
1.0
 70
    11
 71
     3
 72
    44
 73
    40
 74
     0
 42
0.000000001
 43
0.0000000001
 40
0.0
 40
0.0
 40
0.0
 40
0.0
 40
1.0
 40
1.0
 40
1.0
 40
2.0
 40
2.0
 40
2.0
 40
3.0
 40
3.0
 40
3.0
 40
4.0
 40
4.0
 40
4.0
 40
5.0
 40
5.0
 40
5.0
 40
6.0
 40
6.0
 40
6.0
 40
7.0
 40
7.0
 40
7.0
 40
8.0
 40
8.0
 40
8.0
 40
9.0
 40
9.0
 40
9.0
 40
10.0
 40
10.0
 40
10.0
 40
11.0
 40
11.0
 40
11.0
 40
12.0
 40
12.0
 40
12.0
 40
13.0
 40
13.0
 40
13.0
 40
13.0
 10
270.3583931701723
 20
357.4276909706168
 30
0.0
 10
270.3583931701723
 20
357.4276909706168
 30
0.0
 10
270.3554931702456
 20
357.4237909707153
 30
0.0
 10
270.3554931702456
 20
357.4237909707153
 30
0.0
 10
270.1586931752172
 20
357.226590975697
 30
0.0
 10
270.0360931783143
 20
356.9511909826542
 30
0.0
 10
270.0360931783143
 20
356.6464909903516
 30
0.0
 10
270.0360931783143
 20
356.341790998049
 30
0.0
 10
270.1586931752172
 20
356.0644910050542
 30
0.0
 10
270.3563931702229
 20
355.8651910100889
 30
0.0
 10
270.3563931702229
 20
355.8651910100889
 30
0.0
 10
270.3583931701723
 20
355.8671910100384
 30
0.0
 10
270.3583931701723
 20
355.8671910100384
 30
0.0
 10
270.5575931651401
 20
355.6679999999997
 30
0.0
 10
270.8329999999996
 20
355.5448910181804
 30
0.0
 10
271.1366931505108
 20
355.5448910181804
 30
0.0
 10
271.4423931427882
 20
355.5448910181804
 30
0.0
 10
271.717793135831
 20
355.6659999999993
 30
0.0
 10
271.915
 20
355.8651910100889
 30
0.0
 10
271.915
 20
355.8651910100889
 30
0.0
 10
271.9174931307862
 20
355.8671910100384
 30
0.0
 10
271.9174931307862
 20
355.8671910100384
 30
0.0
 10
272.1161931257666
 20
356.0644910050542
 30
0.0
 10
272.2387931226694
 20
356.3397909980995
 30
0.0
 10
272.2387931226694
 20
356.6464909903516
 30
0.0
 10
272.2387931226694
 20
356.9491909827047
 30
0.0
 10
272.1146931258045
 20
357.2245909757476
 30
0.0
 10
271.915
 20
357.4237909707153
 30
0.0
 10
271.915
 20
357.4237909707153
 30
0.0
 10
271.9170000000004
 20
357.4257909706648
 30
0.0
 10
271.9170000000004
 20
357.4257909706648
 30
0.0
 10
271.717793135831
 20
357.625
 30
0.0
 10
271.4413931428135
 20
357.7460909625734
 30
0.0
 10
271.1366931505108
 20
357.7460909625734
 30
0.0
 10
270.8310931582309
 20
357.7460909625734
 30
0.0
 10
270.5556931651881
 20
357.625
 30
0.0
 10
270.3583931701723
 20
357.4276909706168
 30
0.0
 10
270.3583931701723
 20
357.4276909706168
 30
0.0
 10
270.3583931701723
 20
357.4276909706168
 30
0.0
 10
270.3583931701723
 20
357.4276909706168
 30
0.0
  0
SPLINE
  5
54
330
4F
100
AcDbEntity
  8
Layer 1
370
     0
100
AcDbSpline
210
0.0
220
0.0
230
1.0
 70
    11
 71
     3
 72
    50
 73
    46
 74
     0
 42
0.000000001
 43
0.0000000001
 40
0.0
 40
0.0
 40
0.0
 40
0.0
 40
1.0
 40
1.0
 40
1.0
 40
2.0
 40
2.0
 40
2.0
 40
3.0
 40
3.0
 40
3.0
 40
4.0
 40
4.0
 40
4.0
 40
5.0
 40
5.0
 40
5.0
 40
6.0
 40
6.0
 40
6.0
 40
7.0
 40
7.0
 40
7.0
 40
8.0
 40
8.0
 40
8.0
 40
9.0
 40
9.0
 40
9.0
 40
10.0
 40
10.0
 40
10.0
 40
11.0
 40
11.0
 40
11.0
 40
12.0
 40
12.0
 40
12.0
 40
13.0
 40
13.0
 40
13.0
 40
14.0
 40
14.0
 40
14.0
 40
15.0
 40
15.0
 40
15.0
 40
15.0
 10
245.8197937900695
 20
358.9813909313671
 30
0.0
 10
245.1776938062903
 20
358.9813909313671
 30
0.0
 10
244.5941938210308
 20
358.7206909379529
 30
0.0
 10
244.1708938317242
 20
358.2978909486337
 30
0.0
 10
244.1708938317242
 20
358.2978909486337
 30
0.0
 10
244.1688938317748
 20
358.2958909486842
 30
0.0
 10
244.1688938317748
 20
358.2958909486842
 30
0.0
 10
244.1688938317748
 20
358.2958909486842
 30
0.0
 10
244.1679999999997
 20
358.2948909487095
 30
0.0
 10
244.1679999999997
 20
358.2948909487095
 30
0.0
 10
243.7450938424809
 20
357.8710909594156
 30
0.0
 10
243.4843938490667
 20
357.2870909741687
 30
0.0
 10
243.4843938490667
 20
356.6464909903516
 30
0.0
 10
243.4843938490667
 20
356.0020000000004
 30
0.0
 10
243.7450938424809
 20
355.4198910213381
 30
0.0
 10
244.1679999999997
 20
354.9960910320442
 30
0.0
 10
244.1679999999997
 20
354.9960910320442
 30
0.0
 10
244.1679999999997
 20
354.9940910320947
 30
0.0
 10
244.1679999999997
 20
354.9940910320947
 30
0.0
 10
244.5902938211293
 20
354.5702910428008
 30
0.0
 10
245.175293806351
 20
354.3104910493639
 30
0.0
 10
245.8197937900695
 20
354.3104910493639
 30
0.0
 10
246.4618937738487
 20
354.3104910493639
 30
0.0
 10
247.0448937591209
 20
354.5702910428008
 30
0.0
 10
247.4691937484022
 20
354.9940910320947
 30
0.0
 10
247.4691937484022
 20
354.9940910320947
 30
0.0
 10
247.4701937483769
 20
354.9940910320947
 30
0.0
 10
247.4701937483769
 20
354.9940910320947
 30
0.0
 10
247.4701937483769
 20
354.9940910320947
 30
0.0
 10
247.471693748339
 20
354.9960910320442
 30
0.0
 10
247.471693748339
 20
354.9960910320442
 30
0.0
 10
247.8944937376582
 20
355.4198910213381
 30
0.0
 10
248.1557937310572
 20
356.003891006585
 30
0.0
 10
248.1557937310572
 20
356.6464909903516
 30
0.0
 10
248.1557937310572
 20
357.2909999999993
 30
0.0
 10
247.8944937376582
 20
357.875
 30
0.0
 10
247.471693748339
 20
358.2978909486337
 30
0.0
 10
247.471693748339
 20
358.2978909486337
 30
0.0
 10
247.4691937484022
 20
358.2978909486337
 30
0.0
 10
247.4691937484022
 20
358.2978909486337
 30
0.0
 10
247.046393759083
 20
358.7206909379529
 30
0.0
 10
246.4633937738108
 20
358.9813909313671
 30
0.0
 10
245.8197937900695
 20
358.9813909313671
 30
0.0
 10
245.8197937900695
 20
358.9813909313671
 30
0.0
 10
245.8197937900695
 20
358.9813909313671
 30
0.0
 10
245.8197937900695
 20
358.9813909313671
 30
0.0
  0
SPLINE
  5
55
330
4F
100
AcDbEntity
  8
Layer 1
370
     0
100
AcDbSpline
210
0.0
220
0.0
230
1.0
 70
    11
 71
     3
 72
    44
 73
    40
 74
     0
 42
0.000000001
 43
0.0000000001
 40
0.0
 40
0.0
 40
0.0
 40
0.0
 40
1.0
 40
1.0
 40
1.0
 40
2.0
 40
2.0
 40
2.0
 40
3.0
 40
3.0
 40
3.0
 40
4.0
 40
4.0
 40
4.0
 40
5.0
 40
5.0
 40
5.0
 40
6.0
 40
6.0
 40
6.0
 40
7.0
 40
7.0
 40
7.0
 40
8.0
 40
8.0
 40
8.0
 40
9.0
 40
9.0
 40
9.0
 40
10.0
 40
10.0
 40
10.0
 40
11.0
 40
11.0
 40
11.0
 40
12.0
 40
12.0
 40
12.0
 40
13.0
 40
13.0
 40
13.0
 40
13.0
 10
245.041493809731
 20
357.4276909706168
 30
0.0
 10
245.041493809731
 20
357.4276909706168
 30
0.0
 10
245.0385938098043
 20
357.4237909707153
 30
0.0
 10
245.0385938098043
 20
357.4237909707153
 30
0.0
 10
244.8402938148138
 20
357.226590975697
 30
0.0
 10
244.7182938178958
 20
356.9511909826542
 30
0.0
 10
244.7182938178958
 20
356.6464909903516
 30
0.0
 10
244.7182938178958
 20
356.341790998049
 30
0.0
 10
244.8412938147885
 20
356.0644910050542
 30
0.0
 10
245.04
 20
355.8651910100889
 30
0.0
 10
245.04
 20
355.8651910100889
 30
0.0
 10
245.0404938097563
 20
355.8671910100384
 30
0.0
 10
245.0404938097563
 20
355.8671910100384
 30
0.0
 10
245.2396938047241
 20
355.6679999999997
 30
0.0
 10
245.5160937977416
 20
355.5448910181804
 30
0.0
 10
245.8197937900695
 20
355.5448910181804
 30
0.0
 10
246.1254937823469
 20
355.5448910181804
 30
0.0
 10
246.4008937753897
 20
355.6659999999993
 30
0.0
 10
246.598093770408
 20
355.8651910100889
 30
0.0
 10
246.598093770408
 20
355.8651910100889
 30
0.0
 10
246.6010937703322
 20
355.8671910100384
 30
0.0
 10
246.6010937703322
 20
355.8671910100384
 30
0.0
 10
246.7982937653505
 20
356.0644910050542
 30
0.0
 10
246.920393762266
 20
356.3397909980995
 30
0.0
 10
246.920393762266
 20
356.6464909903516
 30
0.0
 10
246.920393762266
 20
356.9491909827047
 30
0.0
 10
246.7973937653733
 20
357.2245909757476
 30
0.0
 10
246.598093770408
 20
357.4237909707153
 30
0.0
 10
246.598093770408
 20
357.4237909707153
 30
0.0
 10
246.5995937703701
 20
357.4257909706648
 30
0.0
 10
246.5995937703701
 20
357.4257909706648
 30
0.0
 10
246.4008937753897
 20
357.625
 30
0.0
 10
246.1244937823722
 20
357.7460909625734
 30
0.0
 10
245.8197937900695
 20
357.7460909625734
 30
0.0
 10
245.5141937977896
 20
357.7460909625734
 30
0.0
 10
245.2392938047342
 20
357.625
 30
0.0
 10
245.041493809731
 20
357.4276909706168
 30
0.0
 10
245.041493809731
 20
357.4276909706168
 30
0.0
 10
245.041493809731
 20
357.4276909706168
 30
0.0
 10
245.041493809731
 20
357.4276909706168
 30
0.0
  0
POLYLINE
  5
56
330
4F
100
AcDbEntity
  8
Layer 1
370
     0
100
AcDb2dPolyline
 66
     1
 10
0.0
 20
0.0
 30
0.0
  0
VERTEX
  5
57
330
56
100
AcDbEntity
  8
Layer 1
370
     0
100
AcDbVertex
100
AcDb2dVertex
 10
268.6972932121353
 20
366.4472907427626
 30
0.0
  0
VERTEX
  5
58
330
56
100
AcDbEntity
  8
Layer 1
370
     0
100
AcDbVertex
100
AcDb2dVertex
 10
262.5766933667546
 20
366.4472907427626
 30
0.0
  0
VERTEX
  5
59
330
56
100
AcDbEntity
  8
Layer 1
370
     0
100
AcDbVertex
100
AcDb2dVertex
 10
262.5766933667546
 20
360.5878908907835
 30
0.0
  0
VERTEX
  5
5A
330
56
100
AcDbEntity
  8
Layer 1
370
     0
100
AcDbVertex
100
AcDb2dVertex
 10
268.6972932121353
 20
360.5878908907835
 30
0.0
  0
VERTEX
  5
5B
330
56
100
AcDbEntity
  8
Layer 1
370
     0
100
AcDbVertex
100
AcDb2dVertex
 10
268.6972932121353
 20
366.4472907427626
 30
0.0
  0
VERTEX
  5
5C
330
56
100
AcDbEntity
  8
Layer 1
370
     0
100
AcDbVertex
100
AcDb2dVertex
 10
268.6972932121353
 20
366.4472907427626
 30
0.0
  0
SEQEND
  5
5D
330
56
100
AcDbEntity
  8
Layer 1
370
     0
  0
POLYLINE
  5
5E
330
4F
100
AcDbEntity
  8
Layer 1
370
     0
100
AcDb2dPolyline
 66
     1
 10
0.0
 20
0.0
 30
0.0
  0
VERTEX
  5
5F
330
5E
100
AcDbEntity
  8
Layer 1
370
     0
100
AcDbVertex
100
AcDb2dVertex
 10
275.3847930431948
 20
366.4472907427626
 30
0.0
  0
VERTEX
  5
60
330
5E
100
AcDbEntity
  8
Layer 1
370
     0
100
AcDbVertex
100
AcDb2dVertex
 10
269.2631931978394
 20
366.4472907427626
 30
0.0
  0
VERTEX
  5
61
330
5E
100
AcDbEntity
  8
Layer 1
370
     0
100
AcDbVertex
100
AcDb2dVertex
 10
269.2631931978394
 20
360.5878908907835
 30
0.0
  0
VERTEX
  5
62
330
5E
100
AcDbEntity
  8
Layer 1
370
     0
100
AcDbVertex
100
AcDb2dVertex
 10
275.3847930431948
 20
360.5878908907835
 30
0.0
  0
VERTEX
  5
63
330
5E
100
AcDbEntity
  8
Layer 1
370
     0
100
AcDbVertex
100
AcDb2dVertex
 10
275.3847930431948
 20
366.4472907427626
 30
0.0
  0
VERTEX
  5
64
330
5E
100
AcDbEntity
  8
Layer 1
370
     0
100
AcDbVertex
100
AcDb2dVertex
 10
275.3847930431948
 20
366.4472907427626
 30
0.0
  0
SEQEND
  5
65
330
5E
100
AcDbEntity
  8
Layer 1
370
     0
  0
POLYLINE
  5
66
330
4F
100
AcDbEntity
  8
Layer 1
370
     0
100
AcDb2dPolyline
 66
     1
 10
0.0
 20
0.0
 30
0.0
  0
VERTEX
  5
67
330
66
100
AcDbEntity
  8
Layer 1
370
     0
100
AcDbVertex
100
AcDb2dVertex
 10
249.0062937095718
 20
366.4472907427626
 30
0.0
  0
VERTEX
  5
68
330
66
100
AcDbEntity
  8
Layer 1
370
     0
100
AcDbVertex
100
AcDb2dVertex
 10
242.8847938642139
 20
366.4472907427626
 30
0.0
  0
VERTEX
  5
69
330
66
100
AcDbEntity
  8
Layer 1
370
     0
100
AcDbVertex
100
AcDb2dVertex
 10
242.8847938642139
 20
360.5878908907835
 30
0.0
  0
VERTEX
  5
6A
330
66
100
AcDbEntity
  8
Layer 1
370
     0
100
AcDbVertex
100
AcDb2dVertex
 10
249.0062937095718
 20
360.5878908907835
 30
0.0
  0
VERTEX
  5
6B
330
66
100
AcDbEntity
  8
Layer 1
370
     0
100
AcDbVertex
100
AcDb2dVertex
 10
249.0062937095718
 20
366.4472907427626
 30
0.0
  0
VERTEX
  5
6C
330
66
100
AcDbEntity
  8
Layer 1
370
     0
100
AcDbVertex
100
AcDb2dVertex
 10
249.0062937095718
 20
366.4472907427626
 30
0.0
  0
SEQEND
  5
6D
330
66
100
AcDbEntity
  8
Layer 1
370
     0
  0
POLYLINE
  5
6E
330
4F
100
AcDbEntity
  8
Layer 1
370
     0
100
AcDb2dPolyline
 66
     1
 10
0.0
 20
0.0
 30
0.0
  0
VERTEX
  5
6F
330
6E
100
AcDbEntity
  8
Layer 1
370
     0
100
AcDbVertex
100
AcDb2dVertex
 10
255.692893540654
 20
366.4472907427626
 30
0.0
  0
VERTEX
  5
70
330
6E
100
AcDbEntity
  8
Layer 1
370
     0
100
AcDbVertex
100
AcDb2dVertex
 10
249.5722936952734
 20
366.4472907427626
 30
0.0
  0
VERTEX
  5
71
330
6E
100
AcDbEntity
  8
Layer 1
370
     0
100
AcDbVertex
100
AcDb2dVertex
 10
249.5722936952734
 20
360.5878908907835
 30
0.0
  0
VERTEX
  5
72
330
6E
100
AcDbEntity
  8
Layer 1
370
     0
100
AcDbVertex
100
AcDb2dVertex
 10
255.692893540654
 20
360.5878908907835
 30
0.0
  0
VERTEX
  5
73
330
6E
100
AcDbEntity
  8
Layer 1
370
     0
100
AcDbVertex
100
AcDb2dVertex
 10
255.692893540654
 20
366.4472907427626
 30
0.0
  0
VERTEX
  5
74
330
6E
100
AcDbEntity
  8
Layer 1
370
     0
100
AcDbVertex
100
AcDb2dVertex
 10
255.692893540654
 20
366.4472907427626
 30
0.0
  0
SEQEND
  5
75
330
6E
100
AcDbEntity
  8
Layer 1
370
     0
  0
POLYLINE
  5
76
330
4F
100
AcDbEntity
  8
Layer 1
370
     0
100
AcDb2dPolyline
 66
     1
 10
0.0
 20
0.0
 30
0.0
  0
VERTEX
  5
77
330
76
100
AcDbEntity
  8
Layer 1
370
     0
100
AcDbVertex
100
AcDb2dVertex
 10
261.6791933894274
 20
357.0507909801381
 30
0.0
  0
VERTEX
  5
78
330
76
100
AcDbEntity
  8
Layer 1
370
     0
100
AcDbVertex
100
AcDb2dVertex
 10
261.6791933894274
 20
366.1415907504852
 30
0.0
  0
VERTEX
  5
79
330
76
100
AcDbEntity
  8
Layer 1
370
     0
100
AcDbVertex
100
AcDb2dVertex
 10
259.3070934493517
 20
366.1415907504852
 30
0.0
  0
VERTEX
  5
7A
330
76
100
AcDbEntity
  8
Layer 1
370
     0
100
AcDbVertex
100
AcDb2dVertex
 10
259.3070934493517
 20
357.0507909801381
 30
0.0
  0
VERTEX
  5
7B
330
76
100
AcDbEntity
  8
Layer 1
370
     0
100
AcDbVertex
100
AcDb2dVertex
 10
261.6791933894274
 20
357.0507909801381
 30
0.0
  0
VERTEX
  5
7C
330
76
100
AcDbEntity
  8
Layer 1
370
     0
100
AcDbVertex
100
AcDb2dVertex
 10
261.6791933894274
 20
357.0507909801381
 30
0.0
  0
SEQEND
  5
7D
330
76
100
AcDbEntity
  8
Layer 1
370
     0
  0
POLYLINE
  5
7E
330
4F
100
AcDbEntity
  8
Layer 1
370
     0
100
AcDb2dPolyline
 66
     1
 10
0.0
 20
0.0
 30
0.0
  0
VERTEX
  5
7F
330
7E
100
AcDbEntity
  8
Layer 1
370
     0
100
AcDbVertex
100
AcDb2dVertex
 10
258.3915934724791
 20
365.4511907679262
 30
0.0
  0
VERTEX
  5
80
330
7E
100
AcDbEntity
  8
Layer 1
370
     0
100
AcDbVertex
100
AcDb2dVertex
 10
257.171393503304
 20
365.4511907679262
 30
0.0
  0
VERTEX
  5
81
330
7E
100
AcDbEntity
  8
Layer 1
370
     0
100
AcDbVertex
100
AcDb2dVertex
 10
257.171393503304
 20
360.576190891079
 30
0.0
  0
VERTEX
  5
82
330
7E
100
AcDbEntity
  8
Layer 1
370
     0
100
AcDbVertex
100
AcDb2dVertex
 10
258.3915934724791
 20
360.576190891079
 30
0.0
  0
VERTEX
  5
83
330
7E
100
AcDbEntity
  8
Layer 1
370
     0
100
AcDbVertex
100
AcDb2dVertex
 10
258.3915934724791
 20
365.4511907679262
 30
0.0
  0
VERTEX
  5
84
330
7E
100
AcDbEntity
  8
Layer 1
370
     0
100
AcDbVertex
100
AcDb2dVertex
 10
258.3915934724791
 20
365.4511907679262
 30
0.0
  0
SEQEND
  5
85
330
7E
100
AcDbEntity
  8
Layer 1
370
     0
  0
POLYLINE
  5
86
330
4F
100
AcDbEntity
  8
Layer 1
370
     0
100
AcDb2dPolyline
 66
     1
 10
0.0
 20
0.0
 30
0.0
  0
VERTEX
  5
87
330
86
100
AcDbEntity
  8
Layer 1
370
     0
100
AcDbVertex
100
AcDb2dVertex
 10
258.9780000000001
 20
357.0507909801381
 30
0.0
  0
VERTEX
  5
88
330
86
100
AcDbEntity
  8
Layer 1
370
     0
100
AcDbVertex
100
AcDb2dVertex
 10
258.9780000000001
 20
366.1415907504852
 30
0.0
  0
VERTEX
  5
89
330
86
100
AcDbEntity
  8
Layer 1
370
     0
100
AcDbVertex
100
AcDb2dVertex
 10
256.6063935175771
 20
366.1415907504852
 30
0.0
  0
VERTEX
  5
8A
330
86
100
AcDbEntity
  8
Layer 1
370
     0
100
AcDbVertex
100
AcDb2dVertex
 10
256.6063935175771
 20
357.0507909801381
 30
0.0
  0
VERTEX
  5
8B
330
86
100
AcDbEntity
  8
Layer 1
370
     0
100
AcDbVertex
100
AcDb2dVertex
 10
258.9780000000001
 20
357.0507909801381
 30
0.0
  0
VERTEX
  5
8C
330
86
100
AcDbEntity
  8
Layer 1
370
     0
100
AcDbVertex
100
AcDb2dVertex
 10
258.9780000000001
 20
357.0507909801381
 30
0.0
  0
SEQEND
  5
8D
330
86
100
AcDbEntity
  8
Layer 1
370
     0
  0
POLYLINE
  5
8E
330
4F
100
AcDbEntity
  8
Layer 1
370
     0
100
AcDb2dPolyline
 66
     1
 10
0.0
 20
0.0
 30
0.0
  0
VERTEX
  5
8F
330
8E
100
AcDbEntity
  8
Layer 1
370
     0
100
AcDbVertex
100
AcDb2dVertex
 10
256.4413935217453
 20
356.7206909884771
 30
0.0
  0
VERTEX
  5
90
330
8E
100
AcDbEntity
  8
Layer 1
370
     0
100
AcDbVertex
100
AcDb2dVertex
 10
258.9780000000001
 20
356.7206909884771
 30
0.0
  0
VERTEX
  5
91
330
8E
100
AcDbEntity
  8
Layer 1
370
     0
100
AcDbVertex
100
AcDb2dVertex
 10
259.1430934534947
 20
356.7206909884771
 30
0.0
  0
VERTEX
  5
92
330
8E
100
AcDbEntity
  8
Layer 1
370
     0
100
AcDbVertex
100
AcDb2dVertex
 10
259.3070934493517
 20
356.7206909884771
 30
0.0
  0
VERTEX
  5
93
330
8E
100
AcDbEntity
  8
Layer 1
370
     0
100
AcDbVertex
100
AcDb2dVertex
 10
261.8437933852692
 20
356.7206909884771
 30
0.0
  0
VERTEX
  5
94
330
8E
100
AcDbEntity
  8
Layer 1
370
     0
100
AcDbVertex
100
AcDb2dVertex
 10
262.008793381101
 20
356.7206909884771
 30
0.0
  0
VERTEX
  5
95
330
8E
100
AcDbEntity
  8
Layer 1
370
     0
100
AcDbVertex
100
AcDb2dVertex
 10
262.008793381101
 20
356.8847909843316
 30
0.0
  0
VERTEX
  5
96
330
8E
100
AcDbEntity
  8
Layer 1
370
     0
100
AcDbVertex
100
AcDb2dVertex
 10
262.008793381101
 20
366.3056907463397
 30
0.0
  0
VERTEX
  5
97
330
8E
100
AcDbEntity
  8
Layer 1
370
     0
100
AcDbVertex
100
AcDb2dVertex
 10
262.008793381101
 20
366.4706907421714
 30
0.0
  0
VERTEX
  5
98
330
8E
100
AcDbEntity
  8
Layer 1
370
     0
100
AcDbVertex
100
AcDb2dVertex
 10
261.8437933852692
 20
366.4706907421714
 30
0.0
  0
VERTEX
  5
99
330
8E
100
AcDbEntity
  8
Layer 1
370
     0
100
AcDbVertex
100
AcDb2dVertex
 10
259.3070934493517
 20
366.4706907421714
 30
0.0
  0
VERTEX
  5
9A
330
8E
100
AcDbEntity
  8
Layer 1
370
     0
100
AcDbVertex
100
AcDb2dVertex
 10
259.1430934534947
 20
366.4706907421714
 30
0.0
  0
VERTEX
  5
9B
330
8E
100
AcDbEntity
  8
Layer 1
370
     0
100
AcDbVertex
100
AcDb2dVertex
 10
258.9780000000001
 20
366.4706907421714
 30
0.0
  0
VERTEX
  5
9C
330
8E
100
AcDbEntity
  8
Layer 1
370
     0
100
AcDbVertex
100
AcDb2dVertex
 10
256.4413935217453
 20
366.4706907421714
 30
0.0
  0
VERTEX
  5
9D
330
8E
100
AcDbEntity
  8
Layer 1
370
     0
100
AcDbVertex
100
AcDb2dVertex
 10
256.2772935258909
 20
366.4706907421714
 30
0.0
  0
VERTEX
  5
9E
330
8E
100
AcDbEntity
  8
Layer 1
370
     0
100
AcDbVertex
100
AcDb2dVertex
 10
256.2772935258909
 20
366.3056907463397
 30
0.0
  0
VERTEX
  5
9F
330
8E
100
AcDbEntity
  8
Layer 1
370
     0
100
AcDbVertex
100
AcDb2dVertex
 10
256.2772935258909
 20
356.8847909843316
 30
0.0
  0
VERTEX
  5
A0
330
8E
100
AcDbEntity
  8
Layer 1
370
     0
100
AcDbVertex
100
AcDb2dVertex
 10
256.2772935258909
 20
356.7206909884771
 30
0.0
  0
VERTEX
  5
A1
330
8E
100
AcDbEntity
  8
Layer 1
370
     0
100
AcDbVertex
100
AcDb2dVertex
 10
256.4413935217453
 20
356.7206909884771
 30
0.0
  0
VERTEX
  5
A2
330
8E
100
AcDbEntity
  8
Layer 1
370
     0
100
AcDbVertex
100
AcDb2dVertex
 10
256.4413935217453
 20
356.7206909884771
 30
0.0
  0
SEQEND
  5
A3
330
8E
100
AcDbEntity
  8
Layer 1
370
     0
  0
POLYLINE
  5
A4
330
4F
100
AcDbEntity
  8
Layer 1
370
     0
100
AcDb2dPolyline
 66
     1
 10
0.0
 20
0.0
 30
0.0
  0
VERTEX
  5
A5
330
A4
100
AcDbEntity
  8
Layer 1
370
     0
100
AcDbVertex
100
AcDb2dVertex
 10
261.0922934042537
 20
365.4511907679262
 30
0.0
  0
VERTEX
  5
A6
330
A4
100
AcDbEntity
  8
Layer 1
370
     0
100
AcDbVertex
100
AcDb2dVertex
 10
259.8725934350659
 20
365.4511907679262
 30
0.0
  0
VERTEX
  5
A7
330
A4
100
AcDbEntity
  8
Layer 1
370
     0
100
AcDbVertex
100
AcDb2dVertex
 10
259.8725934350659
 20
360.576190891079
 30
0.0
  0
VERTEX
  5
A8
330
A4
100
AcDbEntity
  8
Layer 1
370
     0
100
AcDbVertex
100
AcDb2dVertex
 10
261.0922934042537
 20
360.576190891079
 30
0.0
  0
VERTEX
  5
A9
330
A4
100
AcDbEntity
  8
Layer 1
370
     0
100
AcDbVertex
100
AcDb2dVertex
 10
261.0922934042537
 20
365.4511907679262
 30
0.0
  0
VERTEX
  5
AA
330
A4
100
AcDbEntity
  8
Layer 1
370
     0
100
AcDbVertex
100
AcDb2dVertex
 10
261.0922934042537
 20
365.4511907679262
 30
0.0
  0
SEQEND
  5
AB
330
A4
100
AcDbEntity
  8
Layer 1
370
     0
  0
SPLINE
  5
AC
330
4F
100
AcDbEntity
  8
Layer 1
370
     0
100
AcDbSpline
210
0.0
220
0.0
230
1.0
 70
    11
 71
     3
 72
    50
 73
    46
 74
     0
 42
0.000000001
 43
0.0000000001
 40
0.0
 40
0.0
 40
0.0
 40
0.0
 40
1.0
 40
1.0
 40
1.0
 40
2.0
 40
2.0
 40
2.0
 40
3.0
 40
3.0
 40
3.0
 40
4.0
 40
4.0
 40
4.0
 40
5.0
 40
5.0
 40
5.0
 40
6.0
 40
6.0
 40
6.0
 40
7.0
 40
7.0
 40
7.0
 40
8.0
 40
8.0
 40
8.0
 40
9.0
 40
9.0
 40
9.0
 40
10.0
 40
10.0
 40
10.0
 40
11.0
 40
11.0
 40
11.0
 40
12.0
 40
12.0
 40
12.0
 40
13.0
 40
13.0
 40
13.0
 40
14.0
 40
14.0
 40
14.0
 40
15.0
 40
15.0
 40
15.0
 40
15.0
 10
287.6312927338222
 20
358.9813909313671
 30
0.0
 10
286.9882927500657
 20
358.9813909313671
 30
0.0
 10
286.4047927648062
 20
358.7206909379529
 30
0.0
 10
285.9823927754769
 20
358.2978909486337
 30
0.0
 10
285.9823927754769
 20
358.2978909486337
 30
0.0
 10
285.9794927755502
 20
358.2978909486337
 30
0.0
 10
285.9794927755502
 20
358.2978909486337
 30
0.0
 10
285.5565927862335
 20
357.875
 30
0.0
 10
285.2958927928194
 20
357.2909999999993
 30
0.0
 10
285.2958927928194
 20
356.6464909903516
 30
0.0
 10
285.2958927928194
 20
356.003891006585
 30
0.0
 10
285.5565927862335
 20
355.4198910213381
 30
0.0
 10
285.9794927755502
 20
354.9960910320442
 30
0.0
 10
285.9794927755502
 20
354.9960910320442
 30
0.0
 10
285.9813927755022
 20
354.9940910320947
 30
0.0
 10
285.9813927755022
 20
354.9940910320947
 30
0.0
 10
285.9813927755022
 20
354.9940910320947
 30
0.0
 10
285.9823927754769
 20
354.9940910320947
 30
0.0
 10
285.9823927754769
 20
354.9940910320947
 30
0.0
 10
286.4057927647809
 20
354.5702910428008
 30
0.0
 10
286.9892927500405
 20
354.3104910493639
 30
0.0
 10
287.6312927338222
 20
354.3104910493639
 30
0.0
 10
288.2763927175256
 20
354.3104910493639
 30
0.0
 10
288.8607927027624
 20
354.5702910428008
 30
0.0
 10
289.2831926920917
 20
354.9940910320947
 30
0.0
 10
289.2831926920917
 20
354.9940910320947
 30
0.0
 10
289.2831926920917
 20
354.9960910320442
 30
0.0
 10
289.2831926920917
 20
354.9960910320442
 30
0.0
 10
289.705592681421
 20
355.4198910213381
 30
0.0
 10
289.9672926748099
 20
356.0020000000004
 30
0.0
 10
289.9672926748099
 20
356.6464909903516
 30
0.0
 10
289.9672926748099
 20
357.2870909741687
 30
0.0
 10
289.705592681421
 20
357.8710909594156
 30
0.0
 10
289.2831926920917
 20
358.2948909487095
 30
0.0
 10
289.2831926920917
 20
358.2948909487095
 30
0.0
 10
289.2812926921397
 20
358.2958909486842
 30
0.0
 10
289.2812926921397
 20
358.2958909486842
 30
0.0
 10
289.2812926921397
 20
358.2958909486842
 30
0.0
 10
289.2802926921649
 20
358.2978909486337
 30
0.0
 10
289.2802926921649
 20
358.2978909486337
 30
0.0
 10
288.8559999999998
 20
358.7206909379529
 30
0.0
 10
288.2733927176014
 20
358.9813909313671
 30
0.0
 10
287.6312927338222
 20
358.9813909313671
 30
0.0
 10
287.6312927338222
 20
358.9813909313671
 30
0.0
 10
287.6312927338222
 20
358.9813909313671
 30
0.0
 10
287.6312927338222
 20
358.9813909313671
 30
0.0
  0
SPLINE
  5
AD
330
4F
100
AcDbEntity
  8
Layer 1
370
     0
100
AcDbSpline
210
0.0
220
0.0
230
1.0
 70
    11
 71
     3
 72
    44
 73
    40
 74
     0
 42
0.000000001
 43
0.0000000001
 40
0.0
 40
0.0
 40
0.0
 40
0.0
 40
1.0
 40
1.0
 40
1.0
 40
2.0
 40
2.0
 40
2.0
 40
3.0
 40
3.0
 40
3.0
 40
4.0
 40
4.0
 40
4.0
 40
5.0
 40
5.0
 40
5.0
 40
6.0
 40
6.0
 40
6.0
 40
7.0
 40
7.0
 40
7.0
 40
8.0
 40
8.0
 40
8.0
 40
9.0
 40
9.0
 40
9.0
 40
10.0
 40
10.0
 40
10.0
 40
11.0
 40
11.0
 40
11.0
 40
12.0
 40
12.0
 40
12.0
 40
13.0
 40
13.0
 40
13.0
 40
13.0
 10
288.4096927141582
 20
357.4276909706168
 30
0.0
 10
288.211892719155
 20
357.625
 30
0.0
 10
287.9369999999999
 20
357.7460909625734
 30
0.0
 10
287.6312927338222
 20
357.7460909625734
 30
0.0
 10
287.3261927415297
 20
357.7460909625734
 30
0.0
 10
287.0502927484995
 20
357.625
 30
0.0
 10
286.8510927535317
 20
357.4257909706648
 30
0.0
 10
286.8510927535317
 20
357.4257909706648
 30
0.0
 10
286.8530000000001
 20
357.4237909707153
 30
0.0
 10
286.8530000000001
 20
357.4237909707153
 30
0.0
 10
286.6537927585159
 20
357.2245909757476
 30
0.0
 10
286.5297927616484
 20
356.9491909827047
 30
0.0
 10
286.5297927616484
 20
356.6464909903516
 30
0.0
 10
286.5297927616484
 20
356.3397909980995
 30
0.0
 10
286.6527927585412
 20
356.0644910050542
 30
0.0
 10
286.850092753557
 20
355.8671910100384
 30
0.0
 10
286.850092753557
 20
355.8671910100384
 30
0.0
 10
286.8530000000001
 20
355.8651910100889
 30
0.0
 10
286.8530000000001
 20
355.8651910100889
 30
0.0
 10
287.0502927484995
 20
355.6659999999993
 30
0.0
 10
287.3256927415423
 20
355.5448910181804
 30
0.0
 10
287.6312927338222
 20
355.5448910181804
 30
0.0
 10
287.9350927261476
 20
355.5448910181804
 30
0.0
 10
288.2103927191929
 20
355.6679999999997
 30
0.0
 10
288.4096927141582
 20
355.8671910100384
 30
0.0
 10
288.4096927141582
 20
355.8671910100384
 30
0.0
 10
288.4115927141102
 20
355.8651910100889
 30
0.0
 10
288.4115927141102
 20
355.8651910100889
 30
0.0
 10
288.6098927091007
 20
356.0644910050542
 30
0.0
 10
288.7328927059934
 20
356.341790998049
 30
0.0
 10
288.7328927059934
 20
356.6464909903516
 30
0.0
 10
288.7328927059934
 20
356.9511909826542
 30
0.0
 10
288.6098927091007
 20
357.226590975697
 30
0.0
 10
288.4125927140849
 20
357.4237909707153
 30
0.0
 10
288.4125927140849
 20
357.4237909707153
 30
0.0
 10
288.4096927141582
 20
357.4276909706168
 30
0.0
 10
288.4096927141582
 20
357.4276909706168
 30
0.0
 10
288.4096927141582
 20
357.4276909706168
 30
0.0
 10
288.4096927141582
 20
357.4276909706168
 30
0.0
 10
288.4096927141582
 20
357.4276909706168
 30
0.0
  0
SPLINE
  5
AE
330
4F
100
AcDbEntity
  8
Layer 1
370
     0
100
AcDbSpline
210
0.0
220
0.0
230
1.0
 70
    11
 71
     3
 72
    50
 73
    46
 74
     0
 42
0.000000001
 43
0.0000000001
 40
0.0
 40
0.0
 40
0.0
 40
0.0
 40
1.0
 40
1.0
 40
1.0
 40
2.0
 40
2.0
 40
2.0
 40
3.0
 40
3.0
 40
3.0
 40
4.0
 40
4.0
 40
4.0
 40
5.0
 40
5.0
 40
5.0
 40
6.0
 40
6.0
 40
6.0
 40
7.0
 40
7.0
 40
7.0
 40
8.0
 40
8.0
 40
8.0
 40
9.0
 40
9.0
 40
9.0
 40
10.0
 40
10.0
 40
10.0
 40
11.0
 40
11.0
 40
11.0
 40
12.0
 40
12.0
 40
12.0
 40
13.0
 40
13.0
 40
13.0
 40
14.0
 40
14.0
 40
14.0
 40
15.0
 40
15.0
 40
15.0
 40
15.0
 10
317.0058919917574
 20
358.9813909313671
 30
0.0
 10
316.3612920080413
 20
358.9813909313671
 30
0.0
 10
315.7792920227439
 20
358.7206909379529
 30
0.0
 10
315.35549203345
 20
358.2978909486337
 30
0.0
 10
315.35549203345
 20
358.2978909486337
 30
0.0
 10
315.3534920335005
 20
358.2978909486337
 30
0.0
 10
315.3534920335005
 20
358.2978909486337
 30
0.0
 10
314.9306920441813
 20
357.875
 30
0.0
 10
314.6679999999997
 20
357.2909999999993
 30
0.0
 10
314.6679999999997
 20
356.6464909903516
 30
0.0
 10
314.6679999999997
 20
356.003891006585
 30
0.0
 10
314.9306920441813
 20
355.4198910213381
 30
0.0
 10
315.3534920335005
 20
354.9960910320442
 30
0.0
 10
315.3534920335005
 20
354.9960910320442
 30
0.0
 10
315.3534920335005
 20
354.9940910320947
 30
0.0
 10
315.3534920335005
 20
354.9940910320947
 30
0.0
 10
315.3534920335005
 20
354.9940910320947
 30
0.0
 10
315.35549203345
 20
354.9940910320947
 30
0.0
 10
315.35549203345
 20
354.9940910320947
 30
0.0
 10
315.7792920227439
 20
354.5702910428008
 30
0.0
 10
316.3632920079908
 20
354.3104910493639
 30
0.0
 10
317.0058919917574
 20
354.3104910493639
 30
0.0
 10
317.6503919754759
 20
354.3104910493639
 30
0.0
 10
318.2343919607229
 20
354.5702910428008
 30
0.0
 10
318.6562919500648
 20
354.9940910320947
 30
0.0
 10
318.6562919500648
 20
354.9940910320947
 30
0.0
 10
318.6562919500648
 20
354.9960910320442
 30
0.0
 10
318.6562919500648
 20
354.9960910320442
 30
0.0
 10
319.0800919393587
 20
355.4198910213381
 30
0.0
 10
319.3417919327476
 20
356.0020000000004
 30
0.0
 10
319.3417919327476
 20
356.6464909903516
 30
0.0
 10
319.3417919327476
 20
357.2870909741687
 30
0.0
 10
319.0800919393587
 20
357.8710909594156
 30
0.0
 10
318.6562919500648
 20
358.2948909487095
 30
0.0
 10
318.6562919500648
 20
358.2948909487095
 30
0.0
 10
318.65529195009
 20
358.2958909486842
 30
0.0
 10
318.65529195009
 20
358.2958909486842
 30
0.0
 10
318.65529195009
 20
358.2958909486842
 30
0.0
 10
318.6542919501153
 20
358.2978909486337
 30
0.0
 10
318.6542919501153
 20
358.2978909486337
 30
0.0
 10
318.2304919608214
 20
358.7206909379529
 30
0.0
 10
317.6474919755492
 20
358.9813909313671
 30
0.0
 10
317.0058919917574
 20
358.9813909313671
 30
0.0
 10
317.0058919917574
 20
358.9813909313671
 30
0.0
 10
317.0058919917574
 20
358.9813909313671
 30
0.0
 10
317.0058919917574
 20
358.9813909313671
 30
0.0
  0
SPLINE
  5
AF
330
4F
100
AcDbEntity
  8
Layer 1
370
     0
100
AcDbSpline
210
0.0
220
0.0
230
1.0
 70
    11
 71
     3
 72
    44
 73
    40
 74
     0
 42
0.000000001
 43
0.0000000001
 40
0.0
 40
0.0
 40
0.0
 40
0.0
 40
1.0
 40
1.0
 40
1.0
 40
2.0
 40
2.0
 40
2.0
 40
3.0
 40
3.0
 40
3.0
 40
4.0
 40
4.0
 40
4.0
 40
5.0
 40
5.0
 40
5.0
 40
6.0
 40
6.0
 40
6.0
 40
7.0
 40
7.0
 40
7.0
 40
8.0
 40
8.0
 40
8.0
 40
9.0
 40
9.0
 40
9.0
 40
10.0
 40
10.0
 40
10.0
 40
11.0
 40
11.0
 40
11.0
 40
12.0
 40
12.0
 40
12.0
 40
13.0
 40
13.0
 40
13.0
 40
13.0
 10
317.7831919721211
 20
357.4276909706168
 30
0.0
 10
317.5858919771053
 20
357.625
 30
0.0
 10
317.3104919840625
 20
357.7460909625734
 30
0.0
 10
317.0058919917574
 20
357.7460909625734
 30
0.0
 10
316.7011919994547
 20
357.7460909625734
 30
0.0
 10
316.4237920064625
 20
357.625
 30
0.0
 10
316.2245920114947
 20
357.4257909706648
 30
0.0
 10
316.2245920114947
 20
357.4257909706648
 30
0.0
 10
316.2265920114442
 20
357.4237909707153
 30
0.0
 10
316.2265920114442
 20
357.4237909707153
 30
0.0
 10
316.0272920164789
 20
357.2245909757476
 30
0.0
 10
315.9042920195861
 20
356.9491909827047
 30
0.0
 10
315.9042920195861
 20
356.6464909903516
 30
0.0
 10
315.9042920195861
 20
356.3397909980995
 30
0.0
 10
316.0253920165269
 20
356.0644910050542
 30
0.0
 10
316.2245920114947
 20
355.8671910100384
 30
0.0
 10
316.2245920114947
 20
355.8671910100384
 30
0.0
 10
316.2265920114442
 20
355.8651910100889
 30
0.0
 10
316.2265920114442
 20
355.8651910100889
 30
0.0
 10
316.4237920064625
 20
355.6659999999993
 30
0.0
 10
316.6991919995053
 20
355.5448910181804
 30
0.0
 10
317.0058919917574
 20
355.5448910181804
 30
0.0
 10
317.3085919841105
 20
355.5448910181804
 30
0.0
 10
317.5840000000007
 20
355.6679999999997
 30
0.0
 10
317.7831919721211
 20
355.8671910100384
 30
0.0
 10
317.7831919721211
 20
355.8671910100384
 30
0.0
 10
317.7851919720706
 20
355.8651910100889
 30
0.0
 10
317.7851919720706
 20
355.8651910100889
 30
0.0
 10
317.9833919670637
 20
356.0644910050542
 30
0.0
 10
318.1054919639791
 20
356.341790998049
 30
0.0
 10
318.1054919639791
 20
356.6464909903516
 30
0.0
 10
318.1054919639791
 20
356.9511909826542
 30
0.0
 10
317.9833919670637
 20
357.226590975697
 30
0.0
 10
317.7860919720479
 20
357.4237909707153
 30
0.0
 10
317.7860919720479
 20
357.4237909707153
 30
0.0
 10
317.7831919721211
 20
357.4276909706168
 30
0.0
 10
317.7831919721211
 20
357.4276909706168
 30
0.0
 10
317.7831919721211
 20
357.4276909706168
 30
0.0
 10
317.7831919721211
 20
357.4276909706168
 30
0.0
 10
317.7831919721211
 20
357.4276909706168
 30
0.0
  0
SPLINE
  5
B0
330
4F
100
AcDbEntity
  8
Layer 1
370
     0
100
AcDbSpline
210
0.0
220
0.0
230
1.0
 70
    11
 71
     3
 72
    50
 73
    46
 74
     0
 42
0.000000001
 43
0.0000000001
 40
0.0
 40
0.0
 40
0.0
 40
0.0
 40
1.0
 40
1.0
 40
1.0
 40
2.0
 40
2.0
 40
2.0
 40
3.0
 40
3.0
 40
3.0
 40
4.0
 40
4.0
 40
4.0
 40
5.0
 40
5.0
 40
5.0
 40
6.0
 40
6.0
 40
6.0
 40
7.0
 40
7.0
 40
7.0
 40
8.0
 40
8.0
 40
8.0
 40
9.0
 40
9.0
 40
9.0
 40
10.0
 40
10.0
 40
10.0
 40
11.0
 40
11.0
 40
11.0
 40
12.0
 40
12.0
 40
12.0
 40
13.0
 40
13.0
 40
13.0
 40
14.0
 40
14.0
 40
14.0
 40
15.0
 40
15.0
 40
15.0
 40
15.0
 10
294.1205925698887
 20
358.9813909313671
 30
0.0
 10
293.4765925861575
 20
358.9813909313671
 30
0.0
 10
292.8935926008853
 20
358.7206909379529
 30
0.0
 10
292.4706926115687
 20
358.2978909486337
 30
0.0
 10
292.4706926115687
 20
358.2978909486337
 30
0.0
 10
292.4687926116167
 20
358.2978909486337
 30
0.0
 10
292.4687926116167
 20
358.2978909486337
 30
0.0
 10
292.0463926222874
 20
357.875
 30
0.0
 10
291.7841926289111
 20
357.2909999999993
 30
0.0
 10
291.7841926289111
 20
356.6464909903516
 30
0.0
 10
291.7841926289111
 20
356.003891006585
 30
0.0
 10
292.0463926222874
 20
355.4198910213381
 30
0.0
 10
292.4687926116167
 20
354.9960910320442
 30
0.0
 10
292.4687926116167
 20
354.9960910320442
 30
0.0
 10
292.4696926115939
 20
354.9940910320947
 30
0.0
 10
292.4696926115939
 20
354.9940910320947
 30
0.0
 10
292.4696926115939
 20
354.9940910320947
 30
0.0
 10
292.4706926115687
 20
354.9940910320947
 30
0.0
 10
292.4706926115687
 20
354.9940910320947
 30
0.0
 10
292.8944926008626
 20
354.5702910428008
 30
0.0
 10
293.4774925861348
 20
354.3104910493639
 30
0.0
 10
294.1205925698887
 20
354.3104910493639
 30
0.0
 10
294.7650925536072
 20
354.3104910493639
 30
0.0
 10
295.3490925388542
 20
354.5702910428008
 30
0.0
 10
295.7714925281834
 20
354.9940910320947
 30
0.0
 10
295.7714925281834
 20
354.9940910320947
 30
0.0
 10
295.7714925281834
 20
354.9960910320442
 30
0.0
 10
295.7714925281834
 20
354.9960910320442
 30
0.0
 10
296.19479251749
 20
355.4198910213381
 30
0.0
 10
296.456092510889
 20
356.0020000000004
 30
0.0
 10
296.456092510889
 20
356.6464909903516
 30
0.0
 10
296.456092510889
 20
357.2870909741687
 30
0.0
 10
296.19479251749
 20
357.8710909594156
 30
0.0
 10
295.7714925281834
 20
358.2948909487095
 30
0.0
 10
295.7714925281834
 20
358.2948909487095
 30
0.0
 10
295.7704925282087
 20
358.2958909486842
 30
0.0
 10
295.7704925282087
 20
358.2958909486842
 30
0.0
 10
295.7704925282087
 20
358.2958909486842
 30
0.0
 10
295.769492528234
 20
358.2978909486337
 30
0.0
 10
295.769492528234
 20
358.2978909486337
 30
0.0
 10
295.3451925389527
 20
358.7206909379529
 30
0.0
 10
294.7626925536679
 20
358.9813909313671
 30
0.0
 10
294.1205925698887
 20
358.9813909313671
 30
0.0
 10
294.1205925698887
 20
358.9813909313671
 30
0.0
 10
294.1205925698887
 20
358.9813909313671
 30
0.0
 10
294.1205925698887
 20
358.9813909313671
 30
0.0
  0
SPLINE
  5
B1
330
4F
100
AcDbEntity
  8
Layer 1
370
     0
100
AcDbSpline
210
0.0
220
0.0
230
1.0
 70
    11
 71
     3
 72
    44
 73
    40
 74
     0
 42
0.000000001
 43
0.0000000001
 40
0.0
 40
0.0
 40
0.0
 40
0.0
 40
1.0
 40
1.0
 40
1.0
 40
2.0
 40
2.0
 40
2.0
 40
3.0
 40
3.0
 40
3.0
 40
4.0
 40
4.0
 40
4.0
 40
5.0
 40
5.0
 40
5.0
 40
6.0
 40
6.0
 40
6.0
 40
7.0
 40
7.0
 40
7.0
 40
8.0
 40
8.0
 40
8.0
 40
9.0
 40
9.0
 40
9.0
 40
10.0
 40
10.0
 40
10.0
 40
11.0
 40
11.0
 40
11.0
 40
12.0
 40
12.0
 40
12.0
 40
13.0
 40
13.0
 40
13.0
 40
13.0
 10
294.8988925502272
 20
357.4276909706168
 30
0.0
 10
294.7016925552089
 20
357.625
 30
0.0
 10
294.4257925621787
 20
357.7460909625734
 30
0.0
 10
294.1205925698887
 20
357.7460909625734
 30
0.0
 10
293.8148925776113
 20
357.7460909625734
 30
0.0
 10
293.54
 20
357.625
 30
0.0
 10
293.3402925896007
 20
357.4257909706648
 30
0.0
 10
293.3402925896007
 20
357.4257909706648
 30
0.0
 10
293.3412925895755
 20
357.4237909707153
 30
0.0
 10
293.3412925895755
 20
357.4237909707153
 30
0.0
 10
293.1420925946077
 20
357.2245909757476
 30
0.0
 10
293.0190000000002
 20
356.9491909827047
 30
0.0
 10
293.0190000000002
 20
356.6464909903516
 30
0.0
 10
293.0190000000002
 20
356.3397909980995
 30
0.0
 10
293.1410925946329
 20
356.0644910050542
 30
0.0
 10
293.3393925896235
 20
355.8671910100384
 30
0.0
 10
293.3393925896235
 20
355.8671910100384
 30
0.0
 10
293.3412925895755
 20
355.8651910100889
 30
0.0
 10
293.3412925895755
 20
355.8651910100889
 30
0.0
 10
293.54
 20
355.6659999999993
 30
0.0
 10
293.8148925776113
 20
355.5448910181804
 30
0.0
 10
294.1205925698887
 20
355.5448910181804
 30
0.0
 10
294.4242925622166
 20
355.5448910181804
 30
0.0
 10
294.6996925552594
 20
355.6679999999997
 30
0.0
 10
294.8988925502272
 20
355.8671910100384
 30
0.0
 10
294.8988925502272
 20
355.8671910100384
 30
0.0
 10
294.8998925502019
 20
355.8651910100889
 30
0.0
 10
294.8998925502019
 20
355.8651910100889
 30
0.0
 10
295.0990925451697
 20
356.0644910050542
 30
0.0
 10
295.2211925420852
 20
356.341790998049
 30
0.0
 10
295.2211925420852
 20
356.6464909903516
 30
0.0
 10
295.2211925420852
 20
356.9511909826542
 30
0.0
 10
295.0990925451697
 20
357.226590975697
 30
0.0
 10
294.9018925501514
 20
357.4237909707153
 30
0.0
 10
294.9018925501514
 20
357.4237909707153
 30
0.0
 10
294.8988925502272
 20
357.4276909706168
 30
0.0
 10
294.8988925502272
 20
357.4276909706168
 30
0.0
 10
294.8988925502272
 20
357.4276909706168
 30
0.0
 10
294.8988925502272
 20
357.4276909706168
 30
0.0
 10
294.8988925502272
 20
357.4276909706168
 30
0.0
  0
POLYLINE
  5
B2
330
4F
100
AcDbEntity
  8
Layer 1
370
     0
100
AcDb2dPolyline
 66
     1
 10
0.0
 20
0.0
 30
0.0
  0
VERTEX
  5
B3
330
B2
100
AcDbEntity
  8
Layer 1
370
     0
100
AcDbVertex
100
AcDb2dVertex
 10
320.8671918942127
 20
357.0507909801381
 30
0.0
  0
VERTEX
  5
B4
330
B2
100
AcDbEntity
  8
Layer 1
370
     0
100
AcDbVertex
100
AcDb2dVertex
 10
323.2382918343137
 20
357.0507909801381
 30
0.0
  0
VERTEX
  5
B5
330
B2
100
AcDbEntity
  8
Layer 1
370
     0
100
AcDbVertex
100
AcDb2dVertex
 10
323.2382918343137
 20
366.1415907504852
 30
0.0
  0
VERTEX
  5
B6
330
B2
100
AcDbEntity
  8
Layer 1
370
     0
100
AcDbVertex
100
AcDb2dVertex
 10
320.8671918942127
 20
366.1415907504852
 30
0.0
  0
VERTEX
  5
B7
330
B2
100
AcDbEntity
  8
Layer 1
370
     0
100
AcDbVertex
100
AcDb2dVertex
 10
320.8671918942127
 20
357.0507909801381
 30
0.0
  0
VERTEX
  5
B8
330
B2
100
AcDbEntity
  8
Layer 1
370
     0
100
AcDbVertex
100
AcDb2dVertex
 10
320.8671918942127
 20
357.0507909801381
 30
0.0
  0
SEQEND
  5
B9
330
B2
100
AcDbEntity
  8
Layer 1
370
     0
  0
SPLINE
  5
BA
330
4F
100
AcDbEntity
  8
Layer 1
370
     0
100
AcDbSpline
210
0.0
220
0.0
230
1.0
 70
    11
 71
     3
 72
    20
 73
    16
 74
     0
 42
0.000000001
 43
0.0000000001
 40
0.0
 40
0.0
 40
0.0
 40
0.0
 40
1.0
 40
1.0
 40
1.0
 40
2.0
 40
2.0
 40
2.0
 40
3.0
 40
3.0
 40
3.0
 40
4.0
 40
4.0
 40
4.0
 40
5.0
 40
5.0
 40
5.0
 40
5.0
 10
283.74849283191
 20
366.4472907427626
 30
0.0
 10
283.4979999999996
 20
364.5097907917079
 30
0.0
 10
283.5341928373236
 20
362.5546908410979
 30
0.0
 10
283.74849283191
 20
360.5878908907835
 30
0.0
 10
284.7685928061401
 20
360.5878908907835
 30
0.0
 10
285.7885927803727
 20
360.5878908907835
 30
0.0
 10
286.8085927546053
 20
360.5878908907835
 30
0.0
 10
286.8085927546053
 20
362.5409999999993
 30
0.0
 10
286.8085927546053
 20
364.4940907921045
 30
0.0
 10
286.8085927546053
 20
366.4472907427626
 30
0.0
 10
285.7885927803727
 20
366.4472907427626
 30
0.0
 10
284.7685928061401
 20
366.4472907427626
 30
0.0
 10
283.74849283191
 20
366.4472907427626
 30
0.0
 10
283.74849283191
 20
366.4472907427626
 30
0.0
 10
283.74849283191
 20
366.4472907427626
 30
0.0
 10
283.74849283191
 20
366.4472907427626
 30
0.0
  0
POLYLINE
  5
BB
330
4F
100
AcDbEntity
  8
Layer 1
370
     0
100
AcDb2dPolyline
 66
     1
 10
0.0
 20
0.0
 30
0.0
  0
VERTEX
  5
BC
330
BB
100
AcDbEntity
  8
Layer 1
370
     0
100
AcDbVertex
100
AcDb2dVertex
 10
294.1278925697043
 20
366.4472907427626
 30
0.0
  0
VERTEX
  5
BD
330
BB
100
AcDbEntity
  8
Layer 1
370
     0
100
AcDbVertex
100
AcDb2dVertex
 10
294.1278925697043
 20
360.5878908907835
 30
0.0
  0
VERTEX
  5
BE
330
BB
100
AcDbEntity
  8
Layer 1
370
     0
100
AcDbVertex
100
AcDb2dVertex
 10
300.2479999999996
 20
360.5878908907835
 30
0.0
  0
VERTEX
  5
BF
330
BB
100
AcDbEntity
  8
Layer 1
370
     0
100
AcDbVertex
100
AcDb2dVertex
 10
300.2479999999996
 20
366.4472907427626
 30
0.0
  0
VERTEX
  5
C0
330
BB
100
AcDbEntity
  8
Layer 1
370
     0
100
AcDbVertex
100
AcDb2dVertex
 10
294.1278925697043
 20
366.4472907427626
 30
0.0
  0
VERTEX
  5
C1
330
BB
100
AcDbEntity
  8
Layer 1
370
     0
100
AcDbVertex
100
AcDb2dVertex
 10
294.1278925697043
 20
366.4472907427626
 30
0.0
  0
SEQEND
  5
C2
330
BB
100
AcDbEntity
  8
Layer 1
370
     0
  0
POLYLINE
  5
C3
330
4F
100
AcDbEntity
  8
Layer 1
370
     0
100
AcDb2dPolyline
 66
     1
 10
0.0
 20
0.0
 30
0.0
  0
VERTEX
  5
C4
330
C3
100
AcDbEntity
  8
Layer 1
370
     0
100
AcDbVertex
100
AcDb2dVertex
 10
287.4403927386447
 20
366.4472907427626
 30
0.0
  0
VERTEX
  5
C5
330
C3
100
AcDbEntity
  8
Layer 1
370
     0
100
AcDbVertex
100
AcDb2dVertex
 10
287.4403927386447
 20
360.5878908907835
 30
0.0
  0
VERTEX
  5
C6
330
C3
100
AcDbEntity
  8
Layer 1
370
     0
100
AcDbVertex
100
AcDb2dVertex
 10
293.5609999999997
 20
360.5878908907835
 30
0.0
  0
VERTEX
  5
C7
330
C3
100
AcDbEntity
  8
Layer 1
370
     0
100
AcDbVertex
100
AcDb2dVertex
 10
293.5609999999997
 20
366.4472907427626
 30
0.0
  0
VERTEX
  5
C8
330
C3
100
AcDbEntity
  8
Layer 1
370
     0
100
AcDbVertex
100
AcDb2dVertex
 10
287.4403927386447
 20
366.4472907427626
 30
0.0
  0
VERTEX
  5
C9
330
C3
100
AcDbEntity
  8
Layer 1
370
     0
100
AcDbVertex
100
AcDb2dVertex
 10
287.4403927386447
 20
366.4472907427626
 30
0.0
  0
SEQEND
  5
CA
330
C3
100
AcDbEntity
  8
Layer 1
370
     0
  0
POLYLINE
  5
CB
330
4F
100
AcDbEntity
  8
Layer 1
370
     0
100
AcDb2dPolyline
 66
     1
 10
0.0
 20
0.0
 30
0.0
  0
VERTEX
  5
CC
330
CB
100
AcDbEntity
  8
Layer 1
370
     0
100
AcDbVertex
100
AcDb2dVertex
 10
313.8192920722577
 20
366.4472907427626
 30
0.0
  0
VERTEX
  5
CD
330
CB
100
AcDbEntity
  8
Layer 1
370
     0
100
AcDbVertex
100
AcDb2dVertex
 10
313.8192920722577
 20
360.5878908907835
 30
0.0
  0
VERTEX
  5
CE
330
CB
100
AcDbEntity
  8
Layer 1
370
     0
100
AcDbVertex
100
AcDb2dVertex
 10
319.9394919176484
 20
360.5878908907835
 30
0.0
  0
VERTEX
  5
CF
330
CB
100
AcDbEntity
  8
Layer 1
370
     0
100
AcDbVertex
100
AcDb2dVertex
 10
319.9394919176484
 20
366.4472907427626
 30
0.0
  0
VERTEX
  5
D0
330
CB
100
AcDbEntity
  8
Layer 1
370
     0
100
AcDbVertex
100
AcDb2dVertex
 10
313.8192920722577
 20
366.4472907427626
 30
0.0
  0
VERTEX
  5
D1
330
CB
100
AcDbEntity
  8
Layer 1
370
     0
100
AcDbVertex
100
AcDb2dVertex
 10
313.8192920722577
 20
366.4472907427626
 30
0.0
  0
SEQEND
  5
D2
330
CB
100
AcDbEntity
  8
Layer 1
370
     0
  0
POLYLINE
  5
D3
330
4F
100
AcDbEntity
  8
Layer 1
370
     0
100
AcDb2dPolyline
 66
     1
 10
0.0
 20
0.0
 30
0.0
  0
VERTEX
  5
D4
330
D3
100
AcDbEntity
  8
Layer 1
370
     0
100
AcDbVertex
100
AcDb2dVertex
 10
307.1308922412209
 20
366.4472907427626
 30
0.0
  0
VERTEX
  5
D5
330
D3
100
AcDbEntity
  8
Layer 1
370
     0
100
AcDbVertex
100
AcDb2dVertex
 10
307.1308922412209
 20
360.5878908907835
 30
0.0
  0
VERTEX
  5
D6
330
D3
100
AcDbEntity
  8
Layer 1
370
     0
100
AcDbVertex
100
AcDb2dVertex
 10
313.2520000000004
 20
360.5878908907835
 30
0.0
  0
VERTEX
  5
D7
330
D3
100
AcDbEntity
  8
Layer 1
370
     0
100
AcDbVertex
100
AcDb2dVertex
 10
313.2520000000004
 20
366.4472907427626
 30
0.0
  0
VERTEX
  5
D8
330
D3
100
AcDbEntity
  8
Layer 1
370
     0
100
AcDbVertex
100
AcDb2dVertex
 10
307.1308922412209
 20
366.4472907427626
 30
0.0
  0
VERTEX
  5
D9
330
D3
100
AcDbEntity
  8
Layer 1
370
     0
100
AcDbVertex
100
AcDb2dVertex
 10
307.1308922412209
 20
366.4472907427626
 30
0.0
  0
SEQEND
  5
DA
330
D3
100
AcDbEntity
  8
Layer 1
370
     0
  0
POLYLINE
  5
DB
330
4F
100
AcDbEntity
  8
Layer 1
370
     0
100
AcDb2dPolyline
 66
     1
 10
0.0
 20
0.0
 30
0.0
  0
VERTEX
  5
DC
330
DB
100
AcDbEntity
  8
Layer 1
370
     0
100
AcDbVertex
100
AcDb2dVertex
 10
301.1454923924248
 20
357.0507909801381
 30
0.0
  0
VERTEX
  5
DD
330
DB
100
AcDbEntity
  8
Layer 1
370
     0
100
AcDbVertex
100
AcDb2dVertex
 10
303.5175923325005
 20
357.0507909801381
 30
0.0
  0
VERTEX
  5
DE
330
DB
100
AcDbEntity
  8
Layer 1
370
     0
100
AcDbVertex
100
AcDb2dVertex
 10
303.5175923325005
 20
366.1415907504852
 30
0.0
  0
VERTEX
  5
DF
330
DB
100
AcDbEntity
  8
Layer 1
370
     0
100
AcDbVertex
100
AcDb2dVertex
 10
301.1454923924248
 20
366.1415907504852
 30
0.0
  0
VERTEX
  5
E0
330
DB
100
AcDbEntity
  8
Layer 1
370
     0
100
AcDbVertex
100
AcDb2dVertex
 10
301.1454923924248
 20
357.0507909801381
 30
0.0
  0
VERTEX
  5
E1
330
DB
100
AcDbEntity
  8
Layer 1
370
     0
100
AcDbVertex
100
AcDb2dVertex
 10
301.1454923924248
 20
357.0507909801381
 30
0.0
  0
SEQEND
  5
E2
330
DB
100
AcDbEntity
  8
Layer 1
370
     0
  0
POLYLINE
  5
E3
330
4F
100
AcDbEntity
  8
Layer 1
370
     0
100
AcDb2dPolyline
 66
     1
 10
0.0
 20
0.0
 30
0.0
  0
VERTEX
  5
E4
330
E3
100
AcDbEntity
  8
Layer 1
370
     0
100
AcDbVertex
100
AcDb2dVertex
 10
304.4335923093604
 20
365.4511907679262
 30
0.0
  0
VERTEX
  5
E5
330
E3
100
AcDbEntity
  8
Layer 1
370
     0
100
AcDbVertex
100
AcDb2dVertex
 10
304.4335923093604
 20
360.576190891079
 30
0.0
  0
VERTEX
  5
E6
330
E3
100
AcDbEntity
  8
Layer 1
370
     0
100
AcDbVertex
100
AcDb2dVertex
 10
305.6542922785229
 20
360.576190891079
 30
0.0
  0
VERTEX
  5
E7
330
E3
100
AcDbEntity
  8
Layer 1
370
     0
100
AcDbVertex
100
AcDb2dVertex
 10
305.6542922785229
 20
365.4511907679262
 30
0.0
  0
VERTEX
  5
E8
330
E3
100
AcDbEntity
  8
Layer 1
370
     0
100
AcDbVertex
100
AcDb2dVertex
 10
304.4335923093604
 20
365.4511907679262
 30
0.0
  0
VERTEX
  5
E9
330
E3
100
AcDbEntity
  8
Layer 1
370
     0
100
AcDbVertex
100
AcDb2dVertex
 10
304.4335923093604
 20
365.4511907679262
 30
0.0
  0
SEQEND
  5
EA
330
E3
100
AcDbEntity
  8
Layer 1
370
     0
  0
POLYLINE
  5
EB
330
4F
100
AcDbEntity
  8
Layer 1
370
     0
100
AcDb2dPolyline
 66
     1
 10
0.0
 20
0.0
 30
0.0
  0
VERTEX
  5
EC
330
EB
100
AcDbEntity
  8
Layer 1
370
     0
100
AcDbVertex
100
AcDb2dVertex
 10
303.8476923241615
 20
357.0507909801381
 30
0.0
  0
VERTEX
  5
ED
330
EB
100
AcDbEntity
  8
Layer 1
370
     0
100
AcDbVertex
100
AcDb2dVertex
 10
306.2187922642624
 20
357.0507909801381
 30
0.0
  0
VERTEX
  5
EE
330
EB
100
AcDbEntity
  8
Layer 1
370
     0
100
AcDbVertex
100
AcDb2dVertex
 10
306.2187922642624
 20
366.1415907504852
 30
0.0
  0
VERTEX
  5
EF
330
EB
100
AcDbEntity
  8
Layer 1
370
     0
100
AcDbVertex
100
AcDb2dVertex
 10
303.8476923241615
 20
366.1415907504852
 30
0.0
  0
VERTEX
  5
F0
330
EB
100
AcDbEntity
  8
Layer 1
370
     0
100
AcDbVertex
100
AcDb2dVertex
 10
303.8476923241615
 20
357.0507909801381
 30
0.0
  0
VERTEX
  5
F1
330
EB
100
AcDbEntity
  8
Layer 1
370
     0
100
AcDbVertex
100
AcDb2dVertex
 10
303.8476923241615
 20
357.0507909801381
 30
0.0
  0
SEQEND
  5
F2
330
EB
100
AcDbEntity
  8
Layer 1
370
     0
  0
POLYLINE
  5
F3
330
4F
100
AcDbEntity
  8
Layer 1
370
     0
100
AcDb2dPolyline
 66
     1
 10
0.0
 20
0.0
 30
0.0
  0
VERTEX
  5
F4
330
F3
100
AcDbEntity
  8
Layer 1
370
     0
100
AcDbVertex
100
AcDb2dVertex
 10
306.3827922601195
 20
356.7206909884771
 30
0.0
  0
VERTEX
  5
F5
330
F3
100
AcDbEntity
  8
Layer 1
370
     0
100
AcDbVertex
100
AcDb2dVertex
 10
306.5478922559487
 20
356.7206909884771
 30
0.0
  0
VERTEX
  5
F6
330
F3
100
AcDbEntity
  8
Layer 1
370
     0
100
AcDbVertex
100
AcDb2dVertex
 10
306.5478922559487
 20
356.8847909843316
 30
0.0
  0
VERTEX
  5
F7
330
F3
100
AcDbEntity
  8
Layer 1
370
     0
100
AcDbVertex
100
AcDb2dVertex
 10
306.5478922559487
 20
366.3056907463397
 30
0.0
  0
VERTEX
  5
F8
330
F3
100
AcDbEntity
  8
Layer 1
370
     0
100
AcDbVertex
100
AcDb2dVertex
 10
306.5478922559487
 20
366.4706907421714
 30
0.0
  0
VERTEX
  5
F9
330
F3
100
AcDbEntity
  8
Layer 1
370
     0
100
AcDbVertex
100
AcDb2dVertex
 10
306.3827922601195
 20
366.4706907421714
 30
0.0
  0
VERTEX
  5
FA
330
F3
100
AcDbEntity
  8
Layer 1
370
     0
100
AcDbVertex
100
AcDb2dVertex
 10
303.8476923241615
 20
366.4706907421714
 30
0.0
  0
VERTEX
  5
FB
330
F3
100
AcDbEntity
  8
Layer 1
370
     0
100
AcDbVertex
100
AcDb2dVertex
 10
303.6815923283575
 20
366.4706907421714
 30
0.0
  0
VERTEX
  5
FC
330
F3
100
AcDbEntity
  8
Layer 1
370
     0
100
AcDbVertex
100
AcDb2dVertex
 10
303.5175923325005
 20
366.4706907421714
 30
0.0
  0
VERTEX
  5
FD
330
F3
100
AcDbEntity
  8
Layer 1
370
     0
100
AcDbVertex
100
AcDb2dVertex
 10
300.9813923965703
 20
366.4706907421714
 30
0.0
  0
VERTEX
  5
FE
330
F3
100
AcDbEntity
  8
Layer 1
370
     0
100
AcDbVertex
100
AcDb2dVertex
 10
300.8163924007386
 20
366.4706907421714
 30
0.0
  0
VERTEX
  5
FF
330
F3
100
AcDbEntity
  8
Layer 1
370
     0
100
AcDbVertex
100
AcDb2dVertex
 10
300.8163924007386
 20
366.3056907463397
 30
0.0
  0
VERTEX
  5
100
330
F3
100
AcDbEntity
  8
Layer 1
370
     0
100
AcDbVertex
100
AcDb2dVertex
 10
300.8163924007386
 20
356.8847909843316
 30
0.0
  0
VERTEX
  5
101
330
F3
100
AcDbEntity
  8
Layer 1
370
     0
100
AcDbVertex
100
AcDb2dVertex
 10
300.8163924007386
 20
356.7206909884771
 30
0.0
  0
VERTEX
  5
102
330
F3
100
AcDbEntity
  8
Layer 1
370
     0
100
AcDbVertex
100
AcDb2dVertex
 10
300.9813923965703
 20
356.7206909884771
 30
0.0
  0
VERTEX
  5
103
330
F3
100
AcDbEntity
  8
Layer 1
370
     0
100
AcDbVertex
100
AcDb2dVertex
 10
303.5175923325005
 20
356.7206909884771
 30
0.0
  0
VERTEX
  5
104
330
F3
100
AcDbEntity
  8
Layer 1
370
     0
100
AcDbVertex
100
AcDb2dVertex
 10
303.6815923283575
 20
356.7206909884771
 30
0.0
  0
VERTEX
  5
105
330
F3
100
AcDbEntity
  8
Layer 1
370
     0
100
AcDbVertex
100
AcDb2dVertex
 10
303.8476923241615
 20
356.7206909884771
 30
0.0
  0
VERTEX
  5
106
330
F3
100
AcDbEntity
  8
Layer 1
370
     0
100
AcDbVertex
100
AcDb2dVertex
 10
306.3827922601195
 20
356.7206909884771
 30
0.0
  0
VERTEX
  5
107
330
F3
100
AcDbEntity
  8
Layer 1
370
     0
100
AcDbVertex
100
AcDb2dVertex
 10
306.3827922601195
 20
356.7206909884771
 30
0.0
  0
SEQEND
  5
108
330
F3
100
AcDbEntity
  8
Layer 1
370
     0
  0
POLYLINE
  5
109
330
4F
100
AcDbEntity
  8
Layer 1
370
     0
100
AcDb2dPolyline
 66
     1
 10
0.0
 20
0.0
 30
0.0
  0
VERTEX
  5
10A
330
109
100
AcDbEntity
  8
Layer 1
370
     0
100
AcDbVertex
100
AcDb2dVertex
 10
301.7323923775984
 20
365.4511907679262
 30
0.0
  0
VERTEX
  5
10B
330
109
100
AcDbEntity
  8
Layer 1
370
     0
100
AcDbVertex
100
AcDb2dVertex
 10
301.7323923775984
 20
360.576190891079
 30
0.0
  0
VERTEX
  5
10C
330
109
100
AcDbEntity
  8
Layer 1
370
     0
100
AcDbVertex
100
AcDb2dVertex
 10
302.9520923467862
 20
360.576190891079
 30
0.0
  0
VERTEX
  5
10D
330
109
100
AcDbEntity
  8
Layer 1
370
     0
100
AcDbVertex
100
AcDb2dVertex
 10
302.9520923467862
 20
365.4511907679262
 30
0.0
  0
VERTEX
  5
10E
330
109
100
AcDbEntity
  8
Layer 1
370
     0
100
AcDbVertex
100
AcDb2dVertex
 10
301.7323923775984
 20
365.4511907679262
 30
0.0
  0
VERTEX
  5
10F
330
109
100
AcDbEntity
  8
Layer 1
370
     0
100
AcDbVertex
100
AcDb2dVertex
 10
301.7323923775984
 20
365.4511907679262
 30
0.0
  0
SEQEND
  5
110
330
109
100
AcDbEntity
  8
Layer 1
370
     0
  0
POLYLINE
  5
111
330
4F
100
AcDbEntity
  8
Layer 1
370
     0
100
AcDb2dPolyline
 66
     1
 10
0.0
 20
0.0
 30
0.0
  0
VERTEX
  5
112
330
111
100
AcDbEntity
  8
Layer 1
370
     0
100
AcDbVertex
100
AcDb2dVertex
 10
324.1542918111736
 20
365.4511907679262
 30
0.0
  0
VERTEX
  5
113
330
111
100
AcDbEntity
  8
Layer 1
370
     0
100
AcDbVertex
100
AcDb2dVertex
 10
324.1542918111736
 20
360.576190891079
 30
0.0
  0
VERTEX
  5
114
330
111
100
AcDbEntity
  8
Layer 1
370
     0
100
AcDbVertex
100
AcDb2dVertex
 10
325.375
 20
360.576190891079
 30
0.0
  0
VERTEX
  5
115
330
111
100
AcDbEntity
  8
Layer 1
370
     0
100
AcDbVertex
100
AcDb2dVertex
 10
325.375
 20
365.4511907679262
 30
0.0
  0
VERTEX
  5
116
330
111
100
AcDbEntity
  8
Layer 1
370
     0
100
AcDbVertex
100
AcDb2dVertex
 10
324.1542918111736
 20
365.4511907679262
 30
0.0
  0
VERTEX
  5
117
330
111
100
AcDbEntity
  8
Layer 1
370
     0
100
AcDbVertex
100
AcDb2dVertex
 10
324.1542918111736
 20
365.4511907679262
 30
0.0
  0
SEQEND
  5
118
330
111
100
AcDbEntity
  8
Layer 1
370
     0
  0
POLYLINE
  5
119
330
4F
100
AcDbEntity
  8
Layer 1
370
     0
100
AcDb2dPolyline
 66
     1
 10
0.0
 20
0.0
 30
0.0
  0
VERTEX
  5
11A
330
119
100
AcDbEntity
  8
Layer 1
370
     0
100
AcDbVertex
100
AcDb2dVertex
 10
323.5683918259747
 20
357.0507909801381
 30
0.0
  0
VERTEX
  5
11B
330
119
100
AcDbEntity
  8
Layer 1
370
     0
100
AcDbVertex
100
AcDb2dVertex
 10
325.9394917660757
 20
357.0507909801381
 30
0.0
  0
VERTEX
  5
11C
330
119
100
AcDbEntity
  8
Layer 1
370
     0
100
AcDbVertex
100
AcDb2dVertex
 10
325.9394917660757
 20
366.1415907504852
 30
0.0
  0
VERTEX
  5
11D
330
119
100
AcDbEntity
  8
Layer 1
370
     0
100
AcDbVertex
100
AcDb2dVertex
 10
323.5683918259747
 20
366.1415907504852
 30
0.0
  0
VERTEX
  5
11E
330
119
100
AcDbEntity
  8
Layer 1
370
     0
100
AcDbVertex
100
AcDb2dVertex
 10
323.5683918259747
 20
357.0507909801381
 30
0.0
  0
VERTEX
  5
11F
330
119
100
AcDbEntity
  8
Layer 1
370
     0
100
AcDbVertex
100
AcDb2dVertex
 10
323.5683918259747
 20
357.0507909801381
 30
0.0
  0
SEQEND
  5
120
330
119
100
AcDbEntity
  8
Layer 1
370
     0
  0
POLYLINE
  5
121
330
4F
100
AcDbEntity
  8
Layer 1
370
     0
100
AcDb2dPolyline
 66
     1
 10
0.0
 20
0.0
 30
0.0
  0
VERTEX
  5
122
330
121
100
AcDbEntity
  8
Layer 1
370
     0
100
AcDbVertex
100
AcDb2dVertex
 10
326.1034917619327
 20
356.7206909884771
 30
0.0
  0
VERTEX
  5
123
330
121
100
AcDbEntity
  8
Layer 1
370
     0
100
AcDbVertex
100
AcDb2dVertex
 10
326.2685917577619
 20
356.7206909884771
 30
0.0
  0
VERTEX
  5
124
330
121
100
AcDbEntity
  8
Layer 1
370
     0
100
AcDbVertex
100
AcDb2dVertex
 10
326.2685917577619
 20
356.8847909843316
 30
0.0
  0
VERTEX
  5
125
330
121
100
AcDbEntity
  8
Layer 1
370
     0
100
AcDbVertex
100
AcDb2dVertex
 10
326.2685917577619
 20
366.3056907463397
 30
0.0
  0
VERTEX
  5
126
330
121
100
AcDbEntity
  8
Layer 1
370
     0
100
AcDbVertex
100
AcDb2dVertex
 10
326.2685917577619
 20
366.4706907421714
 30
0.0
  0
VERTEX
  5
127
330
121
100
AcDbEntity
  8
Layer 1
370
     0
100
AcDbVertex
100
AcDb2dVertex
 10
326.1034917619327
 20
366.4706907421714
 30
0.0
  0
VERTEX
  5
128
330
121
100
AcDbEntity
  8
Layer 1
370
     0
100
AcDbVertex
100
AcDb2dVertex
 10
323.5683918259747
 20
366.4706907421714
 30
0.0
  0
VERTEX
  5
129
330
121
100
AcDbEntity
  8
Layer 1
370
     0
100
AcDbVertex
100
AcDb2dVertex
 10
323.4022918301707
 20
366.4706907421714
 30
0.0
  0
VERTEX
  5
12A
330
121
100
AcDbEntity
  8
Layer 1
370
     0
100
AcDbVertex
100
AcDb2dVertex
 10
323.2382918343137
 20
366.4706907421714
 30
0.0
  0
VERTEX
  5
12B
330
121
100
AcDbEntity
  8
Layer 1
370
     0
100
AcDbVertex
100
AcDb2dVertex
 10
320.7020918983835
 20
366.4706907421714
 30
0.0
  0
VERTEX
  5
12C
330
121
100
AcDbEntity
  8
Layer 1
370
     0
100
AcDbVertex
100
AcDb2dVertex
 10
320.5370919025518
 20
366.4706907421714
 30
0.0
  0
VERTEX
  5
12D
330
121
100
AcDbEntity
  8
Layer 1
370
     0
100
AcDbVertex
100
AcDb2dVertex
 10
320.5370919025518
 20
366.3056907463397
 30
0.0
  0
VERTEX
  5
12E
330
121
100
AcDbEntity
  8
Layer 1
370
     0
100
AcDbVertex
100
AcDb2dVertex
 10
320.5370919025518
 20
356.8847909843316
 30
0.0
  0
VERTEX
  5
12F
330
121
100
AcDbEntity
  8
Layer 1
370
     0
100
AcDbVertex
100
AcDb2dVertex
 10
320.5370919025518
 20
356.7206909884771
 30
0.0
  0
VERTEX
  5
130
330
121
100
AcDbEntity
  8
Layer 1
370
     0
100
AcDbVertex
100
AcDb2dVertex
 10
320.7020918983835
 20
356.7206909884771
 30
0.0
  0
VERTEX
  5
131
330
121
100
AcDbEntity
  8
Layer 1
370
     0
100
AcDbVertex
100
AcDb2dVertex
 10
323.2382918343137
 20
356.7206909884771
 30
0.0
  0
VERTEX
  5
132
330
121
100
AcDbEntity
  8
Layer 1
370
     0
100
AcDbVertex
100
AcDb2dVertex
 10
323.4022918301707
 20
356.7206909884771
 30
0.0
  0
VERTEX
  5
133
330
121
100
AcDbEntity
  8
Layer 1
370
     0
100
AcDbVertex
100
AcDb2dVertex
 10
323.5683918259747
 20
356.7206909884771
 30
0.0
  0
VERTEX
  5
134
330
121
100
AcDbEntity
  8
Layer 1
370
     0
100
AcDbVertex
100
AcDb2dVertex
 10
326.1034917619327
 20
356.7206909884771
 30
0.0
  0
VERTEX
  5
135
330
121
100
AcDbEntity
  8
Layer 1
370
     0
100
AcDbVertex
100
AcDb2dVertex
 10
326.1034917619327
 20
356.7206909884771
 30
0.0
  0
SEQEND
  5
136
330
121
100
AcDbEntity
  8
Layer 1
370
     0
  0
POLYLINE
  5
137
330
4F
100
AcDbEntity
  8
Layer 1
370
     0
100
AcDb2dPolyline
 66
     1
 10
0.0
 20
0.0
 30
0.0
  0
VERTEX
  5
138
330
137
100
AcDbEntity
  8
Layer 1
370
     0
100
AcDbVertex
100
AcDb2dVertex
 10
321.4530918794117
 20
365.4511907679262
 30
0.0
  0
VERTEX
  5
139
330
137
100
AcDbEntity
  8
Layer 1
370
     0
100
AcDbVertex
100
AcDb2dVertex
 10
321.4530918794117
 20
360.576190891079
 30
0.0
  0
VERTEX
  5
13A
330
137
100
AcDbEntity
  8
Layer 1
370
     0
100
AcDbVertex
100
AcDb2dVertex
 10
322.6737918485742
 20
360.576190891079
 30
0.0
  0
VERTEX
  5
13B
330
137
100
AcDbEntity
  8
Layer 1
370
     0
100
AcDbVertex
100
AcDb2dVertex
 10
322.6737918485742
 20
365.4511907679262
 30
0.0
  0
VERTEX
  5
13C
330
137
100
AcDbEntity
  8
Layer 1
370
     0
100
AcDbVertex
100
AcDb2dVertex
 10
321.4530918794117
 20
365.4511907679262
 30
0.0
  0
VERTEX
  5
13D
330
137
100
AcDbEntity
  8
Layer 1
370
     0
100
AcDbVertex
100
AcDb2dVertex
 10
321.4530918794117
 20
365.4511907679262
 30
0.0
  0
SEQEND
  5
13E
330
137
100
AcDbEntity
  8
Layer 1
370
     0
  0
HATCH
  5
13F
330
4F
100
AcDbEntity
  8
Layer 1
 62
     7
100
AcDbHatch
 10
0.0
 20
0.0
 30
0.0
210
0.0
220
0.0
230
1.0
  2
SOLID
 70
     1
 71
     0
 91
       36
 92
        1
 93
        1
 72
     4
 94
        3
 73
     0
 74
     1
 95
      377
 96
      373
 40
0.0
 40
0.0
 40
0.0
 40
0.0
 40
1.0
 40
1.0
 40
1.0
 40
2.0
 40
2.0
 40
2.0
 40
3.0
 40
3.0
 40
3.0
 40
4.0
 40
4.0
 40
4.0
 40
5.0
 40
5.0
 40
5.0
 40
6.0
 40
6.0
 40
6.0
 40
7.0
 40
7.0
 40
7.0
 40
8.0
 40
8.0
 40
8.0
 40
9.0
 40
9.0
 40
9.0
 40
10.0
 40
10.0
 40
10.0
 40
11.0
 40
11.0
 40
11.0
 40
12.0
 40
12.0
 40
12.0
 40
13.0
 40
13.0
 40
13.0
 40
14.0
 40
14.0
 40
14.0
 40
15.0
 40
15.0
 40
15.0
 40
16.0
 40
16.0
 40
16.0
 40
17.0
 40
17.0
 40
17.0
 40
18.0
 40
18.0
 40
18.0
 40
19.0
 40
19.0
 40
19.0
 40
20.0
 40
20.0
 40
20.0
 40
21.0
 40
21.0
 40
21.0
 40
22.0
 40
22.0
 40
22.0
 40
23.0
 40
23.0
 40
23.0
 40
24.0
 40
24.0
 40
24.0
 40
25.0
 40
25.0
 40
25.0
 40
26.0
 40
26.0
 40
26.0
 40
27.0
 40
27.0
 40
27.0
 40
28.0
 40
28.0
 40
28.0
 40
29.0
 40
29.0
 40
29.0
 40
30.0
 40
30.0
 40
30.0
 40
31.0
 40
31.0
 40
31.0
 40
32.0
 40
32.0
 40
32.0
 40
33.0
 40
33.0
 40
33.0
 40
34.0
 40
34.0
 40
34.0
 40
35.0
 40
35.0
 40
35.0
 40
36.0
 40
36.0
 40
36.0
 40
37.0
 40
37.0
 40
37.0
 40
38.0
 40
38.0
 40
38.0
 40
39.0
 40
39.0
 40
39.0
 40
40.0
 40
40.0
 40
40.0
 40
41.0
 40
41.0
 40
41.0
 40
42.0
 40
42.0
 40
42.0
 40
43.0
 40
43.0
 40
43.0
 40
44.0
 40
44.0
 40
44.0
 40
45.0
 40
45.0
 40
45.0
 40
46.0
 40
46.0
 40
46.0
 40
47.0
 40
47.0
 40
47.0
 40
48.0
 40
48.0
 40
48.0
 40
49.0
 40
49.0
 40
49.0
 40
50.0
 40
50.0
 40
50.0
 40
51.0
 40
51.0
 40
51.0
 40
52.0
 40
52.0
 40
52.0
 40
53.0
 40
53.0
 40
53.0
 40
54.0
 40
54.0
 40
54.0
 40
55.0
 40
55.0
 40
55.0
 40
56.0
 40
56.0
 40
56.0
 40
57.0
 40
57.0
 40
57.0
 40
58.0
 40
58.0
 40
58.0
 40
59.0
 40
59.0
 40
59.0
 40
60.0
 40
60.0
 40
60.0
 40
61.0
 40
61.0
 40
61.0
 40
62.0
 40
62.0
 40
62.0
 40
63.0
 40
63.0
 40
63.0
 40
64.0
 40
64.0
 40
64.0
 40
65.0
 40
65.0
 40
65.0
 40
66.0
 40
66.0
 40
66.0
 40
67.0
 40
67.0
 40
67.0
 40
68.0
 40
68.0
 40
68.0
 40
69.0
 40
69.0
 40
69.0
 40
70.0
 40
70.0
 40
70.0
 40
71.0
 40
71.0
 40
71.0
 40
72.0
 40
72.0
 40
72.0
 40
73.0
 40
73.0
 40
73.0
 40
74.0
 40
74.0
 40
74.0
 40
75.0
 40
75.0
 40
75.0
 40
76.0
 40
76.0
 40
76.0
 40
77.0
 40
77.0
 40
77.0
 40
78.0
 40
78.0
 40
78.0
 40
79.0
 40
79.0
 40
79.0
 40
80.0
 40
80.0
 40
80.0
 40
81.0
 40
81.0
 40
81.0
 40
82.0
 40
82.0
 40
82.0
 40
83.0
 40
83.0
 40
83.0
 40
84.0
 40
84.0
 40
84.0
 40
85.0
 40
85.0
 40
85.0
 40
86.0
 40
86.0
 40
86.0
 40
87.0
 40
87.0
 40
87.0
 40
88.0
 40
88.0
 40
88.0
 40
89.0
 40
89.0
 40
89.0
 40
90.0
 40
90.0
 40
90.0
 40
91.0
 40
91.0
 40
91.0
 40
92.0
 40
92.0
 40
92.0
 40
93.0
 40
93.0
 40
93.0
 40
94.0
 40
94.0
 40
94.0
 40
95.0
 40
95.0
 40
95.0
 40
96.0
 40
96.0
 40
96.0
 40
97.0
 40
97.0
 40
97.0
 40
98.0
 40
98.0
 40
98.0
 40
99.0
 40
99.0
 40
99.0
 40
100.0
 40
100.0
 40
100.0
 40
101.0
 40
101.0
 40
101.0
 40
102.0
 40
102.0
 40
102.0
 40
103.0
 40
103.0
 40
103.0
 40
104.0
 40
104.0
 40
104.0
 40
105.0
 40
105.0
 40
105.0
 40
106.0
 40
106.0
 40
106.0
 40
107.0
 40
107.0
 40
107.0
 40
108.0
 40
108.0
 40
108.0
 40
109.0
 40
109.0
 40
109.0
 40
110.0
 40
110.0
 40
110.0
 40
111.0
 40
111.0
 40
111.0
 40
112.0
 40
112.0
 40
112.0
 40
113.0
 40
113.0
 40
113.0
 40
114.0
 40
114.0
 40
114.0
 40
115.0
 40
115.0
 40
115.0
 40
116.0
 40
116.0
 40
116.0
 40
117.0
 40
117.0
 40
117.0
 40
118.0
 40
118.0
 40
118.0
 40
119.0
 40
119.0
 40
119.0
 40
120.0
 40
120.0
 40
120.0
 40
121.0
 40
121.0
 40
121.0
 40
122.0
 40
122.0
 40
122.0
 40
123.0
 40
123.0
 40
123.0
 40
124.0
 40
124.0
 40
124.0
 40
124.0
 10
282.5541928620805
 20
370.1991906479816
 10
282.5541928620805
 20
370.1991906479816
 10
323.3808918307113
 20
370.1991906479816
 10
323.3808918307113
 20
370.1991906479816
 10
323.3808918307113
 20
370.1991906479816
 10
324.5419999999995
 20
370.1991906479816
 10
324.5419999999995
 20
370.1991906479816
 10
324.5419999999995
 20
370.1991906479816
 10
327.7577917201415
 20
370.1991906479816
 10
327.7577917201415
 20
370.1991906479816
 10
327.7577917201415
 20
370.1991906479816
 10
328.2147917085967
 20
369.7147906602186
 10
328.2147917085967
 20
369.7147906602186
 10
328.2147917085967
 20
369.7147906602186
 10
327.8593917175749
 20
367.0058907286511
 10
327.8593917175749
 20
367.0058907286511
 10
328.3046917063257
 20
366.9784907293433
 10
328.7440916952255
 20
366.903290731243
 10
328.9042916911785
 20
366.7235907357826
 10
329.1952916838272
 20
366.3974907440206
 10
329.375
 20
365.2694907725163
 10
329.4081916784489
 20
365.0419999999995
 10
329.4931916763016
 20
365.0409999999993
 10
329.5556916747228
 20
365.0292907785843
 10
329.5780916741569
 20
365.0048907792007
 10
329.6757916716888
 20
364.8964907819391
 10
329.9590000000007
 20
362.94729083118
 10
329.8065916683845
 20
362.8495908336481
 10
329.6542916722319
 20
362.75
 10
328.75
 20
362.8261908342392
 10
328.75
 20
362.8261908342392
 10
328.75
 20
362.8261908342392
 10
328.585891699222
 20
364.9511907805572
 10
328.585891699222
 20
364.9511907805572
 10
328.585891699222
 20
364.9511907805572
 10
328.6728916970242
 20
364.9667907801631
 10
328.7948916939422
 20
364.9853907796933
 10
328.7577916948794
 20
365.2323907734535
 10
328.6151916984818
 20
366.1200907510283
 10
328.4433917028218
 20
366.3144907461174
 10
328.2890917067198
 20
366.4882907417268
 10
326.8290917436025
 20
366.3905907441949
 10
326.7577917454037
 20
366.3847907443414
 10
326.7577917454037
 20
366.3847907443414
 10
327.3241917310952
 20
360.5010000000002
 10
327.3241917310952
 20
360.5010000000002
 10
327.3241917310952
 20
360.5010000000002
 10
328.1435917103954
 20
360.5010000000002
 10
328.1435917103954
 20
360.5010000000002
 10
328.1894917092359
 20
359.0849999999991
 10
328.1210917109638
 20
357.7851909615856
 10
327.9306917157737
 20
356.7245909883786
 10
327.9306917157737
 20
356.7245909883786
 10
325.8593917680992
 20
355.9003910091997
 10
325.8593917680992
 20
355.9003910091997
 10
325.8593917680992
 20
355.9003910091997
 10
319.8651919195254
 20
355.9003910091997
 10
319.8651919195254
 20
355.9003910091997
 10
319.8651919195254
 20
355.9003910091997
 10
319.8388919201898
 20
356.6991909890203
 10
319.8388919201898
 20
356.6991909890203
 10
319.837891920215
 20
356.7265909883281
 10
319.8358919202656
 20
356.7538909876384
 10
319.8358919202656
 20
356.7812909869463
 10
319.8358919202656
 20
356.7812909869463
 10
319.8358919202656
 20
356.7812909869463
 10
319.8358919202656
 20
356.7812909869463
 10
319.8007919211523
 20
357.5077909685933
 10
319.4911919289734
 20
358.1620909520643
 10
319.0087919411599
 20
358.6464909398273
 10
319.0087919411599
 20
358.6464909398273
 10
319.0077919411851
 20
358.6483909397793
 10
319.0077919411851
 20
358.6483909397793
 10
319.0077919411851
 20
358.6483909397793
 10
319.0058919412331
 20
358.6483909397793
 10
319.0058919412331
 20
358.6483909397793
 10
318.4921919542103
 20
359.1620909268022
 10
317.7831919721211
 20
359.4784909188093
 10
317.0058919917574
 20
359.4784909188093
 10
316.2245920114947
 20
359.4784909188093
 10
315.517592029355
 20
359.1620909268022
 10
315.0038920423322
 20
358.6503909397288
 10
315.0038920423322
 20
358.6503909397288
 10
315.0020000000004
 20
358.6503909397288
 10
315.0020000000004
 20
358.6503909397288
 10
314.4882920553573
 20
358.136690952706
 10
314.1718920633502
 20
357.4276909706168
 10
314.1718920633502
 20
356.6464909903516
 10
314.1718920633502
 20
356.5780909920795
 10
314.1737920633022
 20
356.5116909937569
 10
314.1786920631785
 20
356.4452909954343
 10
314.1786920631785
 20
356.4452909954343
 10
314.1972920627086
 20
355.9003910091997
 10
314.1972920627086
 20
355.9003910091997
 10
314.1972920627086
 20
355.9003910091997
 10
297.0082924969392
 20
355.9003910091997
 10
297.0082924969392
 20
355.9003910091997
 10
297.0082924969392
 20
355.9003910091997
 10
296.9535924983211
 20
356.6132909911903
 10
296.9535924983211
 20
356.6132909911903
 10
296.9535924983211
 20
356.6132909911903
 10
296.9535924983211
 20
356.6464909903516
 10
296.9535924983211
 20
356.6464909903516
 10
296.9535924983211
 20
356.8026909864057
 10
296.9408924986419
 20
356.9570000000003
 10
296.9160000000002
 20
357.1073909787083
 10
296.9160000000002
 20
357.1073909787083
 10
296.9160000000002
 20
357.1073909787083
 10
296.9160000000002
 20
357.1073909787083
 10
296.9160000000002
 20
357.1073909787083
 10
296.9160000000002
 20
357.1073909787083
 10
296.9160000000002
 20
357.1073909787083
 10
296.8173925017618
 20
357.7030909636596
 10
296.5331925089413
 20
358.2362909501899
 10
296.1234925192912
 20
358.6464909398273
 10
296.1234925192912
 20
358.6464909398273
 10
296.1225925193139
 20
358.6483909397793
 10
296.1225925193139
 20
358.6483909397793
 10
296.1225925193139
 20
358.6483909397793
 10
296.1205925193644
 20
358.6483909397793
 10
296.1205925193644
 20
358.6483909397793
 10
295.6063925323542
 20
359.1620909268022
 10
294.8988925502272
 20
359.4784909188093
 10
294.1205925698887
 20
359.4784909188093
 10
293.3393925896235
 20
359.4784909188093
 10
292.6312926075116
 20
359.1620909268022
 10
292.1190926204508
 20
358.6503909397288
 10
292.1190926204508
 20
358.6503909397288
 10
292.1166926205115
 20
358.6503909397288
 10
292.1166926205115
 20
358.6503909397288
 10
291.6864926313792
 20
358.220690950584
 10
291.3940000000002
 20
357.6522909649429
 10
291.3104926408778
 20
357.0194909809288
 10
291.3104926408778
 20
357.0194909809288
 10
291.3104926408778
 20
357.0194909809288
 10
291.3104926408778
 20
357.0194909809288
 10
291.3104926408778
 20
357.0194909809288
 10
291.3104926408778
 20
357.0175909809768
 10
291.3104926408778
 20
357.0175909809768
 10
291.2948926412719
 20
356.8964909840361
 10
291.2860926414942
 20
356.7714909871938
 10
291.2860926414942
 20
356.6464909903516
 10
291.2860926414942
 20
356.5683909923246
 10
291.2895926414058
 20
356.4901909943001
 10
291.2958926412466
 20
356.4140909962225
 10
291.2958926412466
 20
356.4140909962225
 10
291.2875926414563
 20
356.0546910053017
 10
291.2875926414563
 20
356.0546910053017
 10
291.2875926414563
 20
356.0546910053017
 10
290.497092661426
 20
356.0565910052537
 10
290.497092661426
 20
356.0565910052537
 10
290.497092661426
 20
356.0565910052537
 10
290.474092662007
 20
356.6503909902531
 10
290.474092662007
 20
356.6503909902531
 10
290.474092662007
 20
356.7245909883786
 10
290.4701926621055
 20
356.7968909865522
 10
290.4643926622521
 20
356.8710909846777
 10
290.4643926622521
 20
356.8710909846777
 10
290.4643926622521
 20
356.8729999999996
 10
290.4643926622521
 20
356.8729999999996
 10
290.4643926622521
 20
356.8729999999996
 10
290.4643926622521
 20
356.8729999999996
 10
290.4643926622521
 20
356.8729999999996
 10
290.4101926636213
 20
357.5624909672115
 10
290.1049999999996
 20
358.1864909514479
 10
289.6410926830504
 20
358.6522909396808
 10
289.6410926830504
 20
358.6522909396808
 10
289.6391926830984
 20
358.6542909396303
 10
289.6391926830984
 20
358.6542909396303
 10
289.6391926830984
 20
358.6542909396303
 10
289.6381926831236
 20
358.655290939605
 10
289.6381926831236
 20
358.655290939605
 10
289.1220926961614
 20
359.1698909266051
 10
288.4125927140849
 20
359.4882909185617
 10
287.6312927338222
 20
359.4882909185617
 10
286.8480927536075
 20
359.4882909185617
 10
286.1386927715284
 20
359.1698909266051
 10
285.6244927845182
 20
358.655290939605
 10
285.6244927845182
 20
358.655290939605
 10
285.6215927845915
 20
358.655290939605
 10
285.6215927845915
 20
358.655290939605
 10
285.1073927975813
 20
358.1405909526075
 10
284.7885928056348
 20
357.4296909705663
 10
284.7885928056348
 20
356.6464909903516
 10
284.7885928056348
 20
356.6464909903516
 10
284.7885928056348
 20
356.6366909905992
 10
284.7885928056348
 20
356.6366909905992
 10
284.7885928056348
 20
356.6366909905992
 10
284.7885928056348
 20
356.6270000000004
 10
284.7885928056348
 20
356.6270000000004
 10
284.7885928056348
 20
356.6270000000004
 10
284.7885928056348
 20
356.6171909910918
 10
284.7885928056348
 20
356.6171909910918
 10
284.7885928056348
 20
356.6171909910918
 10
284.79
 20
356.6093909912888
 10
284.79
 20
356.6093909912888
 10
284.79
 20
356.6093909912888
 10
284.7924928055363
 20
356.0663910050062
 10
284.7924928055363
 20
356.0663910050062
 10
284.7924928055363
 20
356.0663910050062
 10
282.7280000000001
 20
356.0702910049076
 10
282.7280000000001
 20
356.0702910049076
 10
282.6942928585413
 20
356.2675909999234
 10
282.6596928594154
 20
356.4667909948912
 10
282.6264928602541
 20
356.6659999999993
 10
282.6264928602541
 20
356.6659999999993
 10
282.4613928644249
 20
356.5468909928677
 10
282.4613928644249
 20
356.5468909928677
 10
282.4613928644249
 20
356.5468909928677
 10
281.8544928797564
 20
356.9979999999996
 10
281.8544928797564
 20
356.9979999999996
 10
281.8544928797564
 20
356.9979999999996
 10
281.2270928956059
 20
356.5468909928677
 10
281.2270928956059
 20
356.5468909928677
 10
281.2270928956059
 20
356.5468909928677
 10
280.6205929109274
 20
356.9979999999996
 10
280.6205929109274
 20
356.9979999999996
 10
280.6205929109274
 20
356.9979999999996
 10
279.9931929267768
 20
356.5468909928677
 10
279.9931929267768
 20
356.5468909928677
 10
279.9931929267768
 20
356.5468909928677
 10
279.3856929421236
 20
356.9979999999996
 10
279.3856929421236
 20
356.9979999999996
 10
279.3856929421236
 20
356.9979999999996
 10
278.7592929579478
 20
356.5468909928677
 10
278.7592929579478
 20
356.5468909928677
 10
278.7592929579478
 20
356.5468909928677
 10
278.1513929733046
 20
356.9979999999996
 10
278.1513929733046
 20
356.9979999999996
 10
278.1513929733046
 20
356.9979999999996
 10
277.5238929891566
 20
356.5468909928677
 10
277.5238929891566
 20
356.5468909928677
 10
277.5238929891566
 20
356.5468909928677
 10
277.0785930004058
 20
356.8788909844807
 10
277.0785930004058
 20
356.8788909844807
 10
277.0341930015275
 20
356.6073909913393
 10
276.9887930026744
 20
356.3378909981475
 10
276.9413930038718
 20
356.0702910049076
 10
276.9413930038718
 20
356.0702910049076
 10
273.9755930787942
 20
356.0663910050062
 10
273.9755930787942
 20
356.0663910050062
 10
273.9755930787942
 20
356.0663910050062
 10
273.9790000000003
 20
356.6093909912888
 10
273.9790000000003
 20
356.6093909912888
 10
273.9790000000003
 20
356.6093909912888
 10
273.9790000000003
 20
356.6171909910918
 10
273.9790000000003
 20
356.6171909910918
 10
273.9790000000003
 20
356.6171909910918
 10
273.9790000000003
 20
356.6270000000004
 10
273.9790000000003
 20
356.6270000000004
 10
273.9790000000003
 20
356.6270000000004
 10
273.9790000000003
 20
356.6366909905992
 10
273.9790000000003
 20
356.6366909905992
 10
273.9790000000003
 20
356.6366909905992
 10
273.9790000000003
 20
356.6464909903516
 10
273.9790000000003
 20
356.6464909903516
 10
273.9790000000003
 20
357.4296909705663
 10
273.6605930867518
 20
358.1405909526075
 10
273.146493099739
 20
358.655290939605
 10
273.146493099739
 20
358.655290939605
 10
273.1435930998123
 20
358.655290939605
 10
273.1435930998123
 20
358.655290939605
 10
272.6293931128021
 20
359.1698909266051
 10
271.9193931307382
 20
359.4882909185617
 10
271.1366931505108
 20
359.4882909185617
 10
270.3554931702456
 20
359.4882909185617
 10
269.6459999999997
 20
359.1698909266051
 10
269.1298932012069
 20
358.655290939605
 10
269.1298932012069
 20
358.655290939605
 10
269.1288932012321
 20
358.6542909396303
 10
269.1288932012321
 20
358.6542909396303
 10
269.1288932012321
 20
358.6542909396303
 10
269.1270000000004
 20
358.6522909396808
 10
269.1270000000004
 20
358.6522909396808
 10
268.6630932129992
 20
358.1864909514479
 10
268.358893220684
 20
357.5624909672115
 10
268.3031932220911
 20
356.8729999999996
 10
268.3031932220911
 20
356.8729999999996
 10
268.3031932220911
 20
356.8729999999996
 10
268.3031932220911
 20
356.8729999999996
 10
268.3031932220911
 20
356.8729999999996
 10
268.3031932220911
 20
356.8710909846777
 10
268.3031932220911
 20
356.8710909846777
 10
268.2982932222149
 20
356.7968909865522
 10
268.2948932223007
 20
356.7245909883786
 10
268.293893222326
 20
356.6503909902531
 10
268.293893222326
 20
356.6503909902531
 10
268.2709999999997
 20
356.0565910052537
 10
268.2709999999997
 20
356.0565910052537
 10
268.2709999999997
 20
356.0565910052537
 10
248.6270000000004
 20
355.9003910091997
 10
248.6270000000004
 20
355.9003910091997
 10
248.6270000000004
 20
355.9003910091997
 10
248.6464937186611
 20
356.4452909954343
 10
248.6464937186611
 20
356.4452909954343
 10
248.6513937185373
 20
356.5116909937569
 10
248.654293718464
 20
356.5780909920795
 10
248.654293718464
 20
356.6464909903516
 10
248.654293718464
 20
357.4276909706168
 10
248.3363937264949
 20
358.136690952706
 10
247.8231937394594
 20
358.6503909397288
 10
247.8231937394594
 20
358.6503909397288
 10
247.8197937395453
 20
358.6503909397288
 10
247.8197937395453
 20
358.6503909397288
 10
247.3080937524719
 20
359.1620909268022
 10
246.5995937703701
 20
359.4784909188093
 10
245.8197937900695
 20
359.4784909188093
 10
245.0404938097563
 20
359.4784909188093
 10
244.3339999999998
 20
359.1620909268022
 10
243.818793840619
 20
358.6483909397793
 10
243.818793840619
 20
358.6483909397793
 10
243.8173938406544
 20
358.6483909397793
 10
243.8173938406544
 20
358.6483909397793
 10
243.8173938406544
 20
358.6483909397793
 10
243.8158938406923
 20
358.6464909398273
 10
243.8158938406923
 20
358.6464909398273
 10
243.3329999999996
 20
358.1620909520643
 10
243.0233938607125
 20
357.5077909685933
 10
242.989293861574
 20
356.7812909869463
 10
242.989293861574
 20
356.7812909869463
 10
242.989293861574
 20
356.7812909869463
 10
242.989293861574
 20
356.7812909869463
 10
242.9877938616119
 20
356.7538909876384
 10
242.9867938616371
 20
356.7265909883281
 10
242.9867938616371
 20
356.6991909890203
 10
242.9867938616371
 20
356.6991909890203
 10
242.96
 20
355.9003910091997
 10
242.96
 20
355.9003910091997
 10
242.96
 20
355.9003910091997
 10
239.6752939452927
 20
355.9003910091997
 10
239.6752939452927
 20
355.9003910091997
 10
239.1083939596137
 20
360.7694908861959
 10
239.0766939604146
 20
365.5429999999997
 10
239.6752939452927
 20
370.1991906479816
 10
239.6752939452927
 20
370.1991906479816
 10
277.1156929994686
 20
370.1991906479816
 10
277.1156929994686
 20
370.1991906479816
 10
277.1850929977154
 20
369.8681906563434
 10
277.2470929961491
 20
369.5341906647809
 10
277.3036929947193
 20
369.1972906732917
 10
277.3036929947193
 20
369.1972906732917
 10
277.5102929895002
 20
369.3554906692952
 10
277.5102929895002
 20
369.3554906692952
 10
277.5102929895002
 20
369.3554906692952
 10
278.1513929733046
 20
368.9042906806935
 10
278.1513929733046
 20
368.9042906806935
 10
278.1513929733046
 20
368.9042906806935
 10
278.7440929583317
 20
369.3554906692952
 10
278.7440929583317
 20
369.3554906692952
 10
278.7440929583317
 20
369.3554906692952
 10
279.3856929421236
 20
368.9042906806935
 10
279.3856929421236
 20
368.9042906806935
 10
279.3856929421236
 20
368.9042906806935
 10
279.9784929271482
 20
369.3554906692952
 10
279.9784929271482
 20
369.3554906692952
 10
279.9784929271482
 20
369.3554906692952
 10
280.6205929109274
 20
368.9042906806935
 10
280.6205929109274
 20
368.9042906806935
 10
280.6205929109274
 20
368.9042906806935
 10
281.2138928959394
 20
369.3554906692952
 10
281.2138928959394
 20
369.3554906692952
 10
281.2138928959394
 20
369.3554906692952
 10
281.8544928797564
 20
368.9042906806935
 10
281.8544928797564
 20
368.9042906806935
 10
281.8544928797564
 20
368.9042906806935
 10
282.3847928663599
 20
369.3075906705053
 10
282.3847928663599
 20
369.3075906705053
 10
282.4359999999997
 20
369.6073906629317
 10
282.4921928636468
 20
369.9042906554314
 10
282.5541928620805
 20
370.1991906479816
 10
282.5541928620805
 20
370.1991906479816
 10
282.5541928620805
 20
370.1991906479816
 10
282.5541928620805
 20
370.1991906479816
 97
        0
 92
        1
 93
        1
 72
     4
 94
        3
 73
     0
 74
     1
 95
       50
 96
       46
 40
0.0
 40
0.0
 40
0.0
 40
0.0
 40
1.0
 40
1.0
 40
1.0
 40
2.0
 40
2.0
 40
2.0
 40
3.0
 40
3.0
 40
3.0
 40
4.0
 40
4.0
 40
4.0
 40
5.0
 40
5.0
 40
5.0
 40
6.0
 40
6.0
 40
6.0
 40
7.0
 40
7.0
 40
7.0
 40
8.0
 40
8.0
 40
8.0
 40
9.0
 40
9.0
 40
9.0
 40
10.0
 40
10.0
 40
10.0
 40
11.0
 40
11.0
 40
11.0
 40
12.0
 40
12.0
 40
12.0
 40
13.0
 40
13.0
 40
13.0
 40
14.0
 40
14.0
 40
14.0
 40
15.0
 40
15.0
 40
15.0
 40
15.0
 10
271.1366931505108
 20
358.9813909313671
 10
270.4945931667316
 20
358.9813909313671
 10
269.9120931814468
 20
358.7206909379529
 10
269.4872931921782
 20
358.2978909486337
 10
269.4872931921782
 20
358.2978909486337
 10
269.4867931921908
 20
358.2958909486842
 10
269.4867931921908
 20
358.2958909486842
 10
269.4867931921908
 20
358.2958909486842
 10
269.4848931922388
 20
358.2948909487095
 10
269.4848931922388
 20
358.2948909487095
 10
269.0624932029095
 20
357.8710909594156
 10
268.801293209508
 20
357.2870909741687
 10
268.801293209508
 20
356.6464909903516
 10
268.801293209508
 20
356.0020000000004
 10
269.0624932029095
 20
355.4198910213381
 10
269.4848931922388
 20
354.9960910320442
 10
269.4848931922388
 20
354.9960910320442
 10
269.4848931922388
 20
354.9940910320947
 10
269.4848931922388
 20
354.9940910320947
 10
269.9081931815454
 20
354.5702910428008
 10
270.4916931668049
 20
354.3104910493639
 10
271.1366931505108
 20
354.3104910493639
 10
271.77879313429
 20
354.3104910493639
 10
272.3622931195496
 20
354.5702910428008
 10
272.7855931088561
 20
354.9940910320947
 10
272.7855931088561
 20
354.9940910320947
 10
272.788093108793
 20
354.9940910320947
 10
272.788093108793
 20
354.9940910320947
 10
272.788093108793
 20
354.9940910320947
 10
272.7885931087803
 20
354.9960910320442
 10
272.7885931087803
 20
354.9960910320442
 10
273.2113930980995
 20
355.4198910213381
 10
273.4730930914884
 20
356.003891006585
 10
273.4730930914884
 20
356.6464909903516
 10
273.4730930914884
 20
357.2909999999993
 10
273.2113930980995
 20
357.875
 10
272.7885931087803
 20
358.2978909486337
 10
272.7885931087803
 20
358.2978909486337
 10
272.7855931088561
 20
358.2978909486337
 10
272.7855931088561
 20
358.2978909486337
 10
272.3637931195117
 20
358.7206909379529
 10
271.7797931342648
 20
358.9813909313671
 10
271.1366931505108
 20
358.9813909313671
 10
271.1366931505108
 20
358.9813909313671
 10
271.1366931505108
 20
358.9813909313671
 10
271.1366931505108
 20
358.9813909313671
 97
        0
 92
        1
 93
        1
 72
     4
 94
        3
 73
     0
 74
     1
 95
       44
 96
       40
 40
0.0
 40
0.0
 40
0.0
 40
0.0
 40
1.0
 40
1.0
 40
1.0
 40
2.0
 40
2.0
 40
2.0
 40
3.0
 40
3.0
 40
3.0
 40
4.0
 40
4.0
 40
4.0
 40
5.0
 40
5.0
 40
5.0
 40
6.0
 40
6.0
 40
6.0
 40
7.0
 40
7.0
 40
7.0
 40
8.0
 40
8.0
 40
8.0
 40
9.0
 40
9.0
 40
9.0
 40
10.0
 40
10.0
 40
10.0
 40
11.0
 40
11.0
 40
11.0
 40
12.0
 40
12.0
 40
12.0
 40
13.0
 40
13.0
 40
13.0
 40
13.0
 10
270.3583931701723
 20
357.4276909706168
 10
270.3583931701723
 20
357.4276909706168
 10
270.3554931702456
 20
357.4237909707153
 10
270.3554931702456
 20
357.4237909707153
 10
270.1586931752172
 20
357.226590975697
 10
270.0360931783143
 20
356.9511909826542
 10
270.0360931783143
 20
356.6464909903516
 10
270.0360931783143
 20
356.341790998049
 10
270.1586931752172
 20
356.0644910050542
 10
270.3563931702229
 20
355.8651910100889
 10
270.3563931702229
 20
355.8651910100889
 10
270.3583931701723
 20
355.8671910100384
 10
270.3583931701723
 20
355.8671910100384
 10
270.5575931651401
 20
355.6679999999997
 10
270.8329999999996
 20
355.5448910181804
 10
271.1366931505108
 20
355.5448910181804
 10
271.4423931427882
 20
355.5448910181804
 10
271.717793135831
 20
355.6659999999993
 10
271.915
 20
355.8651910100889
 10
271.915
 20
355.8651910100889
 10
271.9174931307862
 20
355.8671910100384
 10
271.9174931307862
 20
355.8671910100384
 10
272.1161931257666
 20
356.0644910050542
 10
272.2387931226694
 20
356.3397909980995
 10
272.2387931226694
 20
356.6464909903516
 10
272.2387931226694
 20
356.9491909827047
 10
272.1146931258045
 20
357.2245909757476
 10
271.915
 20
357.4237909707153
 10
271.915
 20
357.4237909707153
 10
271.9170000000004
 20
357.4257909706648
 10
271.9170000000004
 20
357.4257909706648
 10
271.717793135831
 20
357.625
 10
271.4413931428135
 20
357.7460909625734
 10
271.1366931505108
 20
357.7460909625734
 10
270.8310931582309
 20
357.7460909625734
 10
270.5556931651881
 20
357.625
 10
270.3583931701723
 20
357.4276909706168
 10
270.3583931701723
 20
357.4276909706168
 10
270.3583931701723
 20
357.4276909706168
 10
270.3583931701723
 20
357.4276909706168
 97
        0
 92
        1
 93
        1
 72
     4
 94
        3
 73
     0
 74
     1
 95
       50
 96
       46
 40
0.0
 40
0.0
 40
0.0
 40
0.0
 40
1.0
 40
1.0
 40
1.0
 40
2.0
 40
2.0
 40
2.0
 40
3.0
 40
3.0
 40
3.0
 40
4.0
 40
4.0
 40
4.0
 40
5.0
 40
5.0
 40
5.0
 40
6.0
 40
6.0
 40
6.0
 40
7.0
 40
7.0
 40
7.0
 40
8.0
 40
8.0
 40
8.0
 40
9.0
 40
9.0
 40
9.0
 40
10.0
 40
10.0
 40
10.0
 40
11.0
 40
11.0
 40
11.0
 40
12.0
 40
12.0
 40
12.0
 40
13.0
 40
13.0
 40
13.0
 40
14.0
 40
14.0
 40
14.0
 40
15.0
 40
15.0
 40
15.0
 40
15.0
 10
245.8197937900695
 20
358.9813909313671
 10
245.1776938062903
 20
358.9813909313671
 10
244.5941938210308
 20
358.7206909379529
 10
244.1708938317242
 20
358.2978909486337
 10
244.1708938317242
 20
358.2978909486337
 10
244.1688938317748
 20
358.2958909486842
 10
244.1688938317748
 20
358.2958909486842
 10
244.1688938317748
 20
358.2958909486842
 10
244.1679999999997
 20
358.2948909487095
 10
244.1679999999997
 20
358.2948909487095
 10
243.7450938424809
 20
357.8710909594156
 10
243.4843938490667
 20
357.2870909741687
 10
243.4843938490667
 20
356.6464909903516
 10
243.4843938490667
 20
356.0020000000004
 10
243.7450938424809
 20
355.4198910213381
 10
244.1679999999997
 20
354.9960910320442
 10
244.1679999999997
 20
354.9960910320442
 10
244.1679999999997
 20
354.9940910320947
 10
244.1679999999997
 20
354.9940910320947
 10
244.5902938211293
 20
354.5702910428008
 10
245.175293806351
 20
354.3104910493639
 10
245.8197937900695
 20
354.3104910493639
 10
246.4618937738487
 20
354.3104910493639
 10
247.0448937591209
 20
354.5702910428008
 10
247.4691937484022
 20
354.9940910320947
 10
247.4691937484022
 20
354.9940910320947
 10
247.4701937483769
 20
354.9940910320947
 10
247.4701937483769
 20
354.9940910320947
 10
247.4701937483769
 20
354.9940910320947
 10
247.471693748339
 20
354.9960910320442
 10
247.471693748339
 20
354.9960910320442
 10
247.8944937376582
 20
355.4198910213381
 10
248.1557937310572
 20
356.003891006585
 10
248.1557937310572
 20
356.6464909903516
 10
248.1557937310572
 20
357.2909999999993
 10
247.8944937376582
 20
357.875
 10
247.471693748339
 20
358.2978909486337
 10
247.471693748339
 20
358.2978909486337
 10
247.4691937484022
 20
358.2978909486337
 10
247.4691937484022
 20
358.2978909486337
 10
247.046393759083
 20
358.7206909379529
 10
246.4633937738108
 20
358.9813909313671
 10
245.8197937900695
 20
358.9813909313671
 10
245.8197937900695
 20
358.9813909313671
 10
245.8197937900695
 20
358.9813909313671
 10
245.8197937900695
 20
358.9813909313671
 97
        0
 92
        1
 93
        1
 72
     4
 94
        3
 73
     0
 74
     1
 95
       44
 96
       40
 40
0.0
 40
0.0
 40
0.0
 40
0.0
 40
1.0
 40
1.0
 40
1.0
 40
2.0
 40
2.0
 40
2.0
 40
3.0
 40
3.0
 40
3.0
 40
4.0
 40
4.0
 40
4.0
 40
5.0
 40
5.0
 40
5.0
 40
6.0
 40
6.0
 40
6.0
 40
7.0
 40
7.0
 40
7.0
 40
8.0
 40
8.0
 40
8.0
 40
9.0
 40
9.0
 40
9.0
 40
10.0
 40
10.0
 40
10.0
 40
11.0
 40
11.0
 40
11.0
 40
12.0
 40
12.0
 40
12.0
 40
13.0
 40
13.0
 40
13.0
 40
13.0
 10
245.041493809731
 20
357.4276909706168
 10
245.041493809731
 20
357.4276909706168
 10
245.0385938098043
 20
357.4237909707153
 10
245.0385938098043
 20
357.4237909707153
 10
244.8402938148138
 20
357.226590975697
 10
244.7182938178958
 20
356.9511909826542
 10
244.7182938178958
 20
356.6464909903516
 10
244.7182938178958
 20
356.341790998049
 10
244.8412938147885
 20
356.0644910050542
 10
245.04
 20
355.8651910100889
 10
245.04
 20
355.8651910100889
 10
245.0404938097563
 20
355.8671910100384
 10
245.0404938097563
 20
355.8671910100384
 10
245.2396938047241
 20
355.6679999999997
 10
245.5160937977416
 20
355.5448910181804
 10
245.8197937900695
 20
355.5448910181804
 10
246.1254937823469
 20
355.5448910181804
 10
246.4008937753897
 20
355.6659999999993
 10
246.598093770408
 20
355.8651910100889
 10
246.598093770408
 20
355.8651910100889
 10
246.6010937703322
 20
355.8671910100384
 10
246.6010937703322
 20
355.8671910100384
 10
246.7982937653505
 20
356.0644910050542
 10
246.920393762266
 20
356.3397909980995
 10
246.920393762266
 20
356.6464909903516
 10
246.920393762266
 20
356.9491909827047
 10
246.7973937653733
 20
357.2245909757476
 10
246.598093770408
 20
357.4237909707153
 10
246.598093770408
 20
357.4237909707153
 10
246.5995937703701
 20
357.4257909706648
 10
246.5995937703701
 20
357.4257909706648
 10
246.4008937753897
 20
357.625
 10
246.1244937823722
 20
357.7460909625734
 10
245.8197937900695
 20
357.7460909625734
 10
245.5141937977896
 20
357.7460909625734
 10
245.2392938047342
 20
357.625
 10
245.041493809731
 20
357.4276909706168
 10
245.041493809731
 20
357.4276909706168
 10
245.041493809731
 20
357.4276909706168
 10
245.041493809731
 20
357.4276909706168
 97
        0
 92
        1
 93
        4
 72
     1
 10
268.6972932121353
 20
366.4472907427626
 11
262.5766933667546
 21
366.4472907427626
 72
     1
 10
262.5766933667546
 20
366.4472907427626
 11
262.5766933667546
 21
360.5878908907835
 72
     1
 10
262.5766933667546
 20
360.5878908907835
 11
268.6972932121353
 21
360.5878908907835
 72
     1
 10
268.6972932121353
 20
360.5878908907835
 11
268.6972932121353
 21
366.4472907427626
 97
        0
 92
        1
 93
        4
 72
     1
 10
275.3847930431948
 20
366.4472907427626
 11
269.2631931978394
 21
366.4472907427626
 72
     1
 10
269.2631931978394
 20
366.4472907427626
 11
269.2631931978394
 21
360.5878908907835
 72
     1
 10
269.2631931978394
 20
360.5878908907835
 11
275.3847930431948
 21
360.5878908907835
 72
     1
 10
275.3847930431948
 20
360.5878908907835
 11
275.3847930431948
 21
366.4472907427626
 97
        0
 92
        1
 93
        4
 72
     1
 10
249.0062937095718
 20
366.4472907427626
 11
242.8847938642139
 21
366.4472907427626
 72
     1
 10
242.8847938642139
 20
366.4472907427626
 11
242.8847938642139
 21
360.5878908907835
 72
     1
 10
242.8847938642139
 20
360.5878908907835
 11
249.0062937095718
 21
360.5878908907835
 72
     1
 10
249.0062937095718
 20
360.5878908907835
 11
249.0062937095718
 21
366.4472907427626
 97
        0
 92
        1
 93
        4
 72
     1
 10
255.692893540654
 20
366.4472907427626
 11
249.5722936952734
 21
366.4472907427626
 72
     1
 10
249.5722936952734
 20
366.4472907427626
 11
249.5722936952734
 21
360.5878908907835
 72
     1
 10
249.5722936952734
 20
360.5878908907835
 11
255.692893540654
 21
360.5878908907835
 72
     1
 10
255.692893540654
 20
360.5878908907835
 11
255.692893540654
 21
366.4472907427626
 97
        0
 92
        1
 93
        4
 72
     1
 10
261.6791933894274
 20
357.0507909801381
 11
261.6791933894274
 21
366.1415907504852
 72
     1
 10
261.6791933894274
 20
366.1415907504852
 11
259.3070934493517
 21
366.1415907504852
 72
     1
 10
259.3070934493517
 20
366.1415907504852
 11
259.3070934493517
 21
357.0507909801381
 72
     1
 10
259.3070934493517
 20
357.0507909801381
 11
261.6791933894274
 21
357.0507909801381
 97
        0
 92
        1
 93
        4
 72
     1
 10
258.3915934724791
 20
365.4511907679262
 11
257.171393503304
 21
365.4511907679262
 72
     1
 10
257.171393503304
 20
365.4511907679262
 11
257.171393503304
 21
360.576190891079
 72
     1
 10
257.171393503304
 20
360.576190891079
 11
258.3915934724791
 21
360.576190891079
 72
     1
 10
258.3915934724791
 20
360.576190891079
 11
258.3915934724791
 21
365.4511907679262
 97
        0
 92
        1
 93
        4
 72
     1
 10
258.9780000000001
 20
357.0507909801381
 11
258.9780000000001
 21
366.1415907504852
 72
     1
 10
258.9780000000001
 20
366.1415907504852
 11
256.6063935175771
 21
366.1415907504852
 72
     1
 10
256.6063935175771
 20
366.1415907504852
 11
256.6063935175771
 21
357.0507909801381
 72
     1
 10
256.6063935175771
 20
357.0507909801381
 11
258.9780000000001
 21
357.0507909801381
 97
        0
 92
        1
 93
       18
 72
     1
 10
256.4413935217453
 20
356.7206909884771
 11
258.9780000000001
 21
356.7206909884771
 72
     1
 10
258.9780000000001
 20
356.7206909884771
 11
259.1430934534947
 21
356.7206909884771
 72
     1
 10
259.1430934534947
 20
356.7206909884771
 11
259.3070934493517
 21
356.7206909884771
 72
     1
 10
259.3070934493517
 20
356.7206909884771
 11
261.8437933852692
 21
356.7206909884771
 72
     1
 10
261.8437933852692
 20
356.7206909884771
 11
262.008793381101
 21
356.7206909884771
 72
     1
 10
262.008793381101
 20
356.7206909884771
 11
262.008793381101
 21
356.8847909843316
 72
     1
 10
262.008793381101
 20
356.8847909843316
 11
262.008793381101
 21
366.3056907463397
 72
     1
 10
262.008793381101
 20
366.3056907463397
 11
262.008793381101
 21
366.4706907421714
 72
     1
 10
262.008793381101
 20
366.4706907421714
 11
261.8437933852692
 21
366.4706907421714
 72
     1
 10
261.8437933852692
 20
366.4706907421714
 11
259.3070934493517
 21
366.4706907421714
 72
     1
 10
259.3070934493517
 20
366.4706907421714
 11
259.1430934534947
 21
366.4706907421714
 72
     1
 10
259.1430934534947
 20
366.4706907421714
 11
258.9780000000001
 21
366.4706907421714
 72
     1
 10
258.9780000000001
 20
366.4706907421714
 11
256.4413935217453
 21
366.4706907421714
 72
     1
 10
256.4413935217453
 20
366.4706907421714
 11
256.2772935258909
 21
366.4706907421714
 72
     1
 10
256.2772935258909
 20
366.4706907421714
 11
256.2772935258909
 21
366.3056907463397
 72
     1
 10
256.2772935258909
 20
366.3056907463397
 11
256.2772935258909
 21
356.8847909843316
 72
     1
 10
256.2772935258909
 20
356.8847909843316
 11
256.2772935258909
 21
356.7206909884771
 72
     1
 10
256.2772935258909
 20
356.7206909884771
 11
256.4413935217453
 21
356.7206909884771
 97
        0
 92
        1
 93
        4
 72
     1
 10
261.0922934042537
 20
365.4511907679262
 11
259.8725934350659
 21
365.4511907679262
 72
     1
 10
259.8725934350659
 20
365.4511907679262
 11
259.8725934350659
 21
360.576190891079
 72
     1
 10
259.8725934350659
 20
360.576190891079
 11
261.0922934042537
 21
360.576190891079
 72
     1
 10
261.0922934042537
 20
360.576190891079
 11
261.0922934042537
 21
365.4511907679262
 97
        0
 92
        1
 93
        1
 72
     4
 94
        3
 73
     0
 74
     1
 95
       50
 96
       46
 40
0.0
 40
0.0
 40
0.0
 40
0.0
 40
1.0
 40
1.0
 40
1.0
 40
2.0
 40
2.0
 40
2.0
 40
3.0
 40
3.0
 40
3.0
 40
4.0
 40
4.0
 40
4.0
 40
5.0
 40
5.0
 40
5.0
 40
6.0
 40
6.0
 40
6.0
 40
7.0
 40
7.0
 40
7.0
 40
8.0
 40
8.0
 40
8.0
 40
9.0
 40
9.0
 40
9.0
 40
10.0
 40
10.0
 40
10.0
 40
11.0
 40
11.0
 40
11.0
 40
12.0
 40
12.0
 40
12.0
 40
13.0
 40
13.0
 40
13.0
 40
14.0
 40
14.0
 40
14.0
 40
15.0
 40
15.0
 40
15.0
 40
15.0
 10
287.6312927338222
 20
358.9813909313671
 10
286.9882927500657
 20
358.9813909313671
 10
286.4047927648062
 20
358.7206909379529
 10
285.9823927754769
 20
358.2978909486337
 10
285.9823927754769
 20
358.2978909486337
 10
285.9794927755502
 20
358.2978909486337
 10
285.9794927755502
 20
358.2978909486337
 10
285.5565927862335
 20
357.875
 10
285.2958927928194
 20
357.2909999999993
 10
285.2958927928194
 20
356.6464909903516
 10
285.2958927928194
 20
356.003891006585
 10
285.5565927862335
 20
355.4198910213381
 10
285.9794927755502
 20
354.9960910320442
 10
285.9794927755502
 20
354.9960910320442
 10
285.9813927755022
 20
354.9940910320947
 10
285.9813927755022
 20
354.9940910320947
 10
285.9813927755022
 20
354.9940910320947
 10
285.9823927754769
 20
354.9940910320947
 10
285.9823927754769
 20
354.9940910320947
 10
286.4057927647809
 20
354.5702910428008
 10
286.9892927500405
 20
354.3104910493639
 10
287.6312927338222
 20
354.3104910493639
 10
288.2763927175256
 20
354.3104910493639
 10
288.8607927027624
 20
354.5702910428008
 10
289.2831926920917
 20
354.9940910320947
 10
289.2831926920917
 20
354.9940910320947
 10
289.2831926920917
 20
354.9960910320442
 10
289.2831926920917
 20
354.9960910320442
 10
289.705592681421
 20
355.4198910213381
 10
289.9672926748099
 20
356.0020000000004
 10
289.9672926748099
 20
356.6464909903516
 10
289.9672926748099
 20
357.2870909741687
 10
289.705592681421
 20
357.8710909594156
 10
289.2831926920917
 20
358.2948909487095
 10
289.2831926920917
 20
358.2948909487095
 10
289.2812926921397
 20
358.2958909486842
 10
289.2812926921397
 20
358.2958909486842
 10
289.2812926921397
 20
358.2958909486842
 10
289.2802926921649
 20
358.2978909486337
 10
289.2802926921649
 20
358.2978909486337
 10
288.8559999999998
 20
358.7206909379529
 10
288.2733927176014
 20
358.9813909313671
 10
287.6312927338222
 20
358.9813909313671
 10
287.6312927338222
 20
358.9813909313671
 10
287.6312927338222
 20
358.9813909313671
 10
287.6312927338222
 20
358.9813909313671
 97
        0
 92
        1
 93
        1
 72
     4
 94
        3
 73
     0
 74
     1
 95
       44
 96
       40
 40
0.0
 40
0.0
 40
0.0
 40
0.0
 40
1.0
 40
1.0
 40
1.0
 40
2.0
 40
2.0
 40
2.0
 40
3.0
 40
3.0
 40
3.0
 40
4.0
 40
4.0
 40
4.0
 40
5.0
 40
5.0
 40
5.0
 40
6.0
 40
6.0
 40
6.0
 40
7.0
 40
7.0
 40
7.0
 40
8.0
 40
8.0
 40
8.0
 40
9.0
 40
9.0
 40
9.0
 40
10.0
 40
10.0
 40
10.0
 40
11.0
 40
11.0
 40
11.0
 40
12.0
 40
12.0
 40
12.0
 40
13.0
 40
13.0
 40
13.0
 40
13.0
 10
288.4096927141582
 20
357.4276909706168
 10
288.211892719155
 20
357.625
 10
287.9369999999999
 20
357.7460909625734
 10
287.6312927338222
 20
357.7460909625734
 10
287.3261927415297
 20
357.7460909625734
 10
287.0502927484995
 20
357.625
 10
286.8510927535317
 20
357.4257909706648
 10
286.8510927535317
 20
357.4257909706648
 10
286.8530000000001
 20
357.4237909707153
 10
286.8530000000001
 20
357.4237909707153
 10
286.6537927585159
 20
357.2245909757476
 10
286.5297927616484
 20
356.9491909827047
 10
286.5297927616484
 20
356.6464909903516
 10
286.5297927616484
 20
356.3397909980995
 10
286.6527927585412
 20
356.0644910050542
 10
286.850092753557
 20
355.8671910100384
 10
286.850092753557
 20
355.8671910100384
 10
286.8530000000001
 20
355.8651910100889
 10
286.8530000000001
 20
355.8651910100889
 10
287.0502927484995
 20
355.6659999999993
 10
287.3256927415423
 20
355.5448910181804
 10
287.6312927338222
 20
355.5448910181804
 10
287.9350927261476
 20
355.5448910181804
 10
288.2103927191929
 20
355.6679999999997
 10
288.4096927141582
 20
355.8671910100384
 10
288.4096927141582
 20
355.8671910100384
 10
288.4115927141102
 20
355.8651910100889
 10
288.4115927141102
 20
355.8651910100889
 10
288.6098927091007
 20
356.0644910050542
 10
288.7328927059934
 20
356.341790998049
 10
288.7328927059934
 20
356.6464909903516
 10
288.7328927059934
 20
356.9511909826542
 10
288.6098927091007
 20
357.226590975697
 10
288.4125927140849
 20
357.4237909707153
 10
288.4125927140849
 20
357.4237909707153
 10
288.4096927141582
 20
357.4276909706168
 10
288.4096927141582
 20
357.4276909706168
 10
288.4096927141582
 20
357.4276909706168
 10
288.4096927141582
 20
357.4276909706168
 10
288.4096927141582
 20
357.4276909706168
 97
        0
 92
        1
 93
        1
 72
     4
 94
        3
 73
     0
 74
     1
 95
       50
 96
       46
 40
0.0
 40
0.0
 40
0.0
 40
0.0
 40
1.0
 40
1.0
 40
1.0
 40
2.0
 40
2.0
 40
2.0
 40
3.0
 40
3.0
 40
3.0
 40
4.0
 40
4.0
 40
4.0
 40
5.0
 40
5.0
 40
5.0
 40
6.0
 40
6.0
 40
6.0
 40
7.0
 40
7.0
 40
7.0
 40
8.0
 40
8.0
 40
8.0
 40
9.0
 40
9.0
 40
9.0
 40
10.0
 40
10.0
 40
10.0
 40
11.0
 40
11.0
 40
11.0
 40
12.0
 40
12.0
 40
12.0
 40
13.0
 40
13.0
 40
13.0
 40
14.0
 40
14.0
 40
14.0
 40
15.0
 40
15.0
 40
15.0
 40
15.0
 10
317.0058919917574
 20
358.9813909313671
 10
316.3612920080413
 20
358.9813909313671
 10
315.7792920227439
 20
358.7206909379529
 10
315.35549203345
 20
358.2978909486337
 10
315.35549203345
 20
358.2978909486337
 10
315.3534920335005
 20
358.2978909486337
 10
315.3534920335005
 20
358.2978909486337
 10
314.9306920441813
 20
357.875
 10
314.6679999999997
 20
357.2909999999993
 10
314.6679999999997
 20
356.6464909903516
 10
314.6679999999997
 20
356.003891006585
 10
314.9306920441813
 20
355.4198910213381
 10
315.3534920335005
 20
354.9960910320442
 10
315.3534920335005
 20
354.9960910320442
 10
315.3534920335005
 20
354.9940910320947
 10
315.3534920335005
 20
354.9940910320947
 10
315.3534920335005
 20
354.9940910320947
 10
315.35549203345
 20
354.9940910320947
 10
315.35549203345
 20
354.9940910320947
 10
315.7792920227439
 20
354.5702910428008
 10
316.3632920079908
 20
354.3104910493639
 10
317.0058919917574
 20
354.3104910493639
 10
317.6503919754759
 20
354.3104910493639
 10
318.2343919607229
 20
354.5702910428008
 10
318.6562919500648
 20
354.9940910320947
 10
318.6562919500648
 20
354.9940910320947
 10
318.6562919500648
 20
354.9960910320442
 10
318.6562919500648
 20
354.9960910320442
 10
319.0800919393587
 20
355.4198910213381
 10
319.3417919327476
 20
356.0020000000004
 10
319.3417919327476
 20
356.6464909903516
 10
319.3417919327476
 20
357.2870909741687
 10
319.0800919393587
 20
357.8710909594156
 10
318.6562919500648
 20
358.2948909487095
 10
318.6562919500648
 20
358.2948909487095
 10
318.65529195009
 20
358.2958909486842
 10
318.65529195009
 20
358.2958909486842
 10
318.65529195009
 20
358.2958909486842
 10
318.6542919501153
 20
358.2978909486337
 10
318.6542919501153
 20
358.2978909486337
 10
318.2304919608214
 20
358.7206909379529
 10
317.6474919755492
 20
358.9813909313671
 10
317.0058919917574
 20
358.9813909313671
 10
317.0058919917574
 20
358.9813909313671
 10
317.0058919917574
 20
358.9813909313671
 10
317.0058919917574
 20
358.9813909313671
 97
        0
 92
        1
 93
        1
 72
     4
 94
        3
 73
     0
 74
     1
 95
       44
 96
       40
 40
0.0
 40
0.0
 40
0.0
 40
0.0
 40
1.0
 40
1.0
 40
1.0
 40
2.0
 40
2.0
 40
2.0
 40
3.0
 40
3.0
 40
3.0
 40
4.0
 40
4.0
 40
4.0
 40
5.0
 40
5.0
 40
5.0
 40
6.0
 40
6.0
 40
6.0
 40
7.0
 40
7.0
 40
7.0
 40
8.0
 40
8.0
 40
8.0
 40
9.0
 40
9.0
 40
9.0
 40
10.0
 40
10.0
 40
10.0
 40
11.0
 40
11.0
 40
11.0
 40
12.0
 40
12.0
 40
12.0
 40
13.0
 40
13.0
 40
13.0
 40
13.0
 10
317.7831919721211
 20
357.4276909706168
 10
317.5858919771053
 20
357.625
 10
317.3104919840625
 20
357.7460909625734
 10
317.0058919917574
 20
357.7460909625734
 10
316.7011919994547
 20
357.7460909625734
 10
316.4237920064625
 20
357.625
 10
316.2245920114947
 20
357.4257909706648
 10
316.2245920114947
 20
357.4257909706648
 10
316.2265920114442
 20
357.4237909707153
 10
316.2265920114442
 20
357.4237909707153
 10
316.0272920164789
 20
357.2245909757476
 10
315.9042920195861
 20
356.9491909827047
 10
315.9042920195861
 20
356.6464909903516
 10
315.9042920195861
 20
356.3397909980995
 10
316.0253920165269
 20
356.0644910050542
 10
316.2245920114947
 20
355.8671910100384
 10
316.2245920114947
 20
355.8671910100384
 10
316.2265920114442
 20
355.8651910100889
 10
316.2265920114442
 20
355.8651910100889
 10
316.4237920064625
 20
355.6659999999993
 10
316.6991919995053
 20
355.5448910181804
 10
317.0058919917574
 20
355.5448910181804
 10
317.3085919841105
 20
355.5448910181804
 10
317.5840000000007
 20
355.6679999999997
 10
317.7831919721211
 20
355.8671910100384
 10
317.7831919721211
 20
355.8671910100384
 10
317.7851919720706
 20
355.8651910100889
 10
317.7851919720706
 20
355.8651910100889
 10
317.9833919670637
 20
356.0644910050542
 10
318.1054919639791
 20
356.341790998049
 10
318.1054919639791
 20
356.6464909903516
 10
318.1054919639791
 20
356.9511909826542
 10
317.9833919670637
 20
357.226590975697
 10
317.7860919720479
 20
357.4237909707153
 10
317.7860919720479
 20
357.4237909707153
 10
317.7831919721211
 20
357.4276909706168
 10
317.7831919721211
 20
357.4276909706168
 10
317.7831919721211
 20
357.4276909706168
 10
317.7831919721211
 20
357.4276909706168
 10
317.7831919721211
 20
357.4276909706168
 97
        0
 92
        1
 93
        1
 72
     4
 94
        3
 73
     0
 74
     1
 95
       50
 96
       46
 40
0.0
 40
0.0
 40
0.0
 40
0.0
 40
1.0
 40
1.0
 40
1.0
 40
2.0
 40
2.0
 40
2.0
 40
3.0
 40
3.0
 40
3.0
 40
4.0
 40
4.0
 40
4.0
 40
5.0
 40
5.0
 40
5.0
 40
6.0
 40
6.0
 40
6.0
 40
7.0
 40
7.0
 40
7.0
 40
8.0
 40
8.0
 40
8.0
 40
9.0
 40
9.0
 40
9.0
 40
10.0
 40
10.0
 40
10.0
 40
11.0
 40
11.0
 40
11.0
 40
12.0
 40
12.0
 40
12.0
 40
13.0
 40
13.0
 40
13.0
 40
14.0
 40
14.0
 40
14.0
 40
15.0
 40
15.0
 40
15.0
 40
15.0
 10
294.1205925698887
 20
358.9813909313671
 10
293.4765925861575
 20
358.9813909313671
 10
292.8935926008853
 20
358.7206909379529
 10
292.4706926115687
 20
358.2978909486337
 10
292.4706926115687
 20
358.2978909486337
 10
292.4687926116167
 20
358.2978909486337
 10
292.4687926116167
 20
358.2978909486337
 10
292.0463926222874
 20
357.875
 10
291.7841926289111
 20
357.2909999999993
 10
291.7841926289111
 20
356.6464909903516
 10
291.7841926289111
 20
356.003891006585
 10
292.0463926222874
 20
355.4198910213381
 10
292.4687926116167
 20
354.9960910320442
 10
292.4687926116167
 20
354.9960910320442
 10
292.4696926115939
 20
354.9940910320947
 10
292.4696926115939
 20
354.9940910320947
 10
292.4696926115939
 20
354.9940910320947
 10
292.4706926115687
 20
354.9940910320947
 10
292.4706926115687
 20
354.9940910320947
 10
292.8944926008626
 20
354.5702910428008
 10
293.4774925861348
 20
354.3104910493639
 10
294.1205925698887
 20
354.3104910493639
 10
294.7650925536072
 20
354.3104910493639
 10
295.3490925388542
 20
354.5702910428008
 10
295.7714925281834
 20
354.9940910320947
 10
295.7714925281834
 20
354.9940910320947
 10
295.7714925281834
 20
354.9960910320442
 10
295.7714925281834
 20
354.9960910320442
 10
296.19479251749
 20
355.4198910213381
 10
296.456092510889
 20
356.0020000000004
 10
296.456092510889
 20
356.6464909903516
 10
296.456092510889
 20
357.2870909741687
 10
296.19479251749
 20
357.8710909594156
 10
295.7714925281834
 20
358.2948909487095
 10
295.7714925281834
 20
358.2948909487095
 10
295.7704925282087
 20
358.2958909486842
 10
295.7704925282087
 20
358.2958909486842
 10
295.7704925282087
 20
358.2958909486842
 10
295.769492528234
 20
358.2978909486337
 10
295.769492528234
 20
358.2978909486337
 10
295.3451925389527
 20
358.7206909379529
 10
294.7626925536679
 20
358.9813909313671
 10
294.1205925698887
 20
358.9813909313671
 10
294.1205925698887
 20
358.9813909313671
 10
294.1205925698887
 20
358.9813909313671
 10
294.1205925698887
 20
358.9813909313671
 97
        0
 92
        1
 93
        1
 72
     4
 94
        3
 73
     0
 74
     1
 95
       44
 96
       40
 40
0.0
 40
0.0
 40
0.0
 40
0.0
 40
1.0
 40
1.0
 40
1.0
 40
2.0
 40
2.0
 40
2.0
 40
3.0
 40
3.0
 40
3.0
 40
4.0
 40
4.0
 40
4.0
 40
5.0
 40
5.0
 40
5.0
 40
6.0
 40
6.0
 40
6.0
 40
7.0
 40
7.0
 40
7.0
 40
8.0
 40
8.0
 40
8.0
 40
9.0
 40
9.0
 40
9.0
 40
10.0
 40
10.0
 40
10.0
 40
11.0
 40
11.0
 40
11.0
 40
12.0
 40
12.0
 40
12.0
 40
13.0
 40
13.0
 40
13.0
 40
13.0
 10
294.8988925502272
 20
357.4276909706168
 10
294.7016925552089
 20
357.625
 10
294.4257925621787
 20
357.7460909625734
 10
294.1205925698887
 20
357.7460909625734
 10
293.8148925776113
 20
357.7460909625734
 10
293.54
 20
357.625
 10
293.3402925896007
 20
357.4257909706648
 10
293.3402925896007
 20
357.4257909706648
 10
293.3412925895755
 20
357.4237909707153
 10
293.3412925895755
 20
357.4237909707153
 10
293.1420925946077
 20
357.2245909757476
 10
293.0190000000002
 20
356.9491909827047
 10
293.0190000000002
 20
356.6464909903516
 10
293.0190000000002
 20
356.3397909980995
 10
293.1410925946329
 20
356.0644910050542
 10
293.3393925896235
 20
355.8671910100384
 10
293.3393925896235
 20
355.8671910100384
 10
293.3412925895755
 20
355.8651910100889
 10
293.3412925895755
 20
355.8651910100889
 10
293.54
 20
355.6659999999993
 10
293.8148925776113
 20
355.5448910181804
 10
294.1205925698887
 20
355.5448910181804
 10
294.4242925622166
 20
355.5448910181804
 10
294.6996925552594
 20
355.6679999999997
 10
294.8988925502272
 20
355.8671910100384
 10
294.8988925502272
 20
355.8671910100384
 10
294.8998925502019
 20
355.8651910100889
 10
294.8998925502019
 20
355.8651910100889
 10
295.0990925451697
 20
356.0644910050542
 10
295.2211925420852
 20
356.341790998049
 10
295.2211925420852
 20
356.6464909903516
 10
295.2211925420852
 20
356.9511909826542
 10
295.0990925451697
 20
357.226590975697
 10
294.9018925501514
 20
357.4237909707153
 10
294.9018925501514
 20
357.4237909707153
 10
294.8988925502272
 20
357.4276909706168
 10
294.8988925502272
 20
357.4276909706168
 10
294.8988925502272
 20
357.4276909706168
 10
294.8988925502272
 20
357.4276909706168
 10
294.8988925502272
 20
357.4276909706168
 97
        0
 92
        1
 93
        4
 72
     1
 10
320.8671918942127
 20
357.0507909801381
 11
323.2382918343137
 21
357.0507909801381
 72
     1
 10
323.2382918343137
 20
357.0507909801381
 11
323.2382918343137
 21
366.1415907504852
 72
     1
 10
323.2382918343137
 20
366.1415907504852
 11
320.8671918942127
 21
366.1415907504852
 72
     1
 10
320.8671918942127
 20
366.1415907504852
 11
320.8671918942127
 21
357.0507909801381
 97
        0
 92
        1
 93
        1
 72
     4
 94
        3
 73
     0
 74
     1
 95
       20
 96
       16
 40
0.0
 40
0.0
 40
0.0
 40
0.0
 40
1.0
 40
1.0
 40
1.0
 40
2.0
 40
2.0
 40
2.0
 40
3.0
 40
3.0
 40
3.0
 40
4.0
 40
4.0
 40
4.0
 40
5.0
 40
5.0
 40
5.0
 40
5.0
 10
283.74849283191
 20
366.4472907427626
 10
283.4979999999996
 20
364.5097907917079
 10
283.5341928373236
 20
362.5546908410979
 10
283.74849283191
 20
360.5878908907835
 10
284.7685928061401
 20
360.5878908907835
 10
285.7885927803727
 20
360.5878908907835
 10
286.8085927546053
 20
360.5878908907835
 10
286.8085927546053
 20
362.5409999999993
 10
286.8085927546053
 20
364.4940907921045
 10
286.8085927546053
 20
366.4472907427626
 10
285.7885927803727
 20
366.4472907427626
 10
284.7685928061401
 20
366.4472907427626
 10
283.74849283191
 20
366.4472907427626
 10
283.74849283191
 20
366.4472907427626
 10
283.74849283191
 20
366.4472907427626
 10
283.74849283191
 20
366.4472907427626
 97
        0
 92
        1
 93
        4
 72
     1
 10
294.1278925697043
 20
366.4472907427626
 11
294.1278925697043
 21
360.5878908907835
 72
     1
 10
294.1278925697043
 20
360.5878908907835
 11
300.2479999999996
 21
360.5878908907835
 72
     1
 10
300.2479999999996
 20
360.5878908907835
 11
300.2479999999996
 21
366.4472907427626
 72
     1
 10
300.2479999999996
 20
366.4472907427626
 11
294.1278925697043
 21
366.4472907427626
 97
        0
 92
        1
 93
        4
 72
     1
 10
287.4403927386447
 20
366.4472907427626
 11
287.4403927386447
 21
360.5878908907835
 72
     1
 10
287.4403927386447
 20
360.5878908907835
 11
293.5609999999997
 21
360.5878908907835
 72
     1
 10
293.5609999999997
 20
360.5878908907835
 11
293.5609999999997
 21
366.4472907427626
 72
     1
 10
293.5609999999997
 20
366.4472907427626
 11
287.4403927386447
 21
366.4472907427626
 97
        0
 92
        1
 93
        4
 72
     1
 10
313.8192920722577
 20
366.4472907427626
 11
313.8192920722577
 21
360.5878908907835
 72
     1
 10
313.8192920722577
 20
360.5878908907835
 11
319.9394919176484
 21
360.5878908907835
 72
     1
 10
319.9394919176484
 20
360.5878908907835
 11
319.9394919176484
 21
366.4472907427626
 72
     1
 10
319.9394919176484
 20
366.4472907427626
 11
313.8192920722577
 21
366.4472907427626
 97
        0
 92
        1
 93
        4
 72
     1
 10
307.1308922412209
 20
366.4472907427626
 11
307.1308922412209
 21
360.5878908907835
 72
     1
 10
307.1308922412209
 20
360.5878908907835
 11
313.2520000000004
 21
360.5878908907835
 72
     1
 10
313.2520000000004
 20
360.5878908907835
 11
313.2520000000004
 21
366.4472907427626
 72
     1
 10
313.2520000000004
 20
366.4472907427626
 11
307.1308922412209
 21
366.4472907427626
 97
        0
 92
        1
 93
        4
 72
     1
 10
301.1454923924248
 20
357.0507909801381
 11
303.5175923325005
 21
357.0507909801381
 72
     1
 10
303.5175923325005
 20
357.0507909801381
 11
303.5175923325005
 21
366.1415907504852
 72
     1
 10
303.5175923325005
 20
366.1415907504852
 11
301.1454923924248
 21
366.1415907504852
 72
     1
 10
301.1454923924248
 20
366.1415907504852
 11
301.1454923924248
 21
357.0507909801381
 97
        0
 92
        1
 93
        4
 72
     1
 10
304.4335923093604
 20
365.4511907679262
 11
304.4335923093604
 21
360.576190891079
 72
     1
 10
304.4335923093604
 20
360.576190891079
 11
305.6542922785229
 21
360.576190891079
 72
     1
 10
305.6542922785229
 20
360.576190891079
 11
305.6542922785229
 21
365.4511907679262
 72
     1
 10
305.6542922785229
 20
365.4511907679262
 11
304.4335923093604
 21
365.4511907679262
 97
        0
 92
        1
 93
        4
 72
     1
 10
303.8476923241615
 20
357.0507909801381
 11
306.2187922642624
 21
357.0507909801381
 72
     1
 10
306.2187922642624
 20
357.0507909801381
 11
306.2187922642624
 21
366.1415907504852
 72
     1
 10
306.2187922642624
 20
366.1415907504852
 11
303.8476923241615
 21
366.1415907504852
 72
     1
 10
303.8476923241615
 20
366.1415907504852
 11
303.8476923241615
 21
357.0507909801381
 97
        0
 92
        1
 93
       18
 72
     1
 10
306.3827922601195
 20
356.7206909884771
 11
306.5478922559487
 21
356.7206909884771
 72
     1
 10
306.5478922559487
 20
356.7206909884771
 11
306.5478922559487
 21
356.8847909843316
 72
     1
 10
306.5478922559487
 20
356.8847909843316
 11
306.5478922559487
 21
366.3056907463397
 72
     1
 10
306.5478922559487
 20
366.3056907463397
 11
306.5478922559487
 21
366.4706907421714
 72
     1
 10
306.5478922559487
 20
366.4706907421714
 11
306.3827922601195
 21
366.4706907421714
 72
     1
 10
306.3827922601195
 20
366.4706907421714
 11
303.8476923241615
 21
366.4706907421714
 72
     1
 10
303.8476923241615
 20
366.4706907421714
 11
303.6815923283575
 21
366.4706907421714
 72
     1
 10
303.6815923283575
 20
366.4706907421714
 11
303.5175923325005
 21
366.4706907421714
 72
     1
 10
303.5175923325005
 20
366.4706907421714
 11
300.9813923965703
 21
366.4706907421714
 72
     1
 10
300.9813923965703
 20
366.4706907421714
 11
300.8163924007386
 21
366.4706907421714
 72
     1
 10
300.8163924007386
 20
366.4706907421714
 11
300.8163924007386
 21
366.3056907463397
 72
     1
 10
300.8163924007386
 20
366.3056907463397
 11
300.8163924007386
 21
356.8847909843316
 72
     1
 10
300.8163924007386
 20
356.8847909843316
 11
300.8163924007386
 21
356.7206909884771
 72
     1
 10
300.8163924007386
 20
356.7206909884771
 11
300.9813923965703
 21
356.7206909884771
 72
     1
 10
300.9813923965703
 20
356.7206909884771
 11
303.5175923325005
 21
356.7206909884771
 72
     1
 10
303.5175923325005
 20
356.7206909884771
 11
303.6815923283575
 21
356.7206909884771
 72
     1
 10
303.6815923283575
 20
356.7206909884771
 11
303.8476923241615
 21
356.7206909884771
 72
     1
 10
303.8476923241615
 20
356.7206909884771
 11
306.3827922601195
 21
356.7206909884771
 97
        0
 92
        1
 93
        4
 72
     1
 10
301.7323923775984
 20
365.4511907679262
 11
301.7323923775984
 21
360.576190891079
 72
     1
 10
301.7323923775984
 20
360.576190891079
 11
302.9520923467862
 21
360.576190891079
 72
     1
 10
302.9520923467862
 20
360.576190891079
 11
302.9520923467862
 21
365.4511907679262
 72
     1
 10
302.9520923467862
 20
365.4511907679262
 11
301.7323923775984
 21
365.4511907679262
 97
        0
 92
        1
 93
        4
 72
     1
 10
324.1542918111736
 20
365.4511907679262
 11
324.1542918111736
 21
360.576190891079
 72
     1
 10
324.1542918111736
 20
360.576190891079
 11
325.375
 21
360.576190891079
 72
     1
 10
325.375
 20
360.576190891079
 11
325.375
 21
365.4511907679262
 72
     1
 10
325.375
 20
365.4511907679262
 11
324.1542918111736
 21
365.4511907679262
 97
        0
 92
        1
 93
        4
 72
     1
 10
323.5683918259747
 20
357.0507909801381
 11
325.9394917660757
 21
357.0507909801381
 72
     1
 10
325.9394917660757
 20
357.0507909801381
 11
325.9394917660757
 21
366.1415907504852
 72
     1
 10
325.9394917660757
 20
366.1415907504852
 11
323.5683918259747
 21
366.1415907504852
 72
     1
 10
323.5683918259747
 20
366.1415907504852
 11
323.5683918259747
 21
357.0507909801381
 97
        0
 92
        1
 93
       18
 72
     1
 10
326.1034917619327
 20
356.7206909884771
 11
326.2685917577619
 21
356.7206909884771
 72
     1
 10
326.2685917577619
 20
356.7206909884771
 11
326.2685917577619
 21
356.8847909843316
 72
     1
 10
326.2685917577619
 20
356.8847909843316
 11
326.2685917577619
 21
366.3056907463397
 72
     1
 10
326.2685917577619
 20
366.3056907463397
 11
326.2685917577619
 21
366.4706907421714
 72
     1
 10
326.2685917577619
 20
366.4706907421714
 11
326.1034917619327
 21
366.4706907421714
 72
     1
 10
326.1034917619327
 20
366.4706907421714
 11
323.5683918259747
 21
366.4706907421714
 72
     1
 10
323.5683918259747
 20
366.4706907421714
 11
323.4022918301707
 21
366.4706907421714
 72
     1
 10
323.4022918301707
 20
366.4706907421714
 11
323.2382918343137
 21
366.4706907421714
 72
     1
 10
323.2382918343137
 20
366.4706907421714
 11
320.7020918983835
 21
366.4706907421714
 72
     1
 10
320.7020918983835
 20
366.4706907421714
 11
320.5370919025518
 21
366.4706907421714
 72
     1
 10
320.5370919025518
 20
366.4706907421714
 11
320.5370919025518
 21
366.3056907463397
 72
     1
 10
320.5370919025518
 20
366.3056907463397
 11
320.5370919025518
 21
356.8847909843316
 72
     1
 10
320.5370919025518
 20
356.8847909843316
 11
320.5370919025518
 21
356.7206909884771
 72
     1
 10
320.5370919025518
 20
356.7206909884771
 11
320.7020918983835
 21
356.7206909884771
 72
     1
 10
320.7020918983835
 20
356.7206909884771
 11
323.2382918343137
 21
356.7206909884771
 72
     1
 10
323.2382918343137
 20
356.7206909884771
 11
323.4022918301707
 21
356.7206909884771
 72
     1
 10
323.4022918301707
 20
356.7206909884771
 11
323.5683918259747
 21
356.7206909884771
 72
     1
 10
323.5683918259747
 20
356.7206909884771
 11
326.1034917619327
 21
356.7206909884771
 97
        0
 92
        1
 93
        4
 72
     1
 10
321.4530918794117
 20
365.4511907679262
 11
321.4530918794117
 21
360.576190891079
 72
     1
 10
321.4530918794117
 20
360.576190891079
 11
322.6737918485742
 21
360.576190891079
 72
     1
 10
322.6737918485742
 20
360.576190891079
 11
322.6737918485742
 21
365.4511907679262
 72
     1
 10
322.6737918485742
 20
365.4511907679262
 11
321.4530918794117
 21
365.4511907679262
 97
        0
 92
        1
 93
        1
 72
     4
 94
        3
 73
     0
 74
     1
 95
       11
 96
        7
 40
0.0
 40
0.0
 40
0.0
 40
0.0
 40
1.0
 40
1.0
 40
1.0
 40
2.0
 40
2.0
 40
2.0
 40
2.0
 10
296.9160000000002
 20
357.1073909787083
 10
296.9160000000002
 20
357.1073909787083
 10
296.9160000000002
 20
357.1073909787083
 10
296.9160000000002
 20
357.1073909787083
 10
296.9160000000002
 20
357.1073909787083
 10
296.9160000000002
 20
357.1073909787083
 10
296.9160000000002
 20
357.1073909787083
 97
        0
 75
     0
 76
     1
 98
        0
  0
ENDBLK
  5
140
330
4F
100
AcDbEntity
  8
0
100
AcDbBlockEnd
  0
ENDSEC
  0
SECTION
  2
ENTITIES
  0
INSERT
  5
4D
330
14
100
AcDbEntity
  8
Layer 1
100
AcDbBlockReference
  2
block 6
 10
0.0
 20
0.0
 30
0.0
  0
ENDSEC
  0
SECTION
  2
OBJECTS
  0
DICTIONARY
  5
5
330
0
100
AcDbDictionary
281
     1
  3
ACAD_GROUP
350
21
  3
ACAD_LAYOUT
350
18
  3
ACAD_MATERIAL
350
7
  3
ACAD_MLEADERSTYLE
350
144
  3
ACAD_MLINESTYLE
350
12
  3
ACAD_PLOTSETTINGS
350
22
  3
ACAD_PLOTSTYLENAME
350
4
  3
ACAD_SCALELIST
350
29
  3
ACAD_TABLESTYLE
350
143
  3
ACAD_VISUALSTYLE
350
23
  3
AcDbVariableDictionary
350
141
  0
DICTIONARY
  5
164
330
1F
100
AcDbDictionary
280
     1
281
     1
  3
ACAD_XREC_ROUNDTRIP
360
165
  0
DICTIONARY
  5
21
102
{ACAD_REACTORS
330
5
102
}
330
5
100
AcDbDictionary
281
     1
  0
DICTIONARY
  5
18
102
{ACAD_REACTORS
330
5
102
}
330
5
100
AcDbDictionary
281
     1
  3
Layout1
350
1C
  3
Model
350
17
  0
DICTIONARY
  5
7
102
{ACAD_REACTORS
330
5
102
}
330
5
100
AcDbDictionary
281
     1
  3
ByBlock
350
4C
  3
ByLayer
350
E
  3
Global
350
6
  0
DICTIONARY
  5
144
102
{ACAD_REACTORS
330
5
102
}
330
5
100
AcDbDictionary
281
     1
  3
Standard
350
147
  0
DICTIONARY
  5
12
102
{ACAD_REACTORS
330
5
102
}
330
5
100
AcDbDictionary
281
     1
  3
Standard
350
11
  0
DICTIONARY
  5
22
102
{ACAD_REACTORS
330
5
102
}
330
5
100
AcDbDictionary
281
     1
  0
ACDBDICTIONARYWDFLT
  5
4
102
{ACAD_REACTORS
330
5
102
}
330
5
100
AcDbDictionary
281
     1
  3
Normal
350
3
100
AcDbDictionaryWithDefault
340
3
  0
DICTIONARY
  5
29
102
{ACAD_REACTORS
330
5
102
}
330
5
100
AcDbDictionary
281
     1
  3
*A1
350
4B
  0
DICTIONARY
  5
143
102
{ACAD_REACTORS
330
5
102
}
330
5
100
AcDbDictionary
281
     1
  3
Standard
350
15F
  0
DICTIONARY
  5
23
102
{ACAD_REACTORS
330
5
102
}
330
5
100
AcDbDictionary
281
     1
  3
2dWireframe
350
26
  3
Basic
350
14E
  3
Brighten
350
152
  3
ColorChange
350
156
  3
Conceptual
350
150
  3
Dim
350
151
  3
EdgeColorOff
350
159
  3
Facepattern
350
155
  3
Flat
350
148
  3
FlatWithEdges
350
149
  3
Gouraud
350
14A
  3
GouraudWithEdges
350
14B
  3
Hidden
350
14D
  3
JitterOff
350
157
  3
Linepattern
350
154
  3
OverhangOff
350
158
  3
Realistic
350
14F
  3
Shaded
350
15E
  3
Shaded with edges
350
15D
  3
Shades of Gray
350
15A
  3
Sketchy
350
15B
  3
Thicken
350
153
  3
Wireframe
350
14C
  3
X-Ray
350
15C
  0
DICTIONARY
  5
141
102
{ACAD_REACTORS
330
5
102
}
330
5
100
AcDbDictionary
281
     1
  3
CANNOSCALE
350
142
  3
CMLEADERSTYLE
350
161
  3
CTABLESTYLE
350
160
  3
DIMASSOC
350
162
  3
HIDETEXT
350
163
  3
MSLTSCALE
350
166
  0
XRECORD
  5
165
102
{ACAD_REACTORS
330
164
102
}
330
164
100
AcDbXrecord
280
     1
102
VTR_0.000_0.000_1.000_1.000_VISUALSTYLE
340
26
102
VTR_0.000_0.000_1.000_1.000_GRIDDISPLAY
 70
     3
102
VTR_0.000_0.000_1.000_1.000_GRIDMAJOR
 70
     5
102
VTR_0.000_0.000_1.000_1.000_DEFAULTLIGHTING
280
     1
102
VTR_0.000_0.000_1.000_1.000_DEFAULTLIGHTINGTYPE
 70
     1
102
VTR_0.000_0.000_1.000_1.000_BRIGHTNESS
141
0.0
102
VTR_0.000_0.000_1.000_1.000_CONTRAST
142
0.0
  0
LAYOUT
  5
1C
102
{ACAD_REACTORS
330
18
102
}
330
18
100
AcDbPlotSettings
  1

  2
none_device
  4
Letter_(8.50_x_11.00_Inches)
  6

 40
6.35
 41
6.35
 42
6.35001
 43
6.35001
 44
215.9
 45
279.4
 46
0.0
 47
0.0
 48
0.0
 49
0.0
140
0.0
141
0.0
142
1.0
143
1.0
 70
   688
 72
     0
 73
     1
 74
     5
  7

 75
    16
147
1.0
148
0.0
149
0.0
100
AcDbLayout
  1
Layout1
 70
     1
 71
     1
 10
0.0
 20
0.0
 11
12.0
 21
9.0
 12
0.0
 22
0.0
 32
0.0
 14
1.000000000000000E+20
 24
1.000000000000000E+20
 34
1.000000000000000E+20
 15
-1.000000000000000E+20
 25
-1.000000000000000E+20
 35
-1.000000000000000E+20
146
0.0
 13
0.0
 23
0.0
 33
0.0
 16
1.0
 26
0.0
 36
0.0
 17
0.0
 27
1.0
 37
0.0
 76
     0
330
19
  0
LAYOUT
  5
17
102
{ACAD_REACTORS
330
18
102
}
330
18
100
AcDbPlotSettings
  1

  2
none_device
  4

  6

 40
0.0
 41
0.0
 42
0.0
 43
0.0
 44
0.0
 45
0.0
 46
0.0
 47
0.0
 48
0.0
 49
0.0
140
0.0
141
0.0
142
1.0
143
1.0
 70
  1712
 72
     0
 73
     0
 74
     0
  7

 75
     0
147
1.0
148
0.0
149
0.0
100
AcDbLayout
  1
Model
 70
     1
 71
     0
 10
0.0
 20
0.0
 11
12.0
 21
9.0
 12
0.0
 22
0.0
 32
0.0
 14
239.2465232774134
 24
354.3112492585733
 34
0.0
 15
329.8456306858146
 25
370.1991906479817
 35
0.0
146
0.0
 13
0.0
 23
0.0
 33
0.0
 16
1.0
 26
0.0
 36
0.0
 17
0.0
 27
1.0
 37
0.0
 76
     0
330
14
331
25
  0
MATERIAL
  5
4C
102
{ACAD_REACTORS
330
7
102
}
102
{ACAD_XDICTIONARY
360
16B
102
}
330
7
100
AcDbMaterial
  1
ByBlock
  0
MATERIAL
  5
E
102
{ACAD_REACTORS
330
7
102
}
102
{ACAD_XDICTIONARY
360
167
102
}
330
7
100
AcDbMaterial
  1
ByLayer
  0
MATERIAL
  5
6
102
{ACAD_REACTORS
330
7
102
}
102
{ACAD_XDICTIONARY
360
169
102
}
330
7
100
AcDbMaterial
  1
Global
  0
MLEADERSTYLE
  5
147
102
{ACAD_REACTORS
330
144
102
}
102
{ACAD_XDICTIONARY
360
19E
102
}
330
144
100
AcDbMLeaderStyle
170
     2
171
     1
172
     0
 90
        2
 40
0.0
 41
0.0
173
     1
 91
-1056964608
340
A
 92
       -2
290
     1
 42
0.09
291
     1
 43
0.36
  3
Standard
341
0
 44
0.18
300

342
C
174
     1
178
     6
175
     1
176
     0
 93
-1056964608
 45
0.18
292
     0
297
     0
 46
0.18
343
0
 94
-1056964608
 47
1.0
 49
1.0
140
1.0
293
     1
141
0.0
294
     1
177
     0
142
1.0
295
     0
296
     0
143
0.125
1001
ACAD_MLEADERVER
1070
     2
  0
MLINESTYLE
  5
11
102
{ACAD_REACTORS
330
12
102
}
330
12
100
AcDbMlineStyle
  2
Standard
 70
     0
  3

 62
   256
 51
90.0
 52
90.0
 71
     2
 49
0.5
 62
   256
  6
BYLAYER
 49
-0.5
 62
   256
  6
BYLAYER
  0
ACDBPLACEHOLDER
  5
3
102
{ACAD_REACTORS
330
4
102
}
330
4
  0
SCALE
  5
4B
102
{ACAD_REACTORS
330
29
102
}
330
29
100
AcDbScale
 70
     0
300
1:1
140
1.0
141
1.0
290
     1
  0
TABLESTYLE
  5
15F
102
{ACAD_REACTORS
330
143
102
}
330
143
100
AcDbTableStyle
  3
Standard
 70
     0
 71
     0
 40
0.06
 41
0.06
280
     0
281
     0
  7
Standard
140
0.18
170
     2
 62
     0
 63
   257
283
     0
274
    -2
284
     1
 64
     0
275
    -2
285
     1
 65
     0
276
    -2
286
     1
 66
     0
277
    -2
287
     1
 67
     0
278
    -2
288
     1
 68
     0
279
    -2
289
     1
 69
     0
  7
Standard
140
0.25
170
     5
 62
     0
 63
   257
283
     0
274
    -2
284
     1
 64
     0
275
    -2
285
     1
 65
     0
276
    -2
286
     1
 66
     0
277
    -2
287
     1
 67
     0
278
    -2
288
     1
 68
     0
279
    -2
289
     1
 69
     0
  7
Standard
140
0.18
170
     5
 62
     0
 63
   257
283
     0
274
    -2
284
     1
 64
     0
275
    -2
285
     1
 65
     0
276
    -2
286
     1
 66
     0
277
    -2
287
     1
 67
     0
278
    -2
288
     1
 68
     0
279
    -2
289
     1
 69
     0
  0
VISUALSTYLE
  5
26
102
{ACAD_REACTORS
330
23
102
}
102
{ACAD_XDICTIONARY
360
16D
102
}
330
23
100
AcDbVisualStyle
  2
2dWireframe
 70
     4
 71
     0
 72
     2
 73
     0
 90
        0
 40
-0.6
 41
-30.0
 62
     5
 63
     7
 74
     1
 91
        4
 64
     7
 65
   257
 75
     1
175
     1
 42
1.0
 92
        0
 66
   257
 43
1.0
 76
     1
 77
     6
 78
     2
 67
     7
 79
     5
170
     0
171
     0
290
     0
174
     0
 93
        1
 44
0.0
173
     0
291
     0
 45
0.0
1001
ACAD
1000
AcDbSavedByObjectVersion
1070
     0
  0
VISUALSTYLE
  5
14E
102
{ACAD_REACTORS
330
23
102
}
102
{ACAD_XDICTIONARY
360
17B
102
}
330
23
100
AcDbVisualStyle
  2
Basic
 70
     7
 71
     1
 72
     0
 73
     1
 90
        0
 40
0.6
 41
30.0
 62
     5
 63
     7
 74
     0
 91
        4
 64
     7
 65
   257
 75
     1
175
     1
 42
1.0
 92
        8
 66
     7
 43
1.0
 76
     1
 77
     6
 78
     2
 67
     7
 79
     5
170
     0
171
     0
290
     0
174
     0
 93
        1
 44
0.0
173
     0
291
     1
 45
0.0
1001
ACAD
1000
AcDbSavedByObjectVersion
1070
     0
  0
VISUALSTYLE
  5
152
102
{ACAD_REACTORS
330
23
102
}
102
{ACAD_XDICTIONARY
360
183
102
}
330
23
100
AcDbVisualStyle
  2
Brighten
 70
    12
 71
     2
 72
     2
 73
     0
 90
        0
 40
0.6
 41
30.0
 62
     5
 63
     7
 74
     1
 91
        4
 64
     7
 65
   257
 75
     1
175
     1
 42
1.0
 92
        8
 66
     7
 43
1.0
 76
     1
 77
     6
 78
     2
 67
     7
 79
     5
170
     0
171
     0
290
     0
174
     0
 93
        1
 44
50.0
173
     0
291
     1
 45
0.0
1001
ACAD
1000
AcDbSavedByObjectVersion
1070
     0
  0
VISUALSTYLE
  5
156
102
{ACAD_REACTORS
330
23
102
}
102
{ACAD_XDICTIONARY
360
18B
102
}
330
23
100
AcDbVisualStyle
  2
ColorChange
 70
    16
 71
     2
 72
     2
 73
     3
 90
        0
 40
0.6
 41
30.0
 62
     5
 63
     8
 74
     1
 91
        4
 64
     7
 65
   257
 75
     1
175
     1
 42
1.0
 92
        8
 66
     8
 43
1.0
 76
     1
 77
     6
 78
     2
 67
     7
 79
     5
170
     0
171
     0
290
     0
174
     0
 93
        1
 44
0.0
173
     0
291
     1
 45
0.0
1001
ACAD
1000
AcDbSavedByObjectVersion
1070
     0
  0
VISUALSTYLE
  5
150
102
{ACAD_REACTORS
330
23
102
}
102
{ACAD_XDICTIONARY
360
17F
102
}
330
23
100
AcDbVisualStyle
  2
Conceptual
 70
     9
 71
     3
 72
     2
 73
     0
 90
        0
 40
0.6
 41
30.0
 62
     5
 63
     7
 74
     2
 91
        2
 64
     7
 65
   257
 75
     1
175
     1
 42
179.0
 92
        8
 66
     7
 43
1.0
 76
     1
 77
     6
 78
     2
 67
     7
 79
     3
170
     0
171
     0
290
     0
174
     0
 93
        1
 44
0.0
173
     0
291
     0
 45
0.0
1001
ACAD
1000
AcDbSavedByObjectVersion
1070
     0
  0
VISUALSTYLE
  5
151
102
{ACAD_REACTORS
330
23
102
}
102
{ACAD_XDICTIONARY
360
181
102
}
330
23
100
AcDbVisualStyle
  2
Dim
 70
    11
 71
     2
 72
     2
 73
     0
 90
        0
 40
0.6
 41
30.0
 62
     5
 63
     7
 74
     1
 91
        4
 64
     7
 65
   257
 75
     1
175
     1
 42
1.0
 92
        8
 66
     7
 43
1.0
 76
     1
 77
     6
 78
     2
 67
     7
 79
     5
170
     0
171
     0
290
     0
174
     0
 93
        1
 44
-50.0
173
     0
291
     1
 45
0.0
1001
ACAD
1000
AcDbSavedByObjectVersion
1070
     0
  0
VISUALSTYLE
  5
159
102
{ACAD_REACTORS
330
23
102
}
102
{ACAD_XDICTIONARY
360
191
102
}
330
23
100
AcDbVisualStyle
  2
EdgeColorOff
 70
    22
 71
     2
 72
     2
 73
     0
 90
        0
 40
0.6
 41
30.0
 62
     5
 63
     7
 74
     1
 91
        4
 64
     7
 65
   257
 75
     1
175
     1
 42
1.0
 92
        8
 66
     7
 43
1.0
 76
     1
 77
     6
 78
     2
 67
     7
 79
     5
170
     0
171
     0
290
     0
174
     0
 93
        1
 44
0.0
173
     0
291
     1
 45
0.0
1001
ACAD
1000
AcDbSavedByObjectVersion
1070
     0
  0
VISUALSTYLE
  5
155
102
{ACAD_REACTORS
330
23
102
}
102
{ACAD_XDICTIONARY
360
189
102
}
330
23
100
AcDbVisualStyle
  2
Facepattern
 70
    15
 71
     2
 72
     2
 73
     0
 90
        0
 40
0.6
 41
30.0
 62
     5
 63
     7
 74
     1
 91
        4
 64
     7
 65
   257
 75
     1
175
     1
 42
1.0
 92
        8
 66
     7
 43
1.0
 76
     1
 77
     6
 78
     2
 67
     7
 79
     5
170
     0
171
     0
290
     0
174
     0
 93
        1
 44
0.0
173
     0
291
     1
 45
0.0
1001
ACAD
1000
AcDbSavedByObjectVersion
1070
     0
  0
VISUALSTYLE
  5
148
102
{ACAD_REACTORS
330
23
102
}
102
{ACAD_XDICTIONARY
360
16F
102
}
330
23
100
AcDbVisualStyle
  2
Flat
 70
     0
 71
     2
 72
     1
 73
     1
 90
        2
 40
0.6
 41
30.0
 62
     5
 63
     7
 74
     0
 91
        0
 64
     7
 65
   257
 75
     1
175
     1
 42
1.0
 92
        8
 66
     7
 43
1.0
 76
     1
 77
     6
 78
     2
 67
     7
 79
     5
170
     0
171
     0
290
     0
174
     0
 93
       13
 44
0.0
173
     0
291
     1
 45
0.0
1001
ACAD
1000
AcDbSavedByObjectVersion
1070
     0
  0
VISUALSTYLE
  5
149
102
{ACAD_REACTORS
330
23
102
}
102
{ACAD_XDICTIONARY
360
171
102
}
330
23
100
AcDbVisualStyle
  2
FlatWithEdges
 70
     1
 71
     2
 72
     1
 73
     1
 90
        2
 40
0.6
 41
30.0
 62
     5
 63
     7
 74
     1
 91
        0
 64
     7
 65
   257
 75
     1
175
     1
 42
1.0
 92
        0
 66
   257
 43
1.0
 76
     1
 77
     6
 78
     2
 67
     7
 79
     5
170
     0
171
     0
290
     0
174
     0
 93
       13
 44
0.0
173
     0
291
     1
 45
0.0
1001
ACAD
1000
AcDbSavedByObjectVersion
1070
     0
  0
VISUALSTYLE
  5
14A
102
{ACAD_REACTORS
330
23
102
}
102
{ACAD_XDICTIONARY
360
173
102
}
330
23
100
AcDbVisualStyle
  2
Gouraud
 70
     2
 71
     2
 72
     2
 73
     1
 90
        2
 40
0.6
 41
30.0
 62
     5
 63
     7
 74
     0
 91
        0
 64
     7
 65
   257
 75
     1
175
     1
 42
1.0
 92
        0
 66
     7
 43
1.0
 76
     1
 77
     6
 78
     2
 67
     7
 79
     5
170
     0
171
     0
290
     0
174
     0
 93
       13
 44
0.0
173
     0
291
     1
 45
0.0
1001
ACAD
1000
AcDbSavedByObjectVersion
1070
     0
  0
VISUALSTYLE
  5
14B
102
{ACAD_REACTORS
330
23
102
}
102
{ACAD_XDICTIONARY
360
175
102
}
330
23
100
AcDbVisualStyle
  2
GouraudWithEdges
 70
     3
 71
     2
 72
     2
 73
     1
 90
        2
 40
0.6
 41
30.0
 62
     5
 63
     7
 74
     1
 91
        0
 64
     7
 65
   257
 75
     1
175
     1
 42
1.0
 92
        0
 66
   257
 43
1.0
 76
     1
 77
     6
 78
     2
 67
     7
 79
     5
170
     0
171
     0
290
     0
174
     0
 93
       13
 44
0.0
173
     0
291
     1
 45
0.0
1001
ACAD
1000
AcDbSavedByObjectVersion
1070
     0
  0
VISUALSTYLE
  5
14D
102
{ACAD_REACTORS
330
23
102
}
102
{ACAD_XDICTIONARY
360
179
102
}
330
23
100
AcDbVisualStyle
  2
Hidden
 70
     6
 71
     1
 72
     2
 73
     2
 90
        0
 40
0.6
 41
30.0
 62
     5
 63
     7
 74
     2
 91
        2
 64
     7
 65
   257
 75
     2
175
     1
 42
40.0
 92
        0
 66
   257
 43
1.0
 76
     1
 77
     6
 78
     2
 67
     7
 79
     3
170
     0
171
     0
290
     0
174
     0
 93
        1
 44
0.0
173
     0
291
     0
 45
0.0
1001
ACAD
1000
AcDbSavedByObjectVersion
1070
     0
  0
VISUALSTYLE
  5
157
102
{ACAD_REACTORS
330
23
102
}
102
{ACAD_XDICTIONARY
360
18D
102
}
330
23
100
AcDbVisualStyle
  2
JitterOff
 70
    20
 71
     2
 72
     2
 73
     0
 90
        0
 40
0.6
 41
30.0
 62
     5
 63
     7
 74
     1
 91
        4
 64
     7
 65
   257
 75
     1
175
     1
 42
1.0
 92
       10
 66
     7
 43
1.0
 76
     1
 77
     6
 78
     2
 67
     7
 79
     5
170
     0
171
     0
290
     0
174
     0
 93
        1
 44
0.0
173
     0
291
     1
 45
0.0
1001
ACAD
1000
AcDbSavedByObjectVersion
1070
     0
  0
VISUALSTYLE
  5
154
102
{ACAD_REACTORS
330
23
102
}
102
{ACAD_XDICTIONARY
360
187
102
}
330
23
100
AcDbVisualStyle
  2
Linepattern
 70
    14
 71
     2
 72
     2
 73
     0
 90
        0
 40
0.6
 41
30.0
 62
     5
 63
     7
 74
     1
 91
        4
 64
     7
 65
   257
 75
     7
175
     7
 42
1.0
 92
        8
 66
     7
 43
1.0
 76
     1
 77
     6
 78
     2
 67
     7
 79
     5
170
     0
171
     0
290
     0
174
     0
 93
        1
 44
0.0
173
     0
291
     1
 45
0.0
1001
ACAD
1000
AcDbSavedByObjectVersion
1070
     0
  0
VISUALSTYLE
  5
158
102
{ACAD_REACTORS
330
23
102
}
102
{ACAD_XDICTIONARY
360
18F
102
}
330
23
100
AcDbVisualStyle
  2
OverhangOff
 70
    21
 71
     2
 72
     2
 73
     0
 90
        0
 40
0.6
 41
30.0
 62
     5
 63
     7
 74
     1
 91
        4
 64
     7
 65
   257
 75
     1
175
     1
 42
1.0
 92
        9
 66
     7
 43
1.0
 76
     1
 77
     6
 78
     2
 67
     7
 79
     5
170
     0
171
     0
290
     0
174
     0
 93
        1
 44
0.0
173
     0
291
     1
 45
0.0
1001
ACAD
1000
AcDbSavedByObjectVersion
1070
     0
  0
VISUALSTYLE
  5
14F
102
{ACAD_REACTORS
330
23
102
}
102
{ACAD_XDICTIONARY
360
17D
102
}
330
23
100
AcDbVisualStyle
  2
Realistic
 70
     8
 71
     2
 72
     3
 73
     0
 90
        2
 40
0.6
 41
30.0
 62
     5
 63
     7
 74
     0
 91
        0
 64
     7
 65
   257
 75
     1
175
     1
 42
1.0
 92
        8
 66
   257
 43
1.0
 76
     1
 77
     6
 78
     2
 67
     7
 79
     3
170
     0
171
     0
290
     0
174
     0
 93
       13
 44
0.0
173
     0
291
     0
 45
0.0
1001
ACAD
1000
AcDbSavedByObjectVersion
1070
     0
  0
VISUALSTYLE
  5
15E
102
{ACAD_REACTORS
330
23
102
}
102
{ACAD_XDICTIONARY
360
19B
102
}
330
23
100
AcDbVisualStyle
  2
Shaded
 70
    27
 71
     2
 72
     2
 73
     1
 90
        2
 40
0.6
 41
30.0
 62
     5
 63
     7
 74
     0
 91
        4
 64
     7
 65
   257
 75
     1
175
     1
 42
1.0
 92
        8
 66
   257
 43
1.0
 76
     1
 77
     6
 78
     2
 67
     8
 79
     3
170
     0
171
     0
290
     0
174
     0
 93
        5
 44
0.0
173
     0
291
     0
 45
0.0
1001
ACAD
1000
AcDbSavedByObjectVersion
1070
     0
  0
VISUALSTYLE
  5
15D
102
{ACAD_REACTORS
330
23
102
}
102
{ACAD_XDICTIONARY
360
199
102
}
330
23
100
AcDbVisualStyle
  2
Shaded with edges
 70
    26
 71
     2
 72
     2
 73
     1
 90
        2
 40
0.6
 41
30.0
 62
     5
 63
     7
 74
     1
 91
       10
 64
     7
 65
   257
 75
     2
175
     1
 42
1.0
 92
        8
 66
   257
 43
1.0
 76
     1
 77
     6
 78
     2
 67
     7
 79
     3
170
     0
171
     0
290
     0
174
     0
 93
        5
 44
0.0
173
     0
291
     0
 45
0.0
1001
ACAD
1000
AcDbSavedByObjectVersion
1070
     0
  0
VISUALSTYLE
  5
15A
102
{ACAD_REACTORS
330
23
102
}
102
{ACAD_XDICTIONARY
360
193
102
}
330
23
100
AcDbVisualStyle
  2
Shades of Gray
 70
    23
 71
     2
 72
     2
 73
     3
 90
        0
 40
0.6
 41
30.0
 62
     5
 63
     7
 74
     2
 91
        2
 64
     7
 65
     7
 75
     1
175
     1
 42
40.0
 92
        8
 66
     7
 43
1.0
 76
     1
 77
     6
 78
     2
 67
     7
 79
     3
170
     0
171
     0
290
     0
174
     0
 93
        1
 44
0.0
173
     0
291
     0
 45
0.0
1001
ACAD
1000
AcDbSavedByObjectVersion
1070
     0
  0
VISUALSTYLE
  5
15B
102
{ACAD_REACTORS
330
23
102
}
102
{ACAD_XDICTIONARY
360
195
102
}
330
23
100
AcDbVisualStyle
  2
Sketchy
 70
    24
 71
     1
 72
     2
 73
     2
 90
        0
 40
0.6
 41
30.0
 62
     5
 63
     7
 74
     2
 91
        2
 64
     7
 65
     7
 75
     1
175
     1
 42
40.0
 92
       11
 66
     7
 43
1.0
 76
     1
 77
     6
 78
     2
 67
     7
 79
     6
170
     0
171
     0
290
     0
174
     0
 93
        1
 44
0.0
173
     0
291
     0
 45
0.0
1001
ACAD
1000
AcDbSavedByObjectVersion
1070
     0
  0
VISUALSTYLE
  5
153
102
{ACAD_REACTORS
330
23
102
}
102
{ACAD_XDICTIONARY
360
185
102
}
330
23
100
AcDbVisualStyle
  2
Thicken
 70
    13
 71
     2
 72
     2
 73
     0
 90
        0
 40
0.6
 41
30.0
 62
     5
 63
     7
 74
     1
 91
        4
 64
     7
 65
   257
 75
     1
175
     1
 42
1.0
 92
       12
 66
     7
 43
1.0
 76
     1
 77
     6
 78
     2
 67
     7
 79
     5
170
     0
171
     0
290
     0
174
     0
 93
        1
 44
0.0
173
     0
291
     1
 45
0.0
1001
ACAD
1000
AcDbSavedByObjectVersion
1070
     0
  0
VISUALSTYLE
  5
14C
102
{ACAD_REACTORS
330
23
102
}
102
{ACAD_XDICTIONARY
360
177
102
}
330
23
100
AcDbVisualStyle
  2
Wireframe
 70
     5
 71
     0
 72
     2
 73
     0
 90
        0
 40
0.6
 41
30.0
 62
     5
 63
     7
 74
     1
 91
        4
 64
     7
 65
   257
 75
     1
175
     1
 42
1.0
 92
        0
 66
   257
 43
1.0
 76
     1
 77
     6
 78
     2
 67
     7
 79
     3
170
     0
171
     0
290
     0
174
     0
 93
        1
 44
0.0
173
     0
291
     0
 45
0.0
1001
ACAD
1000
AcDbSavedByObjectVersion
1070
     0
  0
VISUALSTYLE
  5
15C
102
{ACAD_REACTORS
330
23
102
}
102
{ACAD_XDICTIONARY
360
197
102
}
330
23
100
AcDbVisualStyle
  2
X-Ray
 70
    25
 71
     2
 72
     2
 73
     1
 90
        1
 40
0.5
 41
30.0
 62
     5
 63
     7
 74
     1
 91
        0
 64
     7
 65
   257
 75
     1
175
     1
 42
1.0
 92
        8
 66
     7
 43
1.0
 76
     1
 77
     6
 78
     2
 67
     7
 79
     3
170
     0
171
     0
290
     0
174
     0
 93
       13
 44
0.0
173
     0
291
     0
 45
0.0
1001
ACAD
1000
AcDbSavedByObjectVersion
1070
     0
  0
DICTIONARYVAR
  5
142
102
{ACAD_REACTORS
330
141
102
}
330
141
100
DictionaryVariables
280
     0
  1
1:1
  0
DICTIONARYVAR
  5
161
102
{ACAD_REACTORS
330
141
102
}
330
141
100
DictionaryVariables
280
     0
  1
Standard
  0
DICTIONARYVAR
  5
160
102
{ACAD_REACTORS
330
141
102
}
330
141
100
DictionaryVariables
280
     0
  1
Standard
  0
DICTIONARYVAR
  5
162
102
{ACAD_REACTORS
330
141
102
}
330
141
100
DictionaryVariables
280
     0
  1
2
  0
DICTIONARYVAR
  5
163
102
{ACAD_REACTORS
330
141
102
}
330
141
100
DictionaryVariables
280
     0
  1
1
  0
DICTIONARYVAR
  5
166
102
{ACAD_REACTORS
330
141
102
}
330
141
100
DictionaryVariables
280
     0
  1
1
  0
DICTIONARY
  5
16B
330
4C
100
AcDbDictionary
280
     1
281
     1
  3
ACAD_XREC_ROUNDTRIP
360
16C
  0
DICTIONARY
  5
167
330
E
100
AcDbDictionary
280
     1
281
     1
  3
ACAD_XREC_ROUNDTRIP
360
168
  0
DICTIONARY
  5
169
330
6
100
AcDbDictionary
280
     1
281
     1
  3
ACAD_XREC_ROUNDTRIP
360
16A
  0
DICTIONARY
  5
19E
330
147
100
AcDbDictionary
280
     1
281
     1
  3
ACAD_XREC_ROUNDTRIP
360
19F
  0
DICTIONARY
  5
16D
330
26
100
AcDbDictionary
280
     1
281
     1
  3
ACAD_XREC_ROUNDTRIP
360
16E
  0
DICTIONARY
  5
17B
330
14E
100
AcDbDictionary
280
     1
281
     1
  3
ACAD_XREC_ROUNDTRIP
360
17C
  0
DICTIONARY
  5
183
330
152
100
AcDbDictionary
280
     1
281
     1
  3
ACAD_XREC_ROUNDTRIP
360
184
  0
DICTIONARY
  5
18B
330
156
100
AcDbDictionary
280
     1
281
     1
  3
ACAD_XREC_ROUNDTRIP
360
18C
  0
DICTIONARY
  5
17F
330
150
100
AcDbDictionary
280
     1
281
     1
  3
ACAD_XREC_ROUNDTRIP
360
180
  0
DICTIONARY
  5
181
330
151
100
AcDbDictionary
280
     1
281
     1
  3
ACAD_XREC_ROUNDTRIP
360
182
  0
DICTIONARY
  5
191
330
159
100
AcDbDictionary
280
     1
281
     1
  3
ACAD_XREC_ROUNDTRIP
360
192
  0
DICTIONARY
  5
189
330
155
100
AcDbDictionary
280
     1
281
     1
  3
ACAD_XREC_ROUNDTRIP
360
18A
  0
DICTIONARY
  5
16F
330
148
100
AcDbDictionary
280
     1
281
     1
  3
ACAD_XREC_ROUNDTRIP
360
170
  0
DICTIONARY
  5
171
330
149
100
AcDbDictionary
280
     1
281
     1
  3
ACAD_XREC_ROUNDTRIP
360
172
  0
DICTIONARY
  5
173
330
14A
100
AcDbDictionary
280
     1
281
     1
  3
ACAD_XREC_ROUNDTRIP
360
174
  0
DICTIONARY
  5
175
330
14B
100
AcDbDictionary
280
     1
281
     1
  3
ACAD_XREC_ROUNDTRIP
360
176
  0
DICTIONARY
  5
179
330
14D
100
AcDbDictionary
280
     1
281
     1
  3
ACAD_XREC_ROUNDTRIP
360
17A
  0
DICTIONARY
  5
18D
330
157
100
AcDbDictionary
280
     1
281
     1
  3
ACAD_XREC_ROUNDTRIP
360
18E
  0
DICTIONARY
  5
187
330
154
100
AcDbDictionary
280
     1
281
     1
  3
ACAD_XREC_ROUNDTRIP
360
188
  0
DICTIONARY
  5
18F
330
158
100
AcDbDictionary
280
     1
281
     1
  3
ACAD_XREC_ROUNDTRIP
360
190
  0
DICTIONARY
  5
17D
330
14F
100
AcDbDictionary
280
     1
281
     1
  3
ACAD_XREC_ROUNDTRIP
360
17E
  0
DICTIONARY
  5
19B
330
15E
100
AcDbDictionary
280
     1
281
     1
  3
ACAD_XREC_ROUNDTRIP
360
19C
  0
DICTIONARY
  5
199
330
15D
100
AcDbDictionary
280
     1
281
     1
  3
ACAD_XREC_ROUNDTRIP
360
19A
  0
DICTIONARY
  5
193
330
15A
100
AcDbDictionary
280
     1
281
     1
  3
ACAD_XREC_ROUNDTRIP
360
194
  0
DICTIONARY
  5
195
330
15B
100
AcDbDictionary
280
     1
281
     1
  3
ACAD_XREC_ROUNDTRIP
360
196
  0
DICTIONARY
  5
185
330
153
100
AcDbDictionary
280
     1
281
     1
  3
ACAD_XREC_ROUNDTRIP
360
186
  0
DICTIONARY
  5
177
330
14C
100
AcDbDictionary
280
     1
281
     1
  3
ACAD_XREC_ROUNDTRIP
360
178
  0
DICTIONARY
  5
197
330
15C
100
AcDbDictionary
280
     1
281
     1
  3
ACAD_XREC_ROUNDTRIP
360
198
  0
XRECORD
  5
16C
102
{ACAD_REACTORS
330
16B
102
}
330
16B
100
AcDbXrecord
280
     1
102
MATERIAL
148
0.0
149
0.0
149
0.0
 93
        0
 94
      127
282
     0
 72
     1
 77
     1
171
     1
175
     1
179
     1
273
     0
  0
XRECORD
  5
168
102
{ACAD_REACTORS
330
167
102
}
330
167
100
AcDbXrecord
280
     1
102
MATERIAL
148
0.0
149
0.0
149
0.0
 93
        0
 94
      127
282
     0
 72
     1
 77
     1
171
     1
175
     1
179
     1
273
     0
  0
XRECORD
  5
16A
102
{ACAD_REACTORS
330
169
102
}
330
169
100
AcDbXrecord
280
     1
102
MATERIAL
148
0.0
149
0.0
149
0.0
 93
        0
 94
      127
282
     0
 72
     1
 77
     1
171
     1
175
     1
179
     1
273
     0
  0
XRECORD
  5
19F
102
{ACAD_REACTORS
330
19E
102
}
330
19E
100
AcDbXrecord
280
     1
102
ACAD_ROUNDTRIP_2010_MLEADER_STYLE
  0
XRECORD
  5
16E
102
{ACAD_REACTORS
330
16D
102
}
330
16D
100
AcDbXrecord
280
     1
102
RTVSPropertyOp0
 70
     1
102
RTVSPropertyOp1
 70
     1
102
RTVSPropertyOp2
 70
     1
102
RTVSPropertyOp3
 70
     1
102
RTVSPropertyOp4
 70
     1
102
RTVSPropertyOp5
 70
     1
102
RTVSPropertyOp6
 70
     1
102
RTVSPropertyOp7
 70
     1
102
RTVSPropertyOp8
 70
     1
102
RTVSPropertyOp9
 70
     1
102
RTVSPropertyOp10
 70
     1
102
RTVSPropertyOp11
 70
     1
102
RTVSPropertyOp12
 70
     1
102
RTVSPropertyOp13
 70
     1
102
RTVSPropertyOp14
 70
     1
102
RTVSPropertyOp15
 70
     1
102
RTVSPropertyOp16
 70
     1
102
RTVSPropertyOp17
 70
     1
102
RTVSPropertyOp18
 70
     1
102
RTVSPropertyOp19
 70
     1
102
RTVSPropertyOp20
 70
     1
102
RTVSPropertyOp21
 70
     1
102
RTVSPropertyOp22
 70
     1
102
RTVSPropertyOp23
 70
     1
102
RTVSPropertyOp24
 70
     1
102
RTVSPropertyOp25
 70
     1
102
RTVSPropertyOp26
 70
     1
102
RTVSPropertyOp27
 70
     1
102
RTVSPropertyOp28
 70
     1
102
RTVSPropertyOp29
 70
     1
102
RTVSPropertyOp30
 70
     1
102
RTVSPropertyOp31
 70
     1
102
RTVSPropertyOp32
 70
     1
102
RTVSPropertyOp33
 70
     1
102
RTVSPropertyOp34
 70
     1
102
RTVSPropertyOp35
 70
     1
102
RTVSPropertyOp36
 70
     1
102
RTVSPropertyOp37
 70
     1
102
RTVSPropertyOp38
 70
     1
102
RTVSPropertyOp39
 70
     1
102
RTVSPropertyOp40
 70
     1
102
RTVSPropertyOp41
 70
     1
102
RTVSPropertyOp42
 70
     1
102
RTVSPropertyOp43
 70
     1
102
RTVSPropertyOp44
 70
     1
102
RTVSPropertyOp45
 70
     1
102
RTVSPropertyOp46
 70
     1
102
RTVSPropertyOp47
 70
     1
102
RTVSPropertyOp48
 70
     1
102
RTVSPropertyOp49
 70
     1
102
RTVSPropertyOp50
 70
     1
102
RTVSPropertyOp51
 70
     0
102
RTVSPropertyOp52
 70
     0
102
RTVSPropertyOp53
 70
     1
102
RTVSPropertyOp54
 70
     1
102
RTVSPropertyOp55
 70
     1
102
RTVSPropertyOp56
 70
     1
102
RTVSPropertyOp57
 70
     1
102
RTVSPost2010Prop28
280
     1
102
RTVSPost2010PropOp28
 70
     1
102
RTVSPost2010Prop29
280
     1
102
RTVSPost2010PropOp29
 70
     1
102
RTVSPost2010Prop30
280
     0
102
RTVSPost2010PropOp30
 70
     1
102
RTVSPost2010Prop31
280
     0
102
RTVSPost2010PropOp31
 70
     1
102
RTVSPost2010Prop32
280
     0
102
RTVSPost2010PropOp32
 70
     1
102
RTVSPost2010Prop33
280
     0
102
RTVSPost2010PropOp33
 70
     1
102
RTVSPost2010Prop34
280
     0
102
RTVSPost2010PropOp34
 70
     1
102
RTVSPost2010Prop35
280
     0
102
RTVSPost2010PropOp35
 70
     1
102
RTVSPost2010Prop36
280
     0
102
RTVSPost2010PropOp36
 70
     1
102
RTVSPost2010Prop37
 90
       50
102
RTVSPost2010PropOp37
 70
     1
102
RTVSPost2010Prop38
140
0.0
102
RTVSPost2010PropOp38
 70
     1
102
RTVSPost2010Prop39
140
1.0
102
RTVSPost2010PropOp39
 70
     1
102
RTVSPost2010Prop40
 90
        0
102
RTVSPost2010PropOp40
 70
     1
102
RTVSPost2010Prop41ColorIndex
 90
       18
102
RTVSPost2010Prop41ColorRGB
 90
        0
102
RTVSPost2010PropOp41
 70
     1
102
RTVSPost2010Prop42
 90
       50
102
RTVSPost2010PropOp42
 70
     1
102
RTVSPost2010Prop43
 90
        3
102
RTVSPost2010PropOp43
 70
     1
102
RTVSPost2010Prop44ColorIndex
 90
        5
102
RTVSPost2010Prop44ColorRGB
 90
      255
102
RTVSPost2010PropOp44
 70
     1
102
RTVSPost2010Prop45
280
     0
102
RTVSPost2010PropOp45
 70
     1
102
RTVSPost2010Prop46
 90
       50
102
RTVSPost2010PropOp46
 70
     1
102
RTVSPost2010Prop47
 90
       50
102
RTVSPost2010PropOp47
 70
     1
102
RTVSPost2010Prop48
 90
       50
102
RTVSPost2010PropOp48
 70
     1
102
RTVSPost2010Prop49
280
     0
102
RTVSPost2010PropOp49
 70
     1
102
RTVSPost2010Prop50
 90
       50
102
RTVSPost2010PropOp50
 70
     1
102
RTVSPost2010Prop51ColorIndex
 90
      256
102
RTVSPost2010Prop51ColorRGB
 90
-16777216
102
RTVSPost2010PropOp51
 70
     0
102
RTVSPost2010Prop52
140
1.0
102
RTVSPost2010PropOp52
 70
     0
102
RTVSPost2010Prop53
 90
        2
102
RTVSPost2010PropOp53
 70
     1
102
RTVSPost2010Prop54
  1
strokes_ogs.tif
102
RTVSPost2010PropOp54
 70
     1
102
RTVSPost2010Prop55
280
     0
102
RTVSPost2010PropOp55
 70
     1
102
RTVSPost2010Prop56
140
1.0
102
RTVSPost2010PropOp56
 70
     1
102
RTVSPost2010Prop57
140
1.0
102
RTVSPost2010PropOp57
 70
     1
  0
XRECORD
  5
17C
102
{ACAD_REACTORS
330
17B
102
}
330
17B
100
AcDbXrecord
280
     1
102
RTVSPropertyOp0
 70
     1
102
RTVSPropertyOp1
 70
     1
102
RTVSPropertyOp2
 70
     1
102
RTVSPropertyOp3
 70
     1
102
RTVSPropertyOp4
 70
     1
102
RTVSPropertyOp5
 70
     1
102
RTVSPropertyOp6
 70
     1
102
RTVSPropertyOp7
 70
     1
102
RTVSPropertyOp8
 70
     1
102
RTVSPropertyOp9
 70
     1
102
RTVSPropertyOp10
 70
     1
102
RTVSPropertyOp11
 70
     1
102
RTVSPropertyOp12
 70
     1
102
RTVSPropertyOp13
 70
     1
102
RTVSPropertyOp14
 70
     1
102
RTVSPropertyOp15
 70
     1
102
RTVSPropertyOp16
 70
     1
102
RTVSPropertyOp17
 70
     1
102
RTVSPropertyOp18
 70
     1
102
RTVSPropertyOp19
 70
     1
102
RTVSPropertyOp20
 70
     1
102
RTVSPropertyOp21
 70
     1
102
RTVSPropertyOp22
 70
     1
102
RTVSPropertyOp23
 70
     1
102
RTVSPropertyOp24
 70
     1
102
RTVSPropertyOp25
 70
     1
102
RTVSPropertyOp26
 70
     1
102
RTVSPropertyOp27
 70
     1
102
RTVSPropertyOp28
 70
     1
102
RTVSPropertyOp29
 70
     1
102
RTVSPropertyOp30
 70
     1
102
RTVSPropertyOp31
 70
     1
102
RTVSPropertyOp32
 70
     1
102
RTVSPropertyOp33
 70
     1
102
RTVSPropertyOp34
 70
     1
102
RTVSPropertyOp35
 70
     1
102
RTVSPropertyOp36
 70
     1
102
RTVSPropertyOp37
 70
     1
102
RTVSPropertyOp38
 70
     1
102
RTVSPropertyOp39
 70
     1
102
RTVSPropertyOp40
 70
     1
102
RTVSPropertyOp41
 70
     1
102
RTVSPropertyOp42
 70
     1
102
RTVSPropertyOp43
 70
     1
102
RTVSPropertyOp44
 70
     1
102
RTVSPropertyOp45
 70
     1
102
RTVSPropertyOp46
 70
     1
102
RTVSPropertyOp47
 70
     1
102
RTVSPropertyOp48
 70
     1
102
RTVSPropertyOp49
 70
     1
102
RTVSPropertyOp50
 70
     1
102
RTVSPropertyOp51
 70
     0
102
RTVSPropertyOp52
 70
     0
102
RTVSPropertyOp53
 70
     1
102
RTVSPropertyOp54
 70
     1
102
RTVSPropertyOp55
 70
     1
102
RTVSPropertyOp56
 70
     1
102
RTVSPropertyOp57
 70
     1
102
RTVSPost2010Prop28
280
     0
102
RTVSPost2010PropOp28
 70
     1
102
RTVSPost2010Prop29
280
     1
102
RTVSPost2010PropOp29
 70
     1
102
RTVSPost2010Prop30
280
     1
102
RTVSPost2010PropOp30
 70
     1
102
RTVSPost2010Prop31
280
     0
102
RTVSPost2010PropOp31
 70
     1
102
RTVSPost2010Prop32
280
     0
102
RTVSPost2010PropOp32
 70
     1
102
RTVSPost2010Prop33
280
     0
102
RTVSPost2010PropOp33
 70
     1
102
RTVSPost2010Prop34
280
     0
102
RTVSPost2010PropOp34
 70
     1
102
RTVSPost2010Prop35
280
     0
102
RTVSPost2010PropOp35
 70
     1
102
RTVSPost2010Prop36
280
     0
102
RTVSPost2010PropOp36
 70
     1
102
RTVSPost2010Prop37
 90
       50
102
RTVSPost2010PropOp37
 70
     1
102
RTVSPost2010Prop38
140
0.0
102
RTVSPost2010PropOp38
 70
     1
102
RTVSPost2010Prop39
140
1.0
102
RTVSPost2010PropOp39
 70
     1
102
RTVSPost2010Prop40
 90
        0
102
RTVSPost2010PropOp40
 70
     1
102
RTVSPost2010Prop41ColorIndex
 90
       18
102
RTVSPost2010Prop41ColorRGB
 90
        0
102
RTVSPost2010PropOp41
 70
     1
102
RTVSPost2010Prop42
 90
       50
102
RTVSPost2010PropOp42
 70
     1
102
RTVSPost2010Prop43
 90
        3
102
RTVSPost2010PropOp43
 70
     1
102
RTVSPost2010Prop44ColorIndex
 90
        5
102
RTVSPost2010Prop44ColorRGB
 90
      255
102
RTVSPost2010PropOp44
 70
     1
102
RTVSPost2010Prop45
280
     0
102
RTVSPost2010PropOp45
 70
     1
102
RTVSPost2010Prop46
 90
       50
102
RTVSPost2010PropOp46
 70
     1
102
RTVSPost2010Prop47
 90
       50
102
RTVSPost2010PropOp47
 70
     1
102
RTVSPost2010Prop48
 90
       50
102
RTVSPost2010PropOp48
 70
     1
102
RTVSPost2010Prop49
280
     0
102
RTVSPost2010PropOp49
 70
     1
102
RTVSPost2010Prop50
 90
       50
102
RTVSPost2010PropOp50
 70
     1
102
RTVSPost2010Prop51ColorIndex
 90
      256
102
RTVSPost2010Prop51ColorRGB
 90
-16777216
102
RTVSPost2010PropOp51
 70
     0
102
RTVSPost2010Prop52
140
1.0
102
RTVSPost2010PropOp52
 70
     0
102
RTVSPost2010Prop53
 90
        2
102
RTVSPost2010PropOp53
 70
     1
102
RTVSPost2010Prop54
  1
strokes_ogs.tif
102
RTVSPost2010PropOp54
 70
     1
102
RTVSPost2010Prop55
280
     0
102
RTVSPost2010PropOp55
 70
     1
102
RTVSPost2010Prop56
140
1.0
102
RTVSPost2010PropOp56
 70
     1
102
RTVSPost2010Prop57
140
1.0
102
RTVSPost2010PropOp57
 70
     1
  0
XRECORD
  5
184
102
{ACAD_REACTORS
330
183
102
}
330
183
100
AcDbXrecord
280
     1
102
RTVSPropertyOp0
 70
     1
102
RTVSPropertyOp1
 70
     1
102
RTVSPropertyOp2
 70
     1
102
RTVSPropertyOp3
 70
     1
102
RTVSPropertyOp4
 70
     1
102
RTVSPropertyOp5
 70
     1
102
RTVSPropertyOp6
 70
     1
102
RTVSPropertyOp7
 70
     1
102
RTVSPropertyOp8
 70
     1
102
RTVSPropertyOp9
 70
     1
102
RTVSPropertyOp10
 70
     1
102
RTVSPropertyOp11
 70
     1
102
RTVSPropertyOp12
 70
     1
102
RTVSPropertyOp13
 70
     1
102
RTVSPropertyOp14
 70
     1
102
RTVSPropertyOp15
 70
     1
102
RTVSPropertyOp16
 70
     1
102
RTVSPropertyOp17
 70
     1
102
RTVSPropertyOp18
 70
     1
102
RTVSPropertyOp19
 70
     1
102
RTVSPropertyOp20
 70
     1
102
RTVSPropertyOp21
 70
     1
102
RTVSPropertyOp22
 70
     1
102
RTVSPropertyOp23
 70
     1
102
RTVSPropertyOp24
 70
     1
102
RTVSPropertyOp25
 70
     1
102
RTVSPropertyOp26
 70
     1
102
RTVSPropertyOp27
 70
     1
102
RTVSPropertyOp28
 70
     1
102
RTVSPropertyOp29
 70
     1
102
RTVSPropertyOp30
 70
     1
102
RTVSPropertyOp31
 70
     1
102
RTVSPropertyOp32
 70
     1
102
RTVSPropertyOp33
 70
     1
102
RTVSPropertyOp34
 70
     1
102
RTVSPropertyOp35
 70
     1
102
RTVSPropertyOp36
 70
     1
102
RTVSPropertyOp37
 70
     1
102
RTVSPropertyOp38
 70
     1
102
RTVSPropertyOp39
 70
     1
102
RTVSPropertyOp40
 70
     1
102
RTVSPropertyOp41
 70
     1
102
RTVSPropertyOp42
 70
     1
102
RTVSPropertyOp43
 70
     1
102
RTVSPropertyOp44
 70
     1
102
RTVSPropertyOp45
 70
     1
102
RTVSPropertyOp46
 70
     1
102
RTVSPropertyOp47
 70
     1
102
RTVSPropertyOp48
 70
     1
102
RTVSPropertyOp49
 70
     1
102
RTVSPropertyOp50
 70
     1
102
RTVSPropertyOp51
 70
     0
102
RTVSPropertyOp52
 70
     0
102
RTVSPropertyOp53
 70
     1
102
RTVSPropertyOp54
 70
     1
102
RTVSPropertyOp55
 70
     1
102
RTVSPropertyOp56
 70
     1
102
RTVSPropertyOp57
 70
     1
102
RTVSPost2010Prop28
280
     0
102
RTVSPost2010PropOp28
 70
     1
102
RTVSPost2010Prop29
280
     1
102
RTVSPost2010PropOp29
 70
     1
102
RTVSPost2010Prop30
280
     1
102
RTVSPost2010PropOp30
 70
     1
102
RTVSPost2010Prop31
280
     0
102
RTVSPost2010PropOp31
 70
     1
102
RTVSPost2010Prop32
280
     0
102
RTVSPost2010PropOp32
 70
     1
102
RTVSPost2010Prop33
280
     0
102
RTVSPost2010PropOp33
 70
     1
102
RTVSPost2010Prop34
280
     0
102
RTVSPost2010PropOp34
 70
     1
102
RTVSPost2010Prop35
280
     0
102
RTVSPost2010PropOp35
 70
     1
102
RTVSPost2010Prop36
280
     0
102
RTVSPost2010PropOp36
 70
     1
102
RTVSPost2010Prop37
 90
       50
102
RTVSPost2010PropOp37
 70
     1
102
RTVSPost2010Prop38
140
0.0
102
RTVSPost2010PropOp38
 70
     1
102
RTVSPost2010Prop39
140
1.0
102
RTVSPost2010PropOp39
 70
     1
102
RTVSPost2010Prop40
 90
        0
102
RTVSPost2010PropOp40
 70
     1
102
RTVSPost2010Prop41ColorIndex
 90
       18
102
RTVSPost2010Prop41ColorRGB
 90
        0
102
RTVSPost2010PropOp41
 70
     1
102
RTVSPost2010Prop42
 90
       50
102
RTVSPost2010PropOp42
 70
     1
102
RTVSPost2010Prop43
 90
        3
102
RTVSPost2010PropOp43
 70
     1
102
RTVSPost2010Prop44ColorIndex
 90
        5
102
RTVSPost2010Prop44ColorRGB
 90
      255
102
RTVSPost2010PropOp44
 70
     1
102
RTVSPost2010Prop45
280
     0
102
RTVSPost2010PropOp45
 70
     1
102
RTVSPost2010Prop46
 90
       50
102
RTVSPost2010PropOp46
 70
     1
102
RTVSPost2010Prop47
 90
       50
102
RTVSPost2010PropOp47
 70
     1
102
RTVSPost2010Prop48
 90
       50
102
RTVSPost2010PropOp48
 70
     1
102
RTVSPost2010Prop49
280
     0
102
RTVSPost2010PropOp49
 70
     1
102
RTVSPost2010Prop50
 90
       50
102
RTVSPost2010PropOp50
 70
     1
102
RTVSPost2010Prop51ColorIndex
 90
      256
102
RTVSPost2010Prop51ColorRGB
 90
-16777216
102
RTVSPost2010PropOp51
 70
     0
102
RTVSPost2010Prop52
140
1.0
102
RTVSPost2010PropOp52
 70
     0
102
RTVSPost2010Prop53
 90
        2
102
RTVSPost2010PropOp53
 70
     1
102
RTVSPost2010Prop54
  1
strokes_ogs.tif
102
RTVSPost2010PropOp54
 70
     1
102
RTVSPost2010Prop55
280
     0
102
RTVSPost2010PropOp55
 70
     1
102
RTVSPost2010Prop56
140
1.0
102
RTVSPost2010PropOp56
 70
     1
102
RTVSPost2010Prop57
140
1.0
102
RTVSPost2010PropOp57
 70
     1
  0
XRECORD
  5
18C
102
{ACAD_REACTORS
330
18B
102
}
330
18B
100
AcDbXrecord
280
     1
102
RTVSPropertyOp0
 70
     1
102
RTVSPropertyOp1
 70
     1
102
RTVSPropertyOp2
 70
     1
102
RTVSPropertyOp3
 70
     1
102
RTVSPropertyOp4
 70
     1
102
RTVSPropertyOp5
 70
     1
102
RTVSPropertyOp6
 70
     1
102
RTVSPropertyOp7
 70
     1
102
RTVSPropertyOp8
 70
     1
102
RTVSPropertyOp9
 70
     1
102
RTVSPropertyOp10
 70
     1
102
RTVSPropertyOp11
 70
     1
102
RTVSPropertyOp12
 70
     1
102
RTVSPropertyOp13
 70
     1
102
RTVSPropertyOp14
 70
     1
102
RTVSPropertyOp15
 70
     1
102
RTVSPropertyOp16
 70
     1
102
RTVSPropertyOp17
 70
     1
102
RTVSPropertyOp18
 70
     1
102
RTVSPropertyOp19
 70
     1
102
RTVSPropertyOp20
 70
     1
102
RTVSPropertyOp21
 70
     1
102
RTVSPropertyOp22
 70
     1
102
RTVSPropertyOp23
 70
     1
102
RTVSPropertyOp24
 70
     1
102
RTVSPropertyOp25
 70
     1
102
RTVSPropertyOp26
 70
     1
102
RTVSPropertyOp27
 70
     1
102
RTVSPropertyOp28
 70
     1
102
RTVSPropertyOp29
 70
     1
102
RTVSPropertyOp30
 70
     1
102
RTVSPropertyOp31
 70
     1
102
RTVSPropertyOp32
 70
     1
102
RTVSPropertyOp33
 70
     1
102
RTVSPropertyOp34
 70
     1
102
RTVSPropertyOp35
 70
     1
102
RTVSPropertyOp36
 70
     1
102
RTVSPropertyOp37
 70
     1
102
RTVSPropertyOp38
 70
     1
102
RTVSPropertyOp39
 70
     1
102
RTVSPropertyOp40
 70
     1
102
RTVSPropertyOp41
 70
     1
102
RTVSPropertyOp42
 70
     1
102
RTVSPropertyOp43
 70
     1
102
RTVSPropertyOp44
 70
     1
102
RTVSPropertyOp45
 70
     1
102
RTVSPropertyOp46
 70
     1
102
RTVSPropertyOp47
 70
     1
102
RTVSPropertyOp48
 70
     1
102
RTVSPropertyOp49
 70
     1
102
RTVSPropertyOp50
 70
     1
102
RTVSPropertyOp51
 70
     0
102
RTVSPropertyOp52
 70
     0
102
RTVSPropertyOp53
 70
     1
102
RTVSPropertyOp54
 70
     1
102
RTVSPropertyOp55
 70
     1
102
RTVSPropertyOp56
 70
     1
102
RTVSPropertyOp57
 70
     1
102
RTVSPost2010Prop28
280
     0
102
RTVSPost2010PropOp28
 70
     1
102
RTVSPost2010Prop29
280
     1
102
RTVSPost2010PropOp29
 70
     1
102
RTVSPost2010Prop30
280
     1
102
RTVSPost2010PropOp30
 70
     1
102
RTVSPost2010Prop31
280
     0
102
RTVSPost2010PropOp31
 70
     1
102
RTVSPost2010Prop32
280
     0
102
RTVSPost2010PropOp32
 70
     1
102
RTVSPost2010Prop33
280
     0
102
RTVSPost2010PropOp33
 70
     1
102
RTVSPost2010Prop34
280
     0
102
RTVSPost2010PropOp34
 70
     1
102
RTVSPost2010Prop35
280
     0
102
RTVSPost2010PropOp35
 70
     1
102
RTVSPost2010Prop36
280
     0
102
RTVSPost2010PropOp36
 70
     1
102
RTVSPost2010Prop37
 90
       50
102
RTVSPost2010PropOp37
 70
     1
102
RTVSPost2010Prop38
140
0.0
102
RTVSPost2010PropOp38
 70
     1
102
RTVSPost2010Prop39
140
1.0
102
RTVSPost2010PropOp39
 70
     1
102
RTVSPost2010Prop40
 90
        0
102
RTVSPost2010PropOp40
 70
     1
102
RTVSPost2010Prop41ColorIndex
 90
       18
102
RTVSPost2010Prop41ColorRGB
 90
        0
102
RTVSPost2010PropOp41
 70
     1
102
RTVSPost2010Prop42
 90
       50
102
RTVSPost2010PropOp42
 70
     1
102
RTVSPost2010Prop43
 90
        3
102
RTVSPost2010PropOp43
 70
     1
102
RTVSPost2010Prop44ColorIndex
 90
        5
102
RTVSPost2010Prop44ColorRGB
 90
      255
102
RTVSPost2010PropOp44
 70
     1
102
RTVSPost2010Prop45
280
     0
102
RTVSPost2010PropOp45
 70
     1
102
RTVSPost2010Prop46
 90
       50
102
RTVSPost2010PropOp46
 70
     1
102
RTVSPost2010Prop47
 90
       50
102
RTVSPost2010PropOp47
 70
     1
102
RTVSPost2010Prop48
 90
       50
102
RTVSPost2010PropOp48
 70
     1
102
RTVSPost2010Prop49
280
     0
102
RTVSPost2010PropOp49
 70
     1
102
RTVSPost2010Prop50
 90
       50
102
RTVSPost2010PropOp50
 70
     1
102
RTVSPost2010Prop51ColorIndex
 90
      256
102
RTVSPost2010Prop51ColorRGB
 90
-16777216
102
RTVSPost2010PropOp51
 70
     0
102
RTVSPost2010Prop52
140
1.0
102
RTVSPost2010PropOp52
 70
     0
102
RTVSPost2010Prop53
 90
        2
102
RTVSPost2010PropOp53
 70
     1
102
RTVSPost2010Prop54
  1
strokes_ogs.tif
102
RTVSPost2010PropOp54
 70
     1
102
RTVSPost2010Prop55
280
     0
102
RTVSPost2010PropOp55
 70
     1
102
RTVSPost2010Prop56
140
1.0
102
RTVSPost2010PropOp56
 70
     1
102
RTVSPost2010Prop57
140
1.0
102
RTVSPost2010PropOp57
 70
     1
  0
XRECORD
  5
180
102
{ACAD_REACTORS
330
17F
102
}
330
17F
100
AcDbXrecord
280
     1
102
RTVSPropertyOp0
 70
     1
102
RTVSPropertyOp1
 70
     1
102
RTVSPropertyOp2
 70
     1
102
RTVSPropertyOp3
 70
     1
102
RTVSPropertyOp4
 70
     1
102
RTVSPropertyOp5
 70
     1
102
RTVSPropertyOp6
 70
     1
102
RTVSPropertyOp7
 70
     1
102
RTVSPropertyOp8
 70
     1
102
RTVSPropertyOp9
 70
     1
102
RTVSPropertyOp10
 70
     1
102
RTVSPropertyOp11
 70
     1
102
RTVSPropertyOp12
 70
     1
102
RTVSPropertyOp13
 70
     1
102
RTVSPropertyOp14
 70
     1
102
RTVSPropertyOp15
 70
     1
102
RTVSPropertyOp16
 70
     1
102
RTVSPropertyOp17
 70
     1
102
RTVSPropertyOp18
 70
     1
102
RTVSPropertyOp19
 70
     1
102
RTVSPropertyOp20
 70
     1
102
RTVSPropertyOp21
 70
     1
102
RTVSPropertyOp22
 70
     1
102
RTVSPropertyOp23
 70
     1
102
RTVSPropertyOp24
 70
     1
102
RTVSPropertyOp25
 70
     1
102
RTVSPropertyOp26
 70
     1
102
RTVSPropertyOp27
 70
     1
102
RTVSPropertyOp28
 70
     1
102
RTVSPropertyOp29
 70
     1
102
RTVSPropertyOp30
 70
     1
102
RTVSPropertyOp31
 70
     1
102
RTVSPropertyOp32
 70
     1
102
RTVSPropertyOp33
 70
     1
102
RTVSPropertyOp34
 70
     1
102
RTVSPropertyOp35
 70
     1
102
RTVSPropertyOp36
 70
     1
102
RTVSPropertyOp37
 70
     1
102
RTVSPropertyOp38
 70
     1
102
RTVSPropertyOp39
 70
     1
102
RTVSPropertyOp40
 70
     1
102
RTVSPropertyOp41
 70
     1
102
RTVSPropertyOp42
 70
     1
102
RTVSPropertyOp43
 70
     1
102
RTVSPropertyOp44
 70
     1
102
RTVSPropertyOp45
 70
     1
102
RTVSPropertyOp46
 70
     1
102
RTVSPropertyOp47
 70
     1
102
RTVSPropertyOp48
 70
     1
102
RTVSPropertyOp49
 70
     1
102
RTVSPropertyOp50
 70
     1
102
RTVSPropertyOp51
 70
     0
102
RTVSPropertyOp52
 70
     0
102
RTVSPropertyOp53
 70
     1
102
RTVSPropertyOp54
 70
     1
102
RTVSPropertyOp55
 70
     1
102
RTVSPropertyOp56
 70
     1
102
RTVSPropertyOp57
 70
     1
102
RTVSPost2010Prop28
280
     0
102
RTVSPost2010PropOp28
 70
     1
102
RTVSPost2010Prop29
280
     1
102
RTVSPost2010PropOp29
 70
     1
102
RTVSPost2010Prop30
280
     1
102
RTVSPost2010PropOp30
 70
     1
102
RTVSPost2010Prop31
280
     0
102
RTVSPost2010PropOp31
 70
     1
102
RTVSPost2010Prop32
280
     0
102
RTVSPost2010PropOp32
 70
     1
102
RTVSPost2010Prop33
280
     0
102
RTVSPost2010PropOp33
 70
     1
102
RTVSPost2010Prop34
280
     0
102
RTVSPost2010PropOp34
 70
     1
102
RTVSPost2010Prop35
280
     0
102
RTVSPost2010PropOp35
 70
     1
102
RTVSPost2010Prop36
280
     0
102
RTVSPost2010PropOp36
 70
     1
102
RTVSPost2010Prop37
 90
       50
102
RTVSPost2010PropOp37
 70
     1
102
RTVSPost2010Prop38
140
0.0
102
RTVSPost2010PropOp38
 70
     1
102
RTVSPost2010Prop39
140
1.0
102
RTVSPost2010PropOp39
 70
     1
102
RTVSPost2010Prop40
 90
        0
102
RTVSPost2010PropOp40
 70
     1
102
RTVSPost2010Prop41ColorIndex
 90
       18
102
RTVSPost2010Prop41ColorRGB
 90
        0
102
RTVSPost2010PropOp41
 70
     1
102
RTVSPost2010Prop42
 90
       50
102
RTVSPost2010PropOp42
 70
     1
102
RTVSPost2010Prop43
 90
        3
102
RTVSPost2010PropOp43
 70
     1
102
RTVSPost2010Prop44ColorIndex
 90
        5
102
RTVSPost2010Prop44ColorRGB
 90
      255
102
RTVSPost2010PropOp44
 70
     1
102
RTVSPost2010Prop45
280
     0
102
RTVSPost2010PropOp45
 70
     1
102
RTVSPost2010Prop46
 90
       50
102
RTVSPost2010PropOp46
 70
     1
102
RTVSPost2010Prop47
 90
       50
102
RTVSPost2010PropOp47
 70
     1
102
RTVSPost2010Prop48
 90
       50
102
RTVSPost2010PropOp48
 70
     1
102
RTVSPost2010Prop49
280
     0
102
RTVSPost2010PropOp49
 70
     1
102
RTVSPost2010Prop50
 90
       50
102
RTVSPost2010PropOp50
 70
     1
102
RTVSPost2010Prop51ColorIndex
 90
      256
102
RTVSPost2010Prop51ColorRGB
 90
-16777216
102
RTVSPost2010PropOp51
 70
     0
102
RTVSPost2010Prop52
140
1.0
102
RTVSPost2010PropOp52
 70
     0
102
RTVSPost2010Prop53
 90
        2
102
RTVSPost2010PropOp53
 70
     1
102
RTVSPost2010Prop54
  1
strokes_ogs.tif
102
RTVSPost2010PropOp54
 70
     1
102
RTVSPost2010Prop55
280
     0
102
RTVSPost2010PropOp55
 70
     1
102
RTVSPost2010Prop56
140
1.0
102
RTVSPost2010PropOp56
 70
     1
102
RTVSPost2010Prop57
140
1.0
102
RTVSPost2010PropOp57
 70
     1
  0
XRECORD
  5
182
102
{ACAD_REACTORS
330
181
102
}
330
181
100
AcDbXrecord
280
     1
102
RTVSPropertyOp0
 70
     1
102
RTVSPropertyOp1
 70
     1
102
RTVSPropertyOp2
 70
     1
102
RTVSPropertyOp3
 70
     1
102
RTVSPropertyOp4
 70
     1
102
RTVSPropertyOp5
 70
     1
102
RTVSPropertyOp6
 70
     1
102
RTVSPropertyOp7
 70
     1
102
RTVSPropertyOp8
 70
     1
102
RTVSPropertyOp9
 70
     1
102
RTVSPropertyOp10
 70
     1
102
RTVSPropertyOp11
 70
     1
102
RTVSPropertyOp12
 70
     1
102
RTVSPropertyOp13
 70
     1
102
RTVSPropertyOp14
 70
     1
102
RTVSPropertyOp15
 70
     1
102
RTVSPropertyOp16
 70
     1
102
RTVSPropertyOp17
 70
     1
102
RTVSPropertyOp18
 70
     1
102
RTVSPropertyOp19
 70
     1
102
RTVSPropertyOp20
 70
     1
102
RTVSPropertyOp21
 70
     1
102
RTVSPropertyOp22
 70
     1
102
RTVSPropertyOp23
 70
     1
102
RTVSPropertyOp24
 70
     1
102
RTVSPropertyOp25
 70
     1
102
RTVSPropertyOp26
 70
     1
102
RTVSPropertyOp27
 70
     1
102
RTVSPropertyOp28
 70
     1
102
RTVSPropertyOp29
 70
     1
102
RTVSPropertyOp30
 70
     1
102
RTVSPropertyOp31
 70
     1
102
RTVSPropertyOp32
 70
     1
102
RTVSPropertyOp33
 70
     1
102
RTVSPropertyOp34
 70
     1
102
RTVSPropertyOp35
 70
     1
102
RTVSPropertyOp36
 70
     1
102
RTVSPropertyOp37
 70
     1
102
RTVSPropertyOp38
 70
     1
102
RTVSPropertyOp39
 70
     1
102
RTVSPropertyOp40
 70
     1
102
RTVSPropertyOp41
 70
     1
102
RTVSPropertyOp42
 70
     1
102
RTVSPropertyOp43
 70
     1
102
RTVSPropertyOp44
 70
     1
102
RTVSPropertyOp45
 70
     1
102
RTVSPropertyOp46
 70
     1
102
RTVSPropertyOp47
 70
     1
102
RTVSPropertyOp48
 70
     1
102
RTVSPropertyOp49
 70
     1
102
RTVSPropertyOp50
 70
     1
102
RTVSPropertyOp51
 70
     0
102
RTVSPropertyOp52
 70
     0
102
RTVSPropertyOp53
 70
     1
102
RTVSPropertyOp54
 70
     1
102
RTVSPropertyOp55
 70
     1
102
RTVSPropertyOp56
 70
     1
102
RTVSPropertyOp57
 70
     1
102
RTVSPost2010Prop28
280
     0
102
RTVSPost2010PropOp28
 70
     1
102
RTVSPost2010Prop29
280
     1
102
RTVSPost2010PropOp29
 70
     1
102
RTVSPost2010Prop30
280
     1
102
RTVSPost2010PropOp30
 70
     1
102
RTVSPost2010Prop31
280
     0
102
RTVSPost2010PropOp31
 70
     1
102
RTVSPost2010Prop32
280
     0
102
RTVSPost2010PropOp32
 70
     1
102
RTVSPost2010Prop33
280
     0
102
RTVSPost2010PropOp33
 70
     1
102
RTVSPost2010Prop34
280
     0
102
RTVSPost2010PropOp34
 70
     1
102
RTVSPost2010Prop35
280
     0
102
RTVSPost2010PropOp35
 70
     1
102
RTVSPost2010Prop36
280
     0
102
RTVSPost2010PropOp36
 70
     1
102
RTVSPost2010Prop37
 90
       50
102
RTVSPost2010PropOp37
 70
     1
102
RTVSPost2010Prop38
140
0.0
102
RTVSPost2010PropOp38
 70
     1
102
RTVSPost2010Prop39
140
1.0
102
RTVSPost2010PropOp39
 70
     1
102
RTVSPost2010Prop40
 90
        0
102
RTVSPost2010PropOp40
 70
     1
102
RTVSPost2010Prop41ColorIndex
 90
       18
102
RTVSPost2010Prop41ColorRGB
 90
        0
102
RTVSPost2010PropOp41
 70
     1
102
RTVSPost2010Prop42
 90
       50
102
RTVSPost2010PropOp42
 70
     1
102
RTVSPost2010Prop43
 90
        3
102
RTVSPost2010PropOp43
 70
     1
102
RTVSPost2010Prop44ColorIndex
 90
        5
102
RTVSPost2010Prop44ColorRGB
 90
      255
102
RTVSPost2010PropOp44
 70
     1
102
RTVSPost2010Prop45
280
     0
102
RTVSPost2010PropOp45
 70
     1
102
RTVSPost2010Prop46
 90
       50
102
RTVSPost2010PropOp46
 70
     1
102
RTVSPost2010Prop47
 90
       50
102
RTVSPost2010PropOp47
 70
     1
102
RTVSPost2010Prop48
 90
       50
102
RTVSPost2010PropOp48
 70
     1
102
RTVSPost2010Prop49
280
     0
102
RTVSPost2010PropOp49
 70
     1
102
RTVSPost2010Prop50
 90
       50
102
RTVSPost2010PropOp50
 70
     1
102
RTVSPost2010Prop51ColorIndex
 90
      256
102
RTVSPost2010Prop51ColorRGB
 90
-16777216
102
RTVSPost2010PropOp51
 70
     0
102
RTVSPost2010Prop52
140
1.0
102
RTVSPost2010PropOp52
 70
     0
102
RTVSPost2010Prop53
 90
        2
102
RTVSPost2010PropOp53
 70
     1
102
RTVSPost2010Prop54
  1
strokes_ogs.tif
102
RTVSPost2010PropOp54
 70
     1
102
RTVSPost2010Prop55
280
     0
102
RTVSPost2010PropOp55
 70
     1
102
RTVSPost2010Prop56
140
1.0
102
RTVSPost2010PropOp56
 70
     1
102
RTVSPost2010Prop57
140
1.0
102
RTVSPost2010PropOp57
 70
     1
  0
XRECORD
  5
192
102
{ACAD_REACTORS
330
191
102
}
330
191
100
AcDbXrecord
280
     1
102
RTVSPropertyOp0
 70
     0
102
RTVSPropertyOp1
 70
     0
102
RTVSPropertyOp2
 70
     0
102
RTVSPropertyOp3
 70
     0
102
RTVSPropertyOp4
 70
     0
102
RTVSPropertyOp5
 70
     0
102
RTVSPropertyOp6
 70
     0
102
RTVSPropertyOp7
 70
     0
102
RTVSPropertyOp8
 70
     0
102
RTVSPropertyOp9
 70
     0
102
RTVSPropertyOp10
 70
     0
102
RTVSPropertyOp11
 70
     0
102
RTVSPropertyOp12
 70
     0
102
RTVSPropertyOp13
 70
     0
102
RTVSPropertyOp14
 70
     2
102
RTVSPropertyOp15
 70
     0
102
RTVSPropertyOp16
 70
     0
102
RTVSPropertyOp17
 70
     0
102
RTVSPropertyOp18
 70
     0
102
RTVSPropertyOp19
 70
     0
102
RTVSPropertyOp20
 70
     0
102
RTVSPropertyOp21
 70
     0
102
RTVSPropertyOp22
 70
     0
102
RTVSPropertyOp23
 70
     0
102
RTVSPropertyOp24
 70
     0
102
RTVSPropertyOp25
 70
     0
102
RTVSPropertyOp26
 70
     0
102
RTVSPropertyOp27
 70
     0
102
RTVSPropertyOp28
 70
     0
102
RTVSPropertyOp29
 70
     0
102
RTVSPropertyOp30
 70
     0
102
RTVSPropertyOp31
 70
     0
102
RTVSPropertyOp32
 70
     0
102
RTVSPropertyOp33
 70
     0
102
RTVSPropertyOp34
 70
     0
102
RTVSPropertyOp35
 70
     0
102
RTVSPropertyOp36
 70
     0
102
RTVSPropertyOp37
 70
     0
102
RTVSPropertyOp38
 70
     0
102
RTVSPropertyOp39
 70
     0
102
RTVSPropertyOp40
 70
     0
102
RTVSPropertyOp41
 70
     0
102
RTVSPropertyOp42
 70
     0
102
RTVSPropertyOp43
 70
     0
102
RTVSPropertyOp44
 70
     0
102
RTVSPropertyOp45
 70
     0
102
RTVSPropertyOp46
 70
     0
102
RTVSPropertyOp47
 70
     0
102
RTVSPropertyOp48
 70
     0
102
RTVSPropertyOp49
 70
     0
102
RTVSPropertyOp50
 70
     0
102
RTVSPropertyOp51
 70
     0
102
RTVSPropertyOp52
 70
     0
102
RTVSPropertyOp53
 70
     0
102
RTVSPropertyOp54
 70
     0
102
RTVSPropertyOp55
 70
     0
102
RTVSPropertyOp56
 70
     0
102
RTVSPropertyOp57
 70
     0
102
RTVSPost2010Prop28
280
     0
102
RTVSPost2010PropOp28
 70
     0
102
RTVSPost2010Prop29
280
     1
102
RTVSPost2010PropOp29
 70
     0
102
RTVSPost2010Prop30
280
     1
102
RTVSPost2010PropOp30
 70
     0
102
RTVSPost2010Prop31
280
     0
102
RTVSPost2010PropOp31
 70
     0
102
RTVSPost2010Prop32
280
     0
102
RTVSPost2010PropOp32
 70
     0
102
RTVSPost2010Prop33
280
     0
102
RTVSPost2010PropOp33
 70
     0
102
RTVSPost2010Prop34
280
     0
102
RTVSPost2010PropOp34
 70
     0
102
RTVSPost2010Prop35
280
     0
102
RTVSPost2010PropOp35
 70
     0
102
RTVSPost2010Prop36
280
     0
102
RTVSPost2010PropOp36
 70
     0
102
RTVSPost2010Prop37
 90
       50
102
RTVSPost2010PropOp37
 70
     0
102
RTVSPost2010Prop38
140
0.0
102
RTVSPost2010PropOp38
 70
     0
102
RTVSPost2010Prop39
140
1.0
102
RTVSPost2010PropOp39
 70
     0
102
RTVSPost2010Prop40
 90
        0
102
RTVSPost2010PropOp40
 70
     0
102
RTVSPost2010Prop41ColorIndex
 90
       18
102
RTVSPost2010Prop41ColorRGB
 90
        0
102
RTVSPost2010PropOp41
 70
     0
102
RTVSPost2010Prop42
 90
       50
102
RTVSPost2010PropOp42
 70
     0
102
RTVSPost2010Prop43
 90
        3
102
RTVSPost2010PropOp43
 70
     0
102
RTVSPost2010Prop44ColorIndex
 90
        5
102
RTVSPost2010Prop44ColorRGB
 90
      255
102
RTVSPost2010PropOp44
 70
     0
102
RTVSPost2010Prop45
280
     0
102
RTVSPost2010PropOp45
 70
     0
102
RTVSPost2010Prop46
 90
       50
102
RTVSPost2010PropOp46
 70
     0
102
RTVSPost2010Prop47
 90
       50
102
RTVSPost2010PropOp47
 70
     0
102
RTVSPost2010Prop48
 90
       50
102
RTVSPost2010PropOp48
 70
     0
102
RTVSPost2010Prop49
280
     0
102
RTVSPost2010PropOp49
 70
     0
102
RTVSPost2010Prop50
 90
       50
102
RTVSPost2010PropOp50
 70
     0
102
RTVSPost2010Prop51ColorIndex
 90
      256
102
RTVSPost2010Prop51ColorRGB
 90
-16777216
102
RTVSPost2010PropOp51
 70
     0
102
RTVSPost2010Prop52
140
1.0
102
RTVSPost2010PropOp52
 70
     0
102
RTVSPost2010Prop53
 90
        2
102
RTVSPost2010PropOp53
 70
     0
102
RTVSPost2010Prop54
  1
strokes_ogs.tif
102
RTVSPost2010PropOp54
 70
     0
102
RTVSPost2010Prop55
280
     0
102
RTVSPost2010PropOp55
 70
     0
102
RTVSPost2010Prop56
140
1.0
102
RTVSPost2010PropOp56
 70
     0
102
RTVSPost2010Prop57
140
1.0
102
RTVSPost2010PropOp57
 70
     0
  0
XRECORD
  5
18A
102
{ACAD_REACTORS
330
189
102
}
330
189
100
AcDbXrecord
280
     1
102
RTVSPropertyOp0
 70
     1
102
RTVSPropertyOp1
 70
     1
102
RTVSPropertyOp2
 70
     1
102
RTVSPropertyOp3
 70
     1
102
RTVSPropertyOp4
 70
     1
102
RTVSPropertyOp5
 70
     1
102
RTVSPropertyOp6
 70
     1
102
RTVSPropertyOp7
 70
     1
102
RTVSPropertyOp8
 70
     1
102
RTVSPropertyOp9
 70
     1
102
RTVSPropertyOp10
 70
     1
102
RTVSPropertyOp11
 70
     1
102
RTVSPropertyOp12
 70
     1
102
RTVSPropertyOp13
 70
     1
102
RTVSPropertyOp14
 70
     1
102
RTVSPropertyOp15
 70
     1
102
RTVSPropertyOp16
 70
     1
102
RTVSPropertyOp17
 70
     1
102
RTVSPropertyOp18
 70
     1
102
RTVSPropertyOp19
 70
     1
102
RTVSPropertyOp20
 70
     1
102
RTVSPropertyOp21
 70
     1
102
RTVSPropertyOp22
 70
     1
102
RTVSPropertyOp23
 70
     1
102
RTVSPropertyOp24
 70
     1
102
RTVSPropertyOp25
 70
     1
102
RTVSPropertyOp26
 70
     1
102
RTVSPropertyOp27
 70
     1
102
RTVSPropertyOp28
 70
     1
102
RTVSPropertyOp29
 70
     1
102
RTVSPropertyOp30
 70
     1
102
RTVSPropertyOp31
 70
     1
102
RTVSPropertyOp32
 70
     1
102
RTVSPropertyOp33
 70
     1
102
RTVSPropertyOp34
 70
     1
102
RTVSPropertyOp35
 70
     1
102
RTVSPropertyOp36
 70
     1
102
RTVSPropertyOp37
 70
     1
102
RTVSPropertyOp38
 70
     1
102
RTVSPropertyOp39
 70
     1
102
RTVSPropertyOp40
 70
     1
102
RTVSPropertyOp41
 70
     1
102
RTVSPropertyOp42
 70
     1
102
RTVSPropertyOp43
 70
     1
102
RTVSPropertyOp44
 70
     1
102
RTVSPropertyOp45
 70
     1
102
RTVSPropertyOp46
 70
     1
102
RTVSPropertyOp47
 70
     1
102
RTVSPropertyOp48
 70
     1
102
RTVSPropertyOp49
 70
     1
102
RTVSPropertyOp50
 70
     1
102
RTVSPropertyOp51
 70
     0
102
RTVSPropertyOp52
 70
     0
102
RTVSPropertyOp53
 70
     1
102
RTVSPropertyOp54
 70
     1
102
RTVSPropertyOp55
 70
     1
102
RTVSPropertyOp56
 70
     1
102
RTVSPropertyOp57
 70
     1
102
RTVSPost2010Prop28
280
     0
102
RTVSPost2010PropOp28
 70
     1
102
RTVSPost2010Prop29
280
     1
102
RTVSPost2010PropOp29
 70
     1
102
RTVSPost2010Prop30
280
     1
102
RTVSPost2010PropOp30
 70
     1
102
RTVSPost2010Prop31
280
     0
102
RTVSPost2010PropOp31
 70
     1
102
RTVSPost2010Prop32
280
     0
102
RTVSPost2010PropOp32
 70
     1
102
RTVSPost2010Prop33
280
     0
102
RTVSPost2010PropOp33
 70
     1
102
RTVSPost2010Prop34
280
     0
102
RTVSPost2010PropOp34
 70
     1
102
RTVSPost2010Prop35
280
     0
102
RTVSPost2010PropOp35
 70
     1
102
RTVSPost2010Prop36
280
     0
102
RTVSPost2010PropOp36
 70
     1
102
RTVSPost2010Prop37
 90
       50
102
RTVSPost2010PropOp37
 70
     1
102
RTVSPost2010Prop38
140
0.0
102
RTVSPost2010PropOp38
 70
     1
102
RTVSPost2010Prop39
140
1.0
102
RTVSPost2010PropOp39
 70
     1
102
RTVSPost2010Prop40
 90
        0
102
RTVSPost2010PropOp40
 70
     1
102
RTVSPost2010Prop41ColorIndex
 90
       18
102
RTVSPost2010Prop41ColorRGB
 90
        0
102
RTVSPost2010PropOp41
 70
     1
102
RTVSPost2010Prop42
 90
       50
102
RTVSPost2010PropOp42
 70
     1
102
RTVSPost2010Prop43
 90
        3
102
RTVSPost2010PropOp43
 70
     1
102
RTVSPost2010Prop44ColorIndex
 90
        5
102
RTVSPost2010Prop44ColorRGB
 90
      255
102
RTVSPost2010PropOp44
 70
     1
102
RTVSPost2010Prop45
280
     0
102
RTVSPost2010PropOp45
 70
     1
102
RTVSPost2010Prop46
 90
       50
102
RTVSPost2010PropOp46
 70
     1
102
RTVSPost2010Prop47
 90
       50
102
RTVSPost2010PropOp47
 70
     1
102
RTVSPost2010Prop48
 90
       50
102
RTVSPost2010PropOp48
 70
     1
102
RTVSPost2010Prop49
280
     0
102
RTVSPost2010PropOp49
 70
     1
102
RTVSPost2010Prop50
 90
       50
102
RTVSPost2010PropOp50
 70
     1
102
RTVSPost2010Prop51ColorIndex
 90
      256
102
RTVSPost2010Prop51ColorRGB
 90
-16777216
102
RTVSPost2010PropOp51
 70
     0
102
RTVSPost2010Prop52
140
1.0
102
RTVSPost2010PropOp52
 70
     0
102
RTVSPost2010Prop53
 90
        2
102
RTVSPost2010PropOp53
 70
     1
102
RTVSPost2010Prop54
  1
strokes_ogs.tif
102
RTVSPost2010PropOp54
 70
     1
102
RTVSPost2010Prop55
280
     0
102
RTVSPost2010PropOp55
 70
     1
102
RTVSPost2010Prop56
140
1.0
102
RTVSPost2010PropOp56
 70
     1
102
RTVSPost2010Prop57
140
1.0
102
RTVSPost2010PropOp57
 70
     1
  0
XRECORD
  5
170
102
{ACAD_REACTORS
330
16F
102
}
330
16F
100
AcDbXrecord
280
     1
102
RTVSPropertyOp0
 70
     1
102
RTVSPropertyOp1
 70
     1
102
RTVSPropertyOp2
 70
     1
102
RTVSPropertyOp3
 70
     1
102
RTVSPropertyOp4
 70
     1
102
RTVSPropertyOp5
 70
     1
102
RTVSPropertyOp6
 70
     1
102
RTVSPropertyOp7
 70
     1
102
RTVSPropertyOp8
 70
     1
102
RTVSPropertyOp9
 70
     1
102
RTVSPropertyOp10
 70
     1
102
RTVSPropertyOp11
 70
     1
102
RTVSPropertyOp12
 70
     1
102
RTVSPropertyOp13
 70
     1
102
RTVSPropertyOp14
 70
     1
102
RTVSPropertyOp15
 70
     1
102
RTVSPropertyOp16
 70
     1
102
RTVSPropertyOp17
 70
     1
102
RTVSPropertyOp18
 70
     1
102
RTVSPropertyOp19
 70
     1
102
RTVSPropertyOp20
 70
     1
102
RTVSPropertyOp21
 70
     1
102
RTVSPropertyOp22
 70
     1
102
RTVSPropertyOp23
 70
     1
102
RTVSPropertyOp24
 70
     1
102
RTVSPropertyOp25
 70
     1
102
RTVSPropertyOp26
 70
     1
102
RTVSPropertyOp27
 70
     1
102
RTVSPropertyOp28
 70
     1
102
RTVSPropertyOp29
 70
     1
102
RTVSPropertyOp30
 70
     1
102
RTVSPropertyOp31
 70
     1
102
RTVSPropertyOp32
 70
     1
102
RTVSPropertyOp33
 70
     1
102
RTVSPropertyOp34
 70
     1
102
RTVSPropertyOp35
 70
     1
102
RTVSPropertyOp36
 70
     1
102
RTVSPropertyOp37
 70
     1
102
RTVSPropertyOp38
 70
     1
102
RTVSPropertyOp39
 70
     1
102
RTVSPropertyOp40
 70
     1
102
RTVSPropertyOp41
 70
     1
102
RTVSPropertyOp42
 70
     1
102
RTVSPropertyOp43
 70
     1
102
RTVSPropertyOp44
 70
     1
102
RTVSPropertyOp45
 70
     1
102
RTVSPropertyOp46
 70
     1
102
RTVSPropertyOp47
 70
     1
102
RTVSPropertyOp48
 70
     1
102
RTVSPropertyOp49
 70
     1
102
RTVSPropertyOp50
 70
     1
102
RTVSPropertyOp51
 70
     0
102
RTVSPropertyOp52
 70
     0
102
RTVSPropertyOp53
 70
     1
102
RTVSPropertyOp54
 70
     1
102
RTVSPropertyOp55
 70
     1
102
RTVSPropertyOp56
 70
     1
102
RTVSPropertyOp57
 70
     1
102
RTVSPost2010Prop28
280
     0
102
RTVSPost2010PropOp28
 70
     1
102
RTVSPost2010Prop29
280
     1
102
RTVSPost2010PropOp29
 70
     1
102
RTVSPost2010Prop30
280
     1
102
RTVSPost2010PropOp30
 70
     1
102
RTVSPost2010Prop31
280
     0
102
RTVSPost2010PropOp31
 70
     1
102
RTVSPost2010Prop32
280
     0
102
RTVSPost2010PropOp32
 70
     1
102
RTVSPost2010Prop33
280
     0
102
RTVSPost2010PropOp33
 70
     1
102
RTVSPost2010Prop34
280
     0
102
RTVSPost2010PropOp34
 70
     1
102
RTVSPost2010Prop35
280
     0
102
RTVSPost2010PropOp35
 70
     1
102
RTVSPost2010Prop36
280
     0
102
RTVSPost2010PropOp36
 70
     1
102
RTVSPost2010Prop37
 90
       50
102
RTVSPost2010PropOp37
 70
     1
102
RTVSPost2010Prop38
140
0.0
102
RTVSPost2010PropOp38
 70
     1
102
RTVSPost2010Prop39
140
1.0
102
RTVSPost2010PropOp39
 70
     1
102
RTVSPost2010Prop40
 90
        0
102
RTVSPost2010PropOp40
 70
     1
102
RTVSPost2010Prop41ColorIndex
 90
       18
102
RTVSPost2010Prop41ColorRGB
 90
        0
102
RTVSPost2010PropOp41
 70
     1
102
RTVSPost2010Prop42
 90
       50
102
RTVSPost2010PropOp42
 70
     1
102
RTVSPost2010Prop43
 90
        3
102
RTVSPost2010PropOp43
 70
     1
102
RTVSPost2010Prop44ColorIndex
 90
        5
102
RTVSPost2010Prop44ColorRGB
 90
      255
102
RTVSPost2010PropOp44
 70
     1
102
RTVSPost2010Prop45
280
     0
102
RTVSPost2010PropOp45
 70
     1
102
RTVSPost2010Prop46
 90
       50
102
RTVSPost2010PropOp46
 70
     1
102
RTVSPost2010Prop47
 90
       50
102
RTVSPost2010PropOp47
 70
     1
102
RTVSPost2010Prop48
 90
       50
102
RTVSPost2010PropOp48
 70
     1
102
RTVSPost2010Prop49
280
     0
102
RTVSPost2010PropOp49
 70
     1
102
RTVSPost2010Prop50
 90
       50
102
RTVSPost2010PropOp50
 70
     1
102
RTVSPost2010Prop51ColorIndex
 90
      256
102
RTVSPost2010Prop51ColorRGB
 90
-16777216
102
RTVSPost2010PropOp51
 70
     0
102
RTVSPost2010Prop52
140
1.0
102
RTVSPost2010PropOp52
 70
     0
102
RTVSPost2010Prop53
 90
        2
102
RTVSPost2010PropOp53
 70
     1
102
RTVSPost2010Prop54
  1
strokes_ogs.tif
102
RTVSPost2010PropOp54
 70
     1
102
RTVSPost2010Prop55
280
     0
102
RTVSPost2010PropOp55
 70
     1
102
RTVSPost2010Prop56
140
1.0
102
RTVSPost2010PropOp56
 70
     1
102
RTVSPost2010Prop57
140
1.0
102
RTVSPost2010PropOp57
 70
     1
  0
XRECORD
  5
172
102
{ACAD_REACTORS
330
171
102
}
330
171
100
AcDbXrecord
280
     1
102
RTVSPropertyOp0
 70
     1
102
RTVSPropertyOp1
 70
     1
102
RTVSPropertyOp2
 70
     1
102
RTVSPropertyOp3
 70
     1
102
RTVSPropertyOp4
 70
     1
102
RTVSPropertyOp5
 70
     1
102
RTVSPropertyOp6
 70
     1
102
RTVSPropertyOp7
 70
     1
102
RTVSPropertyOp8
 70
     1
102
RTVSPropertyOp9
 70
     1
102
RTVSPropertyOp10
 70
     1
102
RTVSPropertyOp11
 70
     1
102
RTVSPropertyOp12
 70
     1
102
RTVSPropertyOp13
 70
     1
102
RTVSPropertyOp14
 70
     1
102
RTVSPropertyOp15
 70
     1
102
RTVSPropertyOp16
 70
     1
102
RTVSPropertyOp17
 70
     1
102
RTVSPropertyOp18
 70
     1
102
RTVSPropertyOp19
 70
     1
102
RTVSPropertyOp20
 70
     1
102
RTVSPropertyOp21
 70
     1
102
RTVSPropertyOp22
 70
     1
102
RTVSPropertyOp23
 70
     1
102
RTVSPropertyOp24
 70
     1
102
RTVSPropertyOp25
 70
     1
102
RTVSPropertyOp26
 70
     1
102
RTVSPropertyOp27
 70
     1
102
RTVSPropertyOp28
 70
     1
102
RTVSPropertyOp29
 70
     1
102
RTVSPropertyOp30
 70
     1
102
RTVSPropertyOp31
 70
     1
102
RTVSPropertyOp32
 70
     1
102
RTVSPropertyOp33
 70
     1
102
RTVSPropertyOp34
 70
     1
102
RTVSPropertyOp35
 70
     1
102
RTVSPropertyOp36
 70
     1
102
RTVSPropertyOp37
 70
     1
102
RTVSPropertyOp38
 70
     1
102
RTVSPropertyOp39
 70
     1
102
RTVSPropertyOp40
 70
     1
102
RTVSPropertyOp41
 70
     1
102
RTVSPropertyOp42
 70
     1
102
RTVSPropertyOp43
 70
     1
102
RTVSPropertyOp44
 70
     1
102
RTVSPropertyOp45
 70
     1
102
RTVSPropertyOp46
 70
     1
102
RTVSPropertyOp47
 70
     1
102
RTVSPropertyOp48
 70
     1
102
RTVSPropertyOp49
 70
     1
102
RTVSPropertyOp50
 70
     1
102
RTVSPropertyOp51
 70
     0
102
RTVSPropertyOp52
 70
     0
102
RTVSPropertyOp53
 70
     1
102
RTVSPropertyOp54
 70
     1
102
RTVSPropertyOp55
 70
     1
102
RTVSPropertyOp56
 70
     1
102
RTVSPropertyOp57
 70
     1
102
RTVSPost2010Prop28
280
     0
102
RTVSPost2010PropOp28
 70
     1
102
RTVSPost2010Prop29
280
     1
102
RTVSPost2010PropOp29
 70
     1
102
RTVSPost2010Prop30
280
     1
102
RTVSPost2010PropOp30
 70
     1
102
RTVSPost2010Prop31
280
     0
102
RTVSPost2010PropOp31
 70
     1
102
RTVSPost2010Prop32
280
     0
102
RTVSPost2010PropOp32
 70
     1
102
RTVSPost2010Prop33
280
     0
102
RTVSPost2010PropOp33
 70
     1
102
RTVSPost2010Prop34
280
     0
102
RTVSPost2010PropOp34
 70
     1
102
RTVSPost2010Prop35
280
     0
102
RTVSPost2010PropOp35
 70
     1
102
RTVSPost2010Prop36
280
     0
102
RTVSPost2010PropOp36
 70
     1
102
RTVSPost2010Prop37
 90
       50
102
RTVSPost2010PropOp37
 70
     1
102
RTVSPost2010Prop38
140
0.0
102
RTVSPost2010PropOp38
 70
     1
102
RTVSPost2010Prop39
140
1.0
102
RTVSPost2010PropOp39
 70
     1
102
RTVSPost2010Prop40
 90
        0
102
RTVSPost2010PropOp40
 70
     1
102
RTVSPost2010Prop41ColorIndex
 90
       18
102
RTVSPost2010Prop41ColorRGB
 90
        0
102
RTVSPost2010PropOp41
 70
     1
102
RTVSPost2010Prop42
 90
       50
102
RTVSPost2010PropOp42
 70
     1
102
RTVSPost2010Prop43
 90
        3
102
RTVSPost2010PropOp43
 70
     1
102
RTVSPost2010Prop44ColorIndex
 90
        5
102
RTVSPost2010Prop44ColorRGB
 90
      255
102
RTVSPost2010PropOp44
 70
     1
102
RTVSPost2010Prop45
280
     0
102
RTVSPost2010PropOp45
 70
     1
102
RTVSPost2010Prop46
 90
       50
102
RTVSPost2010PropOp46
 70
     1
102
RTVSPost2010Prop47
 90
       50
102
RTVSPost2010PropOp47
 70
     1
102
RTVSPost2010Prop48
 90
       50
102
RTVSPost2010PropOp48
 70
     1
102
RTVSPost2010Prop49
280
     0
102
RTVSPost2010PropOp49
 70
     1
102
RTVSPost2010Prop50
 90
       50
102
RTVSPost2010PropOp50
 70
     1
102
RTVSPost2010Prop51ColorIndex
 90
      256
102
RTVSPost2010Prop51ColorRGB
 90
-16777216
102
RTVSPost2010PropOp51
 70
     0
102
RTVSPost2010Prop52
140
1.0
102
RTVSPost2010PropOp52
 70
     0
102
RTVSPost2010Prop53
 90
        2
102
RTVSPost2010PropOp53
 70
     1
102
RTVSPost2010Prop54
  1
strokes_ogs.tif
102
RTVSPost2010PropOp54
 70
     1
102
RTVSPost2010Prop55
280
     0
102
RTVSPost2010PropOp55
 70
     1
102
RTVSPost2010Prop56
140
1.0
102
RTVSPost2010PropOp56
 70
     1
102
RTVSPost2010Prop57
140
1.0
102
RTVSPost2010PropOp57
 70
     1
  0
XRECORD
  5
174
102
{ACAD_REACTORS
330
173
102
}
330
173
100
AcDbXrecord
280
     1
102
RTVSPropertyOp0
 70
     1
102
RTVSPropertyOp1
 70
     1
102
RTVSPropertyOp2
 70
     1
102
RTVSPropertyOp3
 70
     1
102
RTVSPropertyOp4
 70
     1
102
RTVSPropertyOp5
 70
     1
102
RTVSPropertyOp6
 70
     1
102
RTVSPropertyOp7
 70
     1
102
RTVSPropertyOp8
 70
     1
102
RTVSPropertyOp9
 70
     1
102
RTVSPropertyOp10
 70
     1
102
RTVSPropertyOp11
 70
     1
102
RTVSPropertyOp12
 70
     1
102
RTVSPropertyOp13
 70
     1
102
RTVSPropertyOp14
 70
     1
102
RTVSPropertyOp15
 70
     1
102
RTVSPropertyOp16
 70
     1
102
RTVSPropertyOp17
 70
     1
102
RTVSPropertyOp18
 70
     1
102
RTVSPropertyOp19
 70
     1
102
RTVSPropertyOp20
 70
     1
102
RTVSPropertyOp21
 70
     1
102
RTVSPropertyOp22
 70
     1
102
RTVSPropertyOp23
 70
     1
102
RTVSPropertyOp24
 70
     1
102
RTVSPropertyOp25
 70
     1
102
RTVSPropertyOp26
 70
     1
102
RTVSPropertyOp27
 70
     1
102
RTVSPropertyOp28
 70
     1
102
RTVSPropertyOp29
 70
     1
102
RTVSPropertyOp30
 70
     1
102
RTVSPropertyOp31
 70
     1
102
RTVSPropertyOp32
 70
     1
102
RTVSPropertyOp33
 70
     1
102
RTVSPropertyOp34
 70
     1
102
RTVSPropertyOp35
 70
     1
102
RTVSPropertyOp36
 70
     1
102
RTVSPropertyOp37
 70
     1
102
RTVSPropertyOp38
 70
     1
102
RTVSPropertyOp39
 70
     1
102
RTVSPropertyOp40
 70
     1
102
RTVSPropertyOp41
 70
     1
102
RTVSPropertyOp42
 70
     1
102
RTVSPropertyOp43
 70
     1
102
RTVSPropertyOp44
 70
     1
102
RTVSPropertyOp45
 70
     1
102
RTVSPropertyOp46
 70
     1
102
RTVSPropertyOp47
 70
     1
102
RTVSPropertyOp48
 70
     1
102
RTVSPropertyOp49
 70
     1
102
RTVSPropertyOp50
 70
     1
102
RTVSPropertyOp51
 70
     0
102
RTVSPropertyOp52
 70
     0
102
RTVSPropertyOp53
 70
     1
102
RTVSPropertyOp54
 70
     1
102
RTVSPropertyOp55
 70
     1
102
RTVSPropertyOp56
 70
     1
102
RTVSPropertyOp57
 70
     1
102
RTVSPost2010Prop28
280
     0
102
RTVSPost2010PropOp28
 70
     1
102
RTVSPost2010Prop29
280
     1
102
RTVSPost2010PropOp29
 70
     1
102
RTVSPost2010Prop30
280
     1
102
RTVSPost2010PropOp30
 70
     1
102
RTVSPost2010Prop31
280
     0
102
RTVSPost2010PropOp31
 70
     1
102
RTVSPost2010Prop32
280
     0
102
RTVSPost2010PropOp32
 70
     1
102
RTVSPost2010Prop33
280
     0
102
RTVSPost2010PropOp33
 70
     1
102
RTVSPost2010Prop34
280
     0
102
RTVSPost2010PropOp34
 70
     1
102
RTVSPost2010Prop35
280
     0
102
RTVSPost2010PropOp35
 70
     1
102
RTVSPost2010Prop36
280
     0
102
RTVSPost2010PropOp36
 70
     1
102
RTVSPost2010Prop37
 90
       50
102
RTVSPost2010PropOp37
 70
     1
102
RTVSPost2010Prop38
140
0.0
102
RTVSPost2010PropOp38
 70
     1
102
RTVSPost2010Prop39
140
1.0
102
RTVSPost2010PropOp39
 70
     1
102
RTVSPost2010Prop40
 90
        0
102
RTVSPost2010PropOp40
 70
     1
102
RTVSPost2010Prop41ColorIndex
 90
       18
102
RTVSPost2010Prop41ColorRGB
 90
        0
102
RTVSPost2010PropOp41
 70
     1
102
RTVSPost2010Prop42
 90
       50
102
RTVSPost2010PropOp42
 70
     1
102
RTVSPost2010Prop43
 90
        3
102
RTVSPost2010PropOp43
 70
     1
102
RTVSPost2010Prop44ColorIndex
 90
        5
102
RTVSPost2010Prop44ColorRGB
 90
      255
102
RTVSPost2010PropOp44
 70
     1
102
RTVSPost2010Prop45
280
     0
102
RTVSPost2010PropOp45
 70
     1
102
RTVSPost2010Prop46
 90
       50
102
RTVSPost2010PropOp46
 70
     1
102
RTVSPost2010Prop47
 90
       50
102
RTVSPost2010PropOp47
 70
     1
102
RTVSPost2010Prop48
 90
       50
102
RTVSPost2010PropOp48
 70
     1
102
RTVSPost2010Prop49
280
     0
102
RTVSPost2010PropOp49
 70
     1
102
RTVSPost2010Prop50
 90
       50
102
RTVSPost2010PropOp50
 70
     1
102
RTVSPost2010Prop51ColorIndex
 90
      256
102
RTVSPost2010Prop51ColorRGB
 90
-16777216
102
RTVSPost2010PropOp51
 70
     0
102
RTVSPost2010Prop52
140
1.0
102
RTVSPost2010PropOp52
 70
     0
102
RTVSPost2010Prop53
 90
        2
102
RTVSPost2010PropOp53
 70
     1
102
RTVSPost2010Prop54
  1
strokes_ogs.tif
102
RTVSPost2010PropOp54
 70
     1
102
RTVSPost2010Prop55
280
     0
102
RTVSPost2010PropOp55
 70
     1
102
RTVSPost2010Prop56
140
1.0
102
RTVSPost2010PropOp56
 70
     1
102
RTVSPost2010Prop57
140
1.0
102
RTVSPost2010PropOp57
 70
     1
  0
XRECORD
  5
176
102
{ACAD_REACTORS
330
175
102
}
330
175
100
AcDbXrecord
280
     1
102
RTVSPropertyOp0
 70
     1
102
RTVSPropertyOp1
 70
     1
102
RTVSPropertyOp2
 70
     1
102
RTVSPropertyOp3
 70
     1
102
RTVSPropertyOp4
 70
     1
102
RTVSPropertyOp5
 70
     1
102
RTVSPropertyOp6
 70
     1
102
RTVSPropertyOp7
 70
     1
102
RTVSPropertyOp8
 70
     1
102
RTVSPropertyOp9
 70
     1
102
RTVSPropertyOp10
 70
     1
102
RTVSPropertyOp11
 70
     1
102
RTVSPropertyOp12
 70
     1
102
RTVSPropertyOp13
 70
     1
102
RTVSPropertyOp14
 70
     1
102
RTVSPropertyOp15
 70
     1
102
RTVSPropertyOp16
 70
     1
102
RTVSPropertyOp17
 70
     1
102
RTVSPropertyOp18
 70
     1
102
RTVSPropertyOp19
 70
     1
102
RTVSPropertyOp20
 70
     1
102
RTVSPropertyOp21
 70
     1
102
RTVSPropertyOp22
 70
     1
102
RTVSPropertyOp23
 70
     1
102
RTVSPropertyOp24
 70
     1
102
RTVSPropertyOp25
 70
     1
102
RTVSPropertyOp26
 70
     1
102
RTVSPropertyOp27
 70
     1
102
RTVSPropertyOp28
 70
     1
102
RTVSPropertyOp29
 70
     1
102
RTVSPropertyOp30
 70
     1
102
RTVSPropertyOp31
 70
     1
102
RTVSPropertyOp32
 70
     1
102
RTVSPropertyOp33
 70
     1
102
RTVSPropertyOp34
 70
     1
102
RTVSPropertyOp35
 70
     1
102
RTVSPropertyOp36
 70
     1
102
RTVSPropertyOp37
 70
     1
102
RTVSPropertyOp38
 70
     1
102
RTVSPropertyOp39
 70
     1
102
RTVSPropertyOp40
 70
     1
102
RTVSPropertyOp41
 70
     1
102
RTVSPropertyOp42
 70
     1
102
RTVSPropertyOp43
 70
     1
102
RTVSPropertyOp44
 70
     1
102
RTVSPropertyOp45
 70
     1
102
RTVSPropertyOp46
 70
     1
102
RTVSPropertyOp47
 70
     1
102
RTVSPropertyOp48
 70
     1
102
RTVSPropertyOp49
 70
     1
102
RTVSPropertyOp50
 70
     1
102
RTVSPropertyOp51
 70
     0
102
RTVSPropertyOp52
 70
     0
102
RTVSPropertyOp53
 70
     1
102
RTVSPropertyOp54
 70
     1
102
RTVSPropertyOp55
 70
     1
102
RTVSPropertyOp56
 70
     1
102
RTVSPropertyOp57
 70
     1
102
RTVSPost2010Prop28
280
     0
102
RTVSPost2010PropOp28
 70
     1
102
RTVSPost2010Prop29
280
     1
102
RTVSPost2010PropOp29
 70
     1
102
RTVSPost2010Prop30
280
     1
102
RTVSPost2010PropOp30
 70
     1
102
RTVSPost2010Prop31
280
     0
102
RTVSPost2010PropOp31
 70
     1
102
RTVSPost2010Prop32
280
     0
102
RTVSPost2010PropOp32
 70
     1
102
RTVSPost2010Prop33
280
     0
102
RTVSPost2010PropOp33
 70
     1
102
RTVSPost2010Prop34
280
     0
102
RTVSPost2010PropOp34
 70
     1
102
RTVSPost2010Prop35
280
     0
102
RTVSPost2010PropOp35
 70
     1
102
RTVSPost2010Prop36
280
     0
102
RTVSPost2010PropOp36
 70
     1
102
RTVSPost2010Prop37
 90
       50
102
RTVSPost2010PropOp37
 70
     1
102
RTVSPost2010Prop38
140
0.0
102
RTVSPost2010PropOp38
 70
     1
102
RTVSPost2010Prop39
140
1.0
102
RTVSPost2010PropOp39
 70
     1
102
RTVSPost2010Prop40
 90
        0
102
RTVSPost2010PropOp40
 70
     1
102
RTVSPost2010Prop41ColorIndex
 90
       18
102
RTVSPost2010Prop41ColorRGB
 90
        0
102
RTVSPost2010PropOp41
 70
     1
102
RTVSPost2010Prop42
 90
       50
102
RTVSPost2010PropOp42
 70
     1
102
RTVSPost2010Prop43
 90
        3
102
RTVSPost2010PropOp43
 70
     1
102
RTVSPost2010Prop44ColorIndex
 90
        5
102
RTVSPost2010Prop44ColorRGB
 90
      255
102
RTVSPost2010PropOp44
 70
     1
102
RTVSPost2010Prop45
280
     0
102
RTVSPost2010PropOp45
 70
     1
102
RTVSPost2010Prop46
 90
       50
102
RTVSPost2010PropOp46
 70
     1
102
RTVSPost2010Prop47
 90
       50
102
RTVSPost2010PropOp47
 70
     1
102
RTVSPost2010Prop48
 90
       50
102
RTVSPost2010PropOp48
 70
     1
102
RTVSPost2010Prop49
280
     0
102
RTVSPost2010PropOp49
 70
     1
102
RTVSPost2010Prop50
 90
       50
102
RTVSPost2010PropOp50
 70
     1
102
RTVSPost2010Prop51ColorIndex
 90
      256
102
RTVSPost2010Prop51ColorRGB
 90
-16777216
102
RTVSPost2010PropOp51
 70
     0
102
RTVSPost2010Prop52
140
1.0
102
RTVSPost2010PropOp52
 70
     0
102
RTVSPost2010Prop53
 90
        2
102
RTVSPost2010PropOp53
 70
     1
102
RTVSPost2010Prop54
  1
strokes_ogs.tif
102
RTVSPost2010PropOp54
 70
     1
102
RTVSPost2010Prop55
280
     0
102
RTVSPost2010PropOp55
 70
     1
102
RTVSPost2010Prop56
140
1.0
102
RTVSPost2010PropOp56
 70
     1
102
RTVSPost2010Prop57
140
1.0
102
RTVSPost2010PropOp57
 70
     1
  0
XRECORD
  5
17A
102
{ACAD_REACTORS
330
179
102
}
330
179
100
AcDbXrecord
280
     1
102
RTVSPropertyOp0
 70
     1
102
RTVSPropertyOp1
 70
     1
102
RTVSPropertyOp2
 70
     1
102
RTVSPropertyOp3
 70
     1
102
RTVSPropertyOp4
 70
     1
102
RTVSPropertyOp5
 70
     1
102
RTVSPropertyOp6
 70
     1
102
RTVSPropertyOp7
 70
     1
102
RTVSPropertyOp8
 70
     1
102
RTVSPropertyOp9
 70
     1
102
RTVSPropertyOp10
 70
     1
102
RTVSPropertyOp11
 70
     1
102
RTVSPropertyOp12
 70
     1
102
RTVSPropertyOp13
 70
     1
102
RTVSPropertyOp14
 70
     1
102
RTVSPropertyOp15
 70
     1
102
RTVSPropertyOp16
 70
     1
102
RTVSPropertyOp17
 70
     1
102
RTVSPropertyOp18
 70
     1
102
RTVSPropertyOp19
 70
     1
102
RTVSPropertyOp20
 70
     1
102
RTVSPropertyOp21
 70
     1
102
RTVSPropertyOp22
 70
     1
102
RTVSPropertyOp23
 70
     1
102
RTVSPropertyOp24
 70
     1
102
RTVSPropertyOp25
 70
     1
102
RTVSPropertyOp26
 70
     1
102
RTVSPropertyOp27
 70
     1
102
RTVSPropertyOp28
 70
     1
102
RTVSPropertyOp29
 70
     1
102
RTVSPropertyOp30
 70
     1
102
RTVSPropertyOp31
 70
     1
102
RTVSPropertyOp32
 70
     1
102
RTVSPropertyOp33
 70
     1
102
RTVSPropertyOp34
 70
     1
102
RTVSPropertyOp35
 70
     1
102
RTVSPropertyOp36
 70
     1
102
RTVSPropertyOp37
 70
     1
102
RTVSPropertyOp38
 70
     1
102
RTVSPropertyOp39
 70
     1
102
RTVSPropertyOp40
 70
     1
102
RTVSPropertyOp41
 70
     1
102
RTVSPropertyOp42
 70
     1
102
RTVSPropertyOp43
 70
     1
102
RTVSPropertyOp44
 70
     1
102
RTVSPropertyOp45
 70
     1
102
RTVSPropertyOp46
 70
     1
102
RTVSPropertyOp47
 70
     1
102
RTVSPropertyOp48
 70
     1
102
RTVSPropertyOp49
 70
     1
102
RTVSPropertyOp50
 70
     1
102
RTVSPropertyOp51
 70
     0
102
RTVSPropertyOp52
 70
     0
102
RTVSPropertyOp53
 70
     1
102
RTVSPropertyOp54
 70
     1
102
RTVSPropertyOp55
 70
     1
102
RTVSPropertyOp56
 70
     1
102
RTVSPropertyOp57
 70
     1
102
RTVSPost2010Prop28
280
     0
102
RTVSPost2010PropOp28
 70
     1
102
RTVSPost2010Prop29
280
     1
102
RTVSPost2010PropOp29
 70
     1
102
RTVSPost2010Prop30
280
     1
102
RTVSPost2010PropOp30
 70
     1
102
RTVSPost2010Prop31
280
     0
102
RTVSPost2010PropOp31
 70
     1
102
RTVSPost2010Prop32
280
     0
102
RTVSPost2010PropOp32
 70
     1
102
RTVSPost2010Prop33
280
     0
102
RTVSPost2010PropOp33
 70
     1
102
RTVSPost2010Prop34
280
     0
102
RTVSPost2010PropOp34
 70
     1
102
RTVSPost2010Prop35
280
     0
102
RTVSPost2010PropOp35
 70
     1
102
RTVSPost2010Prop36
280
     0
102
RTVSPost2010PropOp36
 70
     1
102
RTVSPost2010Prop37
 90
       50
102
RTVSPost2010PropOp37
 70
     1
102
RTVSPost2010Prop38
140
0.0
102
RTVSPost2010PropOp38
 70
     1
102
RTVSPost2010Prop39
140
1.0
102
RTVSPost2010PropOp39
 70
     1
102
RTVSPost2010Prop40
 90
        0
102
RTVSPost2010PropOp40
 70
     1
102
RTVSPost2010Prop41ColorIndex
 90
       18
102
RTVSPost2010Prop41ColorRGB
 90
        0
102
RTVSPost2010PropOp41
 70
     1
102
RTVSPost2010Prop42
 90
       50
102
RTVSPost2010PropOp42
 70
     1
102
RTVSPost2010Prop43
 90
        3
102
RTVSPost2010PropOp43
 70
     1
102
RTVSPost2010Prop44ColorIndex
 90
        5
102
RTVSPost2010Prop44ColorRGB
 90
      255
102
RTVSPost2010PropOp44
 70
     1
102
RTVSPost2010Prop45
280
     0
102
RTVSPost2010PropOp45
 70
     1
102
RTVSPost2010Prop46
 90
       50
102
RTVSPost2010PropOp46
 70
     1
102
RTVSPost2010Prop47
 90
       50
102
RTVSPost2010PropOp47
 70
     1
102
RTVSPost2010Prop48
 90
       50
102
RTVSPost2010PropOp48
 70
     1
102
RTVSPost2010Prop49
280
     0
102
RTVSPost2010PropOp49
 70
     1
102
RTVSPost2010Prop50
 90
       50
102
RTVSPost2010PropOp50
 70
     1
102
RTVSPost2010Prop51ColorIndex
 90
      256
102
RTVSPost2010Prop51ColorRGB
 90
-16777216
102
RTVSPost2010PropOp51
 70
     0
102
RTVSPost2010Prop52
140
1.0
102
RTVSPost2010PropOp52
 70
     0
102
RTVSPost2010Prop53
 90
        2
102
RTVSPost2010PropOp53
 70
     1
102
RTVSPost2010Prop54
  1
strokes_ogs.tif
102
RTVSPost2010PropOp54
 70
     1
102
RTVSPost2010Prop55
280
     0
102
RTVSPost2010PropOp55
 70
     1
102
RTVSPost2010Prop56
140
1.0
102
RTVSPost2010PropOp56
 70
     1
102
RTVSPost2010Prop57
140
1.0
102
RTVSPost2010PropOp57
 70
     1
  0
XRECORD
  5
18E
102
{ACAD_REACTORS
330
18D
102
}
330
18D
100
AcDbXrecord
280
     1
102
RTVSPropertyOp0
 70
     0
102
RTVSPropertyOp1
 70
     0
102
RTVSPropertyOp2
 70
     0
102
RTVSPropertyOp3
 70
     0
102
RTVSPropertyOp4
 70
     0
102
RTVSPropertyOp5
 70
     0
102
RTVSPropertyOp6
 70
     0
102
RTVSPropertyOp7
 70
     0
102
RTVSPropertyOp8
 70
     0
102
RTVSPropertyOp9
 70
     0
102
RTVSPropertyOp10
 70
     0
102
RTVSPropertyOp11
 70
     0
102
RTVSPropertyOp12
 70
     0
102
RTVSPropertyOp13
 70
     0
102
RTVSPropertyOp14
 70
     2
102
RTVSPropertyOp15
 70
     0
102
RTVSPropertyOp16
 70
     0
102
RTVSPropertyOp17
 70
     0
102
RTVSPropertyOp18
 70
     0
102
RTVSPropertyOp19
 70
     0
102
RTVSPropertyOp20
 70
     0
102
RTVSPropertyOp21
 70
     0
102
RTVSPropertyOp22
 70
     0
102
RTVSPropertyOp23
 70
     0
102
RTVSPropertyOp24
 70
     0
102
RTVSPropertyOp25
 70
     0
102
RTVSPropertyOp26
 70
     0
102
RTVSPropertyOp27
 70
     0
102
RTVSPropertyOp28
 70
     0
102
RTVSPropertyOp29
 70
     0
102
RTVSPropertyOp30
 70
     0
102
RTVSPropertyOp31
 70
     0
102
RTVSPropertyOp32
 70
     0
102
RTVSPropertyOp33
 70
     0
102
RTVSPropertyOp34
 70
     0
102
RTVSPropertyOp35
 70
     0
102
RTVSPropertyOp36
 70
     0
102
RTVSPropertyOp37
 70
     0
102
RTVSPropertyOp38
 70
     0
102
RTVSPropertyOp39
 70
     0
102
RTVSPropertyOp40
 70
     0
102
RTVSPropertyOp41
 70
     0
102
RTVSPropertyOp42
 70
     0
102
RTVSPropertyOp43
 70
     0
102
RTVSPropertyOp44
 70
     0
102
RTVSPropertyOp45
 70
     0
102
RTVSPropertyOp46
 70
     0
102
RTVSPropertyOp47
 70
     0
102
RTVSPropertyOp48
 70
     0
102
RTVSPropertyOp49
 70
     0
102
RTVSPropertyOp50
 70
     0
102
RTVSPropertyOp51
 70
     0
102
RTVSPropertyOp52
 70
     0
102
RTVSPropertyOp53
 70
     0
102
RTVSPropertyOp54
 70
     0
102
RTVSPropertyOp55
 70
     0
102
RTVSPropertyOp56
 70
     0
102
RTVSPropertyOp57
 70
     0
102
RTVSPost2010Prop28
280
     0
102
RTVSPost2010PropOp28
 70
     0
102
RTVSPost2010Prop29
280
     1
102
RTVSPost2010PropOp29
 70
     0
102
RTVSPost2010Prop30
280
     1
102
RTVSPost2010PropOp30
 70
     0
102
RTVSPost2010Prop31
280
     0
102
RTVSPost2010PropOp31
 70
     0
102
RTVSPost2010Prop32
280
     0
102
RTVSPost2010PropOp32
 70
     0
102
RTVSPost2010Prop33
280
     0
102
RTVSPost2010PropOp33
 70
     0
102
RTVSPost2010Prop34
280
     0
102
RTVSPost2010PropOp34
 70
     0
102
RTVSPost2010Prop35
280
     0
102
RTVSPost2010PropOp35
 70
     0
102
RTVSPost2010Prop36
280
     0
102
RTVSPost2010PropOp36
 70
     0
102
RTVSPost2010Prop37
 90
       50
102
RTVSPost2010PropOp37
 70
     0
102
RTVSPost2010Prop38
140
0.0
102
RTVSPost2010PropOp38
 70
     0
102
RTVSPost2010Prop39
140
1.0
102
RTVSPost2010PropOp39
 70
     0
102
RTVSPost2010Prop40
 90
        0
102
RTVSPost2010PropOp40
 70
     0
102
RTVSPost2010Prop41ColorIndex
 90
       18
102
RTVSPost2010Prop41ColorRGB
 90
        0
102
RTVSPost2010PropOp41
 70
     0
102
RTVSPost2010Prop42
 90
       50
102
RTVSPost2010PropOp42
 70
     0
102
RTVSPost2010Prop43
 90
        3
102
RTVSPost2010PropOp43
 70
     0
102
RTVSPost2010Prop44ColorIndex
 90
        5
102
RTVSPost2010Prop44ColorRGB
 90
      255
102
RTVSPost2010PropOp44
 70
     0
102
RTVSPost2010Prop45
280
     0
102
RTVSPost2010PropOp45
 70
     0
102
RTVSPost2010Prop46
 90
       50
102
RTVSPost2010PropOp46
 70
     0
102
RTVSPost2010Prop47
 90
       50
102
RTVSPost2010PropOp47
 70
     0
102
RTVSPost2010Prop48
 90
       50
102
RTVSPost2010PropOp48
 70
     0
102
RTVSPost2010Prop49
280
     0
102
RTVSPost2010PropOp49
 70
     0
102
RTVSPost2010Prop50
 90
       50
102
RTVSPost2010PropOp50
 70
     0
102
RTVSPost2010Prop51ColorIndex
 90
      256
102
RTVSPost2010Prop51ColorRGB
 90
-16777216
102
RTVSPost2010PropOp51
 70
     0
102
RTVSPost2010Prop52
140
1.0
102
RTVSPost2010PropOp52
 70
     0
102
RTVSPost2010Prop53
 90
        2
102
RTVSPost2010PropOp53
 70
     0
102
RTVSPost2010Prop54
  1
strokes_ogs.tif
102
RTVSPost2010PropOp54
 70
     0
102
RTVSPost2010Prop55
280
     0
102
RTVSPost2010PropOp55
 70
     0
102
RTVSPost2010Prop56
140
1.0
102
RTVSPost2010PropOp56
 70
     0
102
RTVSPost2010Prop57
140
1.0
102
RTVSPost2010PropOp57
 70
     0
  0
XRECORD
  5
188
102
{ACAD_REACTORS
330
187
102
}
330
187
100
AcDbXrecord
280
     1
102
RTVSPropertyOp0
 70
     1
102
RTVSPropertyOp1
 70
     1
102
RTVSPropertyOp2
 70
     1
102
RTVSPropertyOp3
 70
     1
102
RTVSPropertyOp4
 70
     1
102
RTVSPropertyOp5
 70
     1
102
RTVSPropertyOp6
 70
     1
102
RTVSPropertyOp7
 70
     1
102
RTVSPropertyOp8
 70
     1
102
RTVSPropertyOp9
 70
     1
102
RTVSPropertyOp10
 70
     1
102
RTVSPropertyOp11
 70
     1
102
RTVSPropertyOp12
 70
     1
102
RTVSPropertyOp13
 70
     1
102
RTVSPropertyOp14
 70
     1
102
RTVSPropertyOp15
 70
     1
102
RTVSPropertyOp16
 70
     1
102
RTVSPropertyOp17
 70
     1
102
RTVSPropertyOp18
 70
     1
102
RTVSPropertyOp19
 70
     1
102
RTVSPropertyOp20
 70
     1
102
RTVSPropertyOp21
 70
     1
102
RTVSPropertyOp22
 70
     1
102
RTVSPropertyOp23
 70
     1
102
RTVSPropertyOp24
 70
     1
102
RTVSPropertyOp25
 70
     1
102
RTVSPropertyOp26
 70
     1
102
RTVSPropertyOp27
 70
     1
102
RTVSPropertyOp28
 70
     1
102
RTVSPropertyOp29
 70
     1
102
RTVSPropertyOp30
 70
     1
102
RTVSPropertyOp31
 70
     1
102
RTVSPropertyOp32
 70
     1
102
RTVSPropertyOp33
 70
     1
102
RTVSPropertyOp34
 70
     1
102
RTVSPropertyOp35
 70
     1
102
RTVSPropertyOp36
 70
     1
102
RTVSPropertyOp37
 70
     1
102
RTVSPropertyOp38
 70
     1
102
RTVSPropertyOp39
 70
     1
102
RTVSPropertyOp40
 70
     1
102
RTVSPropertyOp41
 70
     1
102
RTVSPropertyOp42
 70
     1
102
RTVSPropertyOp43
 70
     1
102
RTVSPropertyOp44
 70
     1
102
RTVSPropertyOp45
 70
     1
102
RTVSPropertyOp46
 70
     1
102
RTVSPropertyOp47
 70
     1
102
RTVSPropertyOp48
 70
     1
102
RTVSPropertyOp49
 70
     1
102
RTVSPropertyOp50
 70
     1
102
RTVSPropertyOp51
 70
     0
102
RTVSPropertyOp52
 70
     0
102
RTVSPropertyOp53
 70
     1
102
RTVSPropertyOp54
 70
     1
102
RTVSPropertyOp55
 70
     1
102
RTVSPropertyOp56
 70
     1
102
RTVSPropertyOp57
 70
     1
102
RTVSPost2010Prop28
280
     0
102
RTVSPost2010PropOp28
 70
     1
102
RTVSPost2010Prop29
280
     1
102
RTVSPost2010PropOp29
 70
     1
102
RTVSPost2010Prop30
280
     1
102
RTVSPost2010PropOp30
 70
     1
102
RTVSPost2010Prop31
280
     0
102
RTVSPost2010PropOp31
 70
     1
102
RTVSPost2010Prop32
280
     0
102
RTVSPost2010PropOp32
 70
     1
102
RTVSPost2010Prop33
280
     0
102
RTVSPost2010PropOp33
 70
     1
102
RTVSPost2010Prop34
280
     0
102
RTVSPost2010PropOp34
 70
     1
102
RTVSPost2010Prop35
280
     0
102
RTVSPost2010PropOp35
 70
     1
102
RTVSPost2010Prop36
280
     0
102
RTVSPost2010PropOp36
 70
     1
102
RTVSPost2010Prop37
 90
       50
102
RTVSPost2010PropOp37
 70
     1
102
RTVSPost2010Prop38
140
0.0
102
RTVSPost2010PropOp38
 70
     1
102
RTVSPost2010Prop39
140
1.0
102
RTVSPost2010PropOp39
 70
     1
102
RTVSPost2010Prop40
 90
        0
102
RTVSPost2010PropOp40
 70
     1
102
RTVSPost2010Prop41ColorIndex
 90
       18
102
RTVSPost2010Prop41ColorRGB
 90
        0
102
RTVSPost2010PropOp41
 70
     1
102
RTVSPost2010Prop42
 90
       50
102
RTVSPost2010PropOp42
 70
     1
102
RTVSPost2010Prop43
 90
        3
102
RTVSPost2010PropOp43
 70
     1
102
RTVSPost2010Prop44ColorIndex
 90
        5
102
RTVSPost2010Prop44ColorRGB
 90
      255
102
RTVSPost2010PropOp44
 70
     1
102
RTVSPost2010Prop45
280
     0
102
RTVSPost2010PropOp45
 70
     1
102
RTVSPost2010Prop46
 90
       50
102
RTVSPost2010PropOp46
 70
     1
102
RTVSPost2010Prop47
 90
       50
102
RTVSPost2010PropOp47
 70
     1
102
RTVSPost2010Prop48
 90
       50
102
RTVSPost2010PropOp48
 70
     1
102
RTVSPost2010Prop49
280
     0
102
RTVSPost2010PropOp49
 70
     1
102
RTVSPost2010Prop50
 90
       50
102
RTVSPost2010PropOp50
 70
     1
102
RTVSPost2010Prop51ColorIndex
 90
      256
102
RTVSPost2010Prop51ColorRGB
 90
-16777216
102
RTVSPost2010PropOp51
 70
     0
102
RTVSPost2010Prop52
140
1.0
102
RTVSPost2010PropOp52
 70
     0
102
RTVSPost2010Prop53
 90
        2
102
RTVSPost2010PropOp53
 70
     1
102
RTVSPost2010Prop54
  1
strokes_ogs.tif
102
RTVSPost2010PropOp54
 70
     1
102
RTVSPost2010Prop55
280
     0
102
RTVSPost2010PropOp55
 70
     1
102
RTVSPost2010Prop56
140
1.0
102
RTVSPost2010PropOp56
 70
     1
102
RTVSPost2010Prop57
140
1.0
102
RTVSPost2010PropOp57
 70
     1
  0
XRECORD
  5
190
102
{ACAD_REACTORS
330
18F
102
}
330
18F
100
AcDbXrecord
280
     1
102
RTVSPropertyOp0
 70
     0
102
RTVSPropertyOp1
 70
     0
102
RTVSPropertyOp2
 70
     0
102
RTVSPropertyOp3
 70
     0
102
RTVSPropertyOp4
 70
     0
102
RTVSPropertyOp5
 70
     0
102
RTVSPropertyOp6
 70
     0
102
RTVSPropertyOp7
 70
     0
102
RTVSPropertyOp8
 70
     0
102
RTVSPropertyOp9
 70
     0
102
RTVSPropertyOp10
 70
     0
102
RTVSPropertyOp11
 70
     0
102
RTVSPropertyOp12
 70
     0
102
RTVSPropertyOp13
 70
     0
102
RTVSPropertyOp14
 70
     2
102
RTVSPropertyOp15
 70
     0
102
RTVSPropertyOp16
 70
     0
102
RTVSPropertyOp17
 70
     0
102
RTVSPropertyOp18
 70
     0
102
RTVSPropertyOp19
 70
     0
102
RTVSPropertyOp20
 70
     0
102
RTVSPropertyOp21
 70
     0
102
RTVSPropertyOp22
 70
     0
102
RTVSPropertyOp23
 70
     0
102
RTVSPropertyOp24
 70
     0
102
RTVSPropertyOp25
 70
     0
102
RTVSPropertyOp26
 70
     0
102
RTVSPropertyOp27
 70
     0
102
RTVSPropertyOp28
 70
     0
102
RTVSPropertyOp29
 70
     0
102
RTVSPropertyOp30
 70
     0
102
RTVSPropertyOp31
 70
     0
102
RTVSPropertyOp32
 70
     0
102
RTVSPropertyOp33
 70
     0
102
RTVSPropertyOp34
 70
     0
102
RTVSPropertyOp35
 70
     0
102
RTVSPropertyOp36
 70
     0
102
RTVSPropertyOp37
 70
     0
102
RTVSPropertyOp38
 70
     0
102
RTVSPropertyOp39
 70
     0
102
RTVSPropertyOp40
 70
     0
102
RTVSPropertyOp41
 70
     0
102
RTVSPropertyOp42
 70
     0
102
RTVSPropertyOp43
 70
     0
102
RTVSPropertyOp44
 70
     0
102
RTVSPropertyOp45
 70
     0
102
RTVSPropertyOp46
 70
     0
102
RTVSPropertyOp47
 70
     0
102
RTVSPropertyOp48
 70
     0
102
RTVSPropertyOp49
 70
     0
102
RTVSPropertyOp50
 70
     0
102
RTVSPropertyOp51
 70
     0
102
RTVSPropertyOp52
 70
     0
102
RTVSPropertyOp53
 70
     0
102
RTVSPropertyOp54
 70
     0
102
RTVSPropertyOp55
 70
     0
102
RTVSPropertyOp56
 70
     0
102
RTVSPropertyOp57
 70
     0
102
RTVSPost2010Prop28
280
     0
102
RTVSPost2010PropOp28
 70
     0
102
RTVSPost2010Prop29
280
     1
102
RTVSPost2010PropOp29
 70
     0
102
RTVSPost2010Prop30
280
     1
102
RTVSPost2010PropOp30
 70
     0
102
RTVSPost2010Prop31
280
     0
102
RTVSPost2010PropOp31
 70
     0
102
RTVSPost2010Prop32
280
     0
102
RTVSPost2010PropOp32
 70
     0
102
RTVSPost2010Prop33
280
     0
102
RTVSPost2010PropOp33
 70
     0
102
RTVSPost2010Prop34
280
     0
102
RTVSPost2010PropOp34
 70
     0
102
RTVSPost2010Prop35
280
     0
102
RTVSPost2010PropOp35
 70
     0
102
RTVSPost2010Prop36
280
     0
102
RTVSPost2010PropOp36
 70
     0
102
RTVSPost2010Prop37
 90
       50
102
RTVSPost2010PropOp37
 70
     0
102
RTVSPost2010Prop38
140
0.0
102
RTVSPost2010PropOp38
 70
     0
102
RTVSPost2010Prop39
140
1.0
102
RTVSPost2010PropOp39
 70
     0
102
RTVSPost2010Prop40
 90
        0
102
RTVSPost2010PropOp40
 70
     0
102
RTVSPost2010Prop41ColorIndex
 90
       18
102
RTVSPost2010Prop41ColorRGB
 90
        0
102
RTVSPost2010PropOp41
 70
     0
102
RTVSPost2010Prop42
 90
       50
102
RTVSPost2010PropOp42
 70
     0
102
RTVSPost2010Prop43
 90
        3
102
RTVSPost2010PropOp43
 70
     0
102
RTVSPost2010Prop44ColorIndex
 90
        5
102
RTVSPost2010Prop44ColorRGB
 90
      255
102
RTVSPost2010PropOp44
 70
     0
102
RTVSPost2010Prop45
280
     0
102
RTVSPost2010PropOp45
 70
     0
102
RTVSPost2010Prop46
 90
       50
102
RTVSPost2010PropOp46
 70
     0
102
RTVSPost2010Prop47
 90
       50
102
RTVSPost2010PropOp47
 70
     0
102
RTVSPost2010Prop48
 90
       50
102
RTVSPost2010PropOp48
 70
     0
102
RTVSPost2010Prop49
280
     0
102
RTVSPost2010PropOp49
 70
     0
102
RTVSPost2010Prop50
 90
       50
102
RTVSPost2010PropOp50
 70
     0
102
RTVSPost2010Prop51ColorIndex
 90
      256
102
RTVSPost2010Prop51ColorRGB
 90
-16777216
102
RTVSPost2010PropOp51
 70
     0
102
RTVSPost2010Prop52
140
1.0
102
RTVSPost2010PropOp52
 70
     0
102
RTVSPost2010Prop53
 90
        2
102
RTVSPost2010PropOp53
 70
     0
102
RTVSPost2010Prop54
  1
strokes_ogs.tif
102
RTVSPost2010PropOp54
 70
     0
102
RTVSPost2010Prop55
280
     0
102
RTVSPost2010PropOp55
 70
     0
102
RTVSPost2010Prop56
140
1.0
102
RTVSPost2010PropOp56
 70
     0
102
RTVSPost2010Prop57
140
1.0
102
RTVSPost2010PropOp57
 70
     0
  0
XRECORD
  5
17E
102
{ACAD_REACTORS
330
17D
102
}
330
17D
100
AcDbXrecord
280
     1
102
RTVSPropertyOp0
 70
     1
102
RTVSPropertyOp1
 70
     1
102
RTVSPropertyOp2
 70
     1
102
RTVSPropertyOp3
 70
     1
102
RTVSPropertyOp4
 70
     1
102
RTVSPropertyOp5
 70
     1
102
RTVSPropertyOp6
 70
     1
102
RTVSPropertyOp7
 70
     1
102
RTVSPropertyOp8
 70
     1
102
RTVSPropertyOp9
 70
     1
102
RTVSPropertyOp10
 70
     1
102
RTVSPropertyOp11
 70
     1
102
RTVSPropertyOp12
 70
     1
102
RTVSPropertyOp13
 70
     1
102
RTVSPropertyOp14
 70
     1
102
RTVSPropertyOp15
 70
     1
102
RTVSPropertyOp16
 70
     1
102
RTVSPropertyOp17
 70
     1
102
RTVSPropertyOp18
 70
     1
102
RTVSPropertyOp19
 70
     1
102
RTVSPropertyOp20
 70
     1
102
RTVSPropertyOp21
 70
     1
102
RTVSPropertyOp22
 70
     1
102
RTVSPropertyOp23
 70
     1
102
RTVSPropertyOp24
 70
     1
102
RTVSPropertyOp25
 70
     1
102
RTVSPropertyOp26
 70
     1
102
RTVSPropertyOp27
 70
     1
102
RTVSPropertyOp28
 70
     1
102
RTVSPropertyOp29
 70
     1
102
RTVSPropertyOp30
 70
     1
102
RTVSPropertyOp31
 70
     1
102
RTVSPropertyOp32
 70
     1
102
RTVSPropertyOp33
 70
     1
102
RTVSPropertyOp34
 70
     1
102
RTVSPropertyOp35
 70
     1
102
RTVSPropertyOp36
 70
     1
102
RTVSPropertyOp37
 70
     1
102
RTVSPropertyOp38
 70
     1
102
RTVSPropertyOp39
 70
     1
102
RTVSPropertyOp40
 70
     1
102
RTVSPropertyOp41
 70
     1
102
RTVSPropertyOp42
 70
     1
102
RTVSPropertyOp43
 70
     1
102
RTVSPropertyOp44
 70
     1
102
RTVSPropertyOp45
 70
     1
102
RTVSPropertyOp46
 70
     1
102
RTVSPropertyOp47
 70
     1
102
RTVSPropertyOp48
 70
     1
102
RTVSPropertyOp49
 70
     1
102
RTVSPropertyOp50
 70
     1
102
RTVSPropertyOp51
 70
     0
102
RTVSPropertyOp52
 70
     0
102
RTVSPropertyOp53
 70
     1
102
RTVSPropertyOp54
 70
     1
102
RTVSPropertyOp55
 70
     1
102
RTVSPropertyOp56
 70
     1
102
RTVSPropertyOp57
 70
     1
102
RTVSPost2010Prop28
280
     0
102
RTVSPost2010PropOp28
 70
     1
102
RTVSPost2010Prop29
280
     1
102
RTVSPost2010PropOp29
 70
     1
102
RTVSPost2010Prop30
280
     1
102
RTVSPost2010PropOp30
 70
     1
102
RTVSPost2010Prop31
280
     0
102
RTVSPost2010PropOp31
 70
     1
102
RTVSPost2010Prop32
280
     0
102
RTVSPost2010PropOp32
 70
     1
102
RTVSPost2010Prop33
280
     0
102
RTVSPost2010PropOp33
 70
     1
102
RTVSPost2010Prop34
280
     0
102
RTVSPost2010PropOp34
 70
     1
102
RTVSPost2010Prop35
280
     0
102
RTVSPost2010PropOp35
 70
     1
102
RTVSPost2010Prop36
280
     0
102
RTVSPost2010PropOp36
 70
     1
102
RTVSPost2010Prop37
 90
       50
102
RTVSPost2010PropOp37
 70
     1
102
RTVSPost2010Prop38
140
0.0
102
RTVSPost2010PropOp38
 70
     1
102
RTVSPost2010Prop39
140
1.0
102
RTVSPost2010PropOp39
 70
     1
102
RTVSPost2010Prop40
 90
        0
102
RTVSPost2010PropOp40
 70
     1
102
RTVSPost2010Prop41ColorIndex
 90
       18
102
RTVSPost2010Prop41ColorRGB
 90
        0
102
RTVSPost2010PropOp41
 70
     1
102
RTVSPost2010Prop42
 90
       50
102
RTVSPost2010PropOp42
 70
     1
102
RTVSPost2010Prop43
 90
        3
102
RTVSPost2010PropOp43
 70
     1
102
RTVSPost2010Prop44ColorIndex
 90
        5
102
RTVSPost2010Prop44ColorRGB
 90
      255
102
RTVSPost2010PropOp44
 70
     1
102
RTVSPost2010Prop45
280
     0
102
RTVSPost2010PropOp45
 70
     1
102
RTVSPost2010Prop46
 90
       50
102
RTVSPost2010PropOp46
 70
     1
102
RTVSPost2010Prop47
 90
       50
102
RTVSPost2010PropOp47
 70
     1
102
RTVSPost2010Prop48
 90
       50
102
RTVSPost2010PropOp48
 70
     1
102
RTVSPost2010Prop49
280
     0
102
RTVSPost2010PropOp49
 70
     1
102
RTVSPost2010Prop50
 90
       50
102
RTVSPost2010PropOp50
 70
     1
102
RTVSPost2010Prop51ColorIndex
 90
      256
102
RTVSPost2010Prop51ColorRGB
 90
-16777216
102
RTVSPost2010PropOp51
 70
     0
102
RTVSPost2010Prop52
140
1.0
102
RTVSPost2010PropOp52
 70
     0
102
RTVSPost2010Prop53
 90
        2
102
RTVSPost2010PropOp53
 70
     1
102
RTVSPost2010Prop54
  1
strokes_ogs.tif
102
RTVSPost2010PropOp54
 70
     1
102
RTVSPost2010Prop55
280
     0
102
RTVSPost2010PropOp55
 70
     1
102
RTVSPost2010Prop56
140
1.0
102
RTVSPost2010PropOp56
 70
     1
102
RTVSPost2010Prop57
140
1.0
102
RTVSPost2010PropOp57
 70
     1
  0
XRECORD
  5
19C
102
{ACAD_REACTORS
330
19B
102
}
330
19B
100
AcDbXrecord
280
     1
102
RTVSPropertyOp0
 70
     1
102
RTVSPropertyOp1
 70
     1
102
RTVSPropertyOp2
 70
     1
102
RTVSPropertyOp3
 70
     1
102
RTVSPropertyOp4
 70
     1
102
RTVSPropertyOp5
 70
     1
102
RTVSPropertyOp6
 70
     1
102
RTVSPropertyOp7
 70
     1
102
RTVSPropertyOp8
 70
     1
102
RTVSPropertyOp9
 70
     1
102
RTVSPropertyOp10
 70
     1
102
RTVSPropertyOp11
 70
     1
102
RTVSPropertyOp12
 70
     1
102
RTVSPropertyOp13
 70
     1
102
RTVSPropertyOp14
 70
     1
102
RTVSPropertyOp15
 70
     1
102
RTVSPropertyOp16
 70
     1
102
RTVSPropertyOp17
 70
     1
102
RTVSPropertyOp18
 70
     1
102
RTVSPropertyOp19
 70
     1
102
RTVSPropertyOp20
 70
     1
102
RTVSPropertyOp21
 70
     1
102
RTVSPropertyOp22
 70
     1
102
RTVSPropertyOp23
 70
     1
102
RTVSPropertyOp24
 70
     1
102
RTVSPropertyOp25
 70
     1
102
RTVSPropertyOp26
 70
     1
102
RTVSPropertyOp27
 70
     1
102
RTVSPropertyOp28
 70
     1
102
RTVSPropertyOp29
 70
     1
102
RTVSPropertyOp30
 70
     1
102
RTVSPropertyOp31
 70
     1
102
RTVSPropertyOp32
 70
     1
102
RTVSPropertyOp33
 70
     1
102
RTVSPropertyOp34
 70
     1
102
RTVSPropertyOp35
 70
     1
102
RTVSPropertyOp36
 70
     1
102
RTVSPropertyOp37
 70
     1
102
RTVSPropertyOp38
 70
     1
102
RTVSPropertyOp39
 70
     1
102
RTVSPropertyOp40
 70
     1
102
RTVSPropertyOp41
 70
     1
102
RTVSPropertyOp42
 70
     1
102
RTVSPropertyOp43
 70
     1
102
RTVSPropertyOp44
 70
     1
102
RTVSPropertyOp45
 70
     1
102
RTVSPropertyOp46
 70
     1
102
RTVSPropertyOp47
 70
     1
102
RTVSPropertyOp48
 70
     1
102
RTVSPropertyOp49
 70
     1
102
RTVSPropertyOp50
 70
     1
102
RTVSPropertyOp51
 70
     0
102
RTVSPropertyOp52
 70
     0
102
RTVSPropertyOp53
 70
     1
102
RTVSPropertyOp54
 70
     1
102
RTVSPropertyOp55
 70
     1
102
RTVSPropertyOp56
 70
     1
102
RTVSPropertyOp57
 70
     1
102
RTVSPost2010Prop28
280
     0
102
RTVSPost2010PropOp28
 70
     1
102
RTVSPost2010Prop29
280
     1
102
RTVSPost2010PropOp29
 70
     1
102
RTVSPost2010Prop30
280
     1
102
RTVSPost2010PropOp30
 70
     1
102
RTVSPost2010Prop31
280
     0
102
RTVSPost2010PropOp31
 70
     1
102
RTVSPost2010Prop32
280
     0
102
RTVSPost2010PropOp32
 70
     1
102
RTVSPost2010Prop33
280
     0
102
RTVSPost2010PropOp33
 70
     1
102
RTVSPost2010Prop34
280
     0
102
RTVSPost2010PropOp34
 70
     1
102
RTVSPost2010Prop35
280
     0
102
RTVSPost2010PropOp35
 70
     1
102
RTVSPost2010Prop36
280
     0
102
RTVSPost2010PropOp36
 70
     1
102
RTVSPost2010Prop37
 90
       50
102
RTVSPost2010PropOp37
 70
     1
102
RTVSPost2010Prop38
140
0.0
102
RTVSPost2010PropOp38
 70
     1
102
RTVSPost2010Prop39
140
1.0
102
RTVSPost2010PropOp39
 70
     1
102
RTVSPost2010Prop40
 90
        0
102
RTVSPost2010PropOp40
 70
     1
102
RTVSPost2010Prop41ColorIndex
 90
       18
102
RTVSPost2010Prop41ColorRGB
 90
        0
102
RTVSPost2010PropOp41
 70
     1
102
RTVSPost2010Prop42
 90
       50
102
RTVSPost2010PropOp42
 70
     1
102
RTVSPost2010Prop43
 90
        3
102
RTVSPost2010PropOp43
 70
     1
102
RTVSPost2010Prop44ColorIndex
 90
        5
102
RTVSPost2010Prop44ColorRGB
 90
      255
102
RTVSPost2010PropOp44
 70
     1
102
RTVSPost2010Prop45
280
     0
102
RTVSPost2010PropOp45
 70
     1
102
RTVSPost2010Prop46
 90
       50
102
RTVSPost2010PropOp46
 70
     1
102
RTVSPost2010Prop47
 90
       50
102
RTVSPost2010PropOp47
 70
     1
102
RTVSPost2010Prop48
 90
       50
102
RTVSPost2010PropOp48
 70
     1
102
RTVSPost2010Prop49
280
     0
102
RTVSPost2010PropOp49
 70
     1
102
RTVSPost2010Prop50
 90
       50
102
RTVSPost2010PropOp50
 70
     1
102
RTVSPost2010Prop51ColorIndex
 90
      256
102
RTVSPost2010Prop51ColorRGB
 90
-16777216
102
RTVSPost2010PropOp51
 70
     0
102
RTVSPost2010Prop52
140
1.0
102
RTVSPost2010PropOp52
 70
     0
102
RTVSPost2010Prop53
 90
        2
102
RTVSPost2010PropOp53
 70
     1
102
RTVSPost2010Prop54
  1
strokes_ogs.tif
102
RTVSPost2010PropOp54
 70
     1
102
RTVSPost2010Prop55
280
     0
102
RTVSPost2010PropOp55
 70
     1
102
RTVSPost2010Prop56
140
1.0
102
RTVSPost2010PropOp56
 70
     1
102
RTVSPost2010Prop57
140
1.0
102
RTVSPost2010PropOp57
 70
     1
  0
XRECORD
  5
19A
102
{ACAD_REACTORS
330
199
102
}
330
199
100
AcDbXrecord
280
     1
102
RTVSPropertyOp0
 70
     1
102
RTVSPropertyOp1
 70
     1
102
RTVSPropertyOp2
 70
     1
102
RTVSPropertyOp3
 70
     1
102
RTVSPropertyOp4
 70
     1
102
RTVSPropertyOp5
 70
     1
102
RTVSPropertyOp6
 70
     1
102
RTVSPropertyOp7
 70
     1
102
RTVSPropertyOp8
 70
     1
102
RTVSPropertyOp9
 70
     1
102
RTVSPropertyOp10
 70
     1
102
RTVSPropertyOp11
 70
     1
102
RTVSPropertyOp12
 70
     1
102
RTVSPropertyOp13
 70
     1
102
RTVSPropertyOp14
 70
     1
102
RTVSPropertyOp15
 70
     1
102
RTVSPropertyOp16
 70
     1
102
RTVSPropertyOp17
 70
     1
102
RTVSPropertyOp18
 70
     1
102
RTVSPropertyOp19
 70
     1
102
RTVSPropertyOp20
 70
     1
102
RTVSPropertyOp21
 70
     1
102
RTVSPropertyOp22
 70
     1
102
RTVSPropertyOp23
 70
     1
102
RTVSPropertyOp24
 70
     1
102
RTVSPropertyOp25
 70
     1
102
RTVSPropertyOp26
 70
     1
102
RTVSPropertyOp27
 70
     1
102
RTVSPropertyOp28
 70
     1
102
RTVSPropertyOp29
 70
     1
102
RTVSPropertyOp30
 70
     1
102
RTVSPropertyOp31
 70
     1
102
RTVSPropertyOp32
 70
     1
102
RTVSPropertyOp33
 70
     1
102
RTVSPropertyOp34
 70
     1
102
RTVSPropertyOp35
 70
     1
102
RTVSPropertyOp36
 70
     1
102
RTVSPropertyOp37
 70
     1
102
RTVSPropertyOp38
 70
     1
102
RTVSPropertyOp39
 70
     1
102
RTVSPropertyOp40
 70
     1
102
RTVSPropertyOp41
 70
     1
102
RTVSPropertyOp42
 70
     1
102
RTVSPropertyOp43
 70
     1
102
RTVSPropertyOp44
 70
     1
102
RTVSPropertyOp45
 70
     1
102
RTVSPropertyOp46
 70
     1
102
RTVSPropertyOp47
 70
     1
102
RTVSPropertyOp48
 70
     1
102
RTVSPropertyOp49
 70
     1
102
RTVSPropertyOp50
 70
     1
102
RTVSPropertyOp51
 70
     0
102
RTVSPropertyOp52
 70
     0
102
RTVSPropertyOp53
 70
     1
102
RTVSPropertyOp54
 70
     1
102
RTVSPropertyOp55
 70
     1
102
RTVSPropertyOp56
 70
     1
102
RTVSPropertyOp57
 70
     1
102
RTVSPost2010Prop28
280
     0
102
RTVSPost2010PropOp28
 70
     1
102
RTVSPost2010Prop29
280
     1
102
RTVSPost2010PropOp29
 70
     1
102
RTVSPost2010Prop30
280
     1
102
RTVSPost2010PropOp30
 70
     1
102
RTVSPost2010Prop31
280
     0
102
RTVSPost2010PropOp31
 70
     1
102
RTVSPost2010Prop32
280
     0
102
RTVSPost2010PropOp32
 70
     1
102
RTVSPost2010Prop33
280
     0
102
RTVSPost2010PropOp33
 70
     1
102
RTVSPost2010Prop34
280
     0
102
RTVSPost2010PropOp34
 70
     1
102
RTVSPost2010Prop35
280
     0
102
RTVSPost2010PropOp35
 70
     1
102
RTVSPost2010Prop36
280
     0
102
RTVSPost2010PropOp36
 70
     1
102
RTVSPost2010Prop37
 90
       50
102
RTVSPost2010PropOp37
 70
     1
102
RTVSPost2010Prop38
140
0.0
102
RTVSPost2010PropOp38
 70
     1
102
RTVSPost2010Prop39
140
1.0
102
RTVSPost2010PropOp39
 70
     1
102
RTVSPost2010Prop40
 90
        0
102
RTVSPost2010PropOp40
 70
     1
102
RTVSPost2010Prop41ColorIndex
 90
       18
102
RTVSPost2010Prop41ColorRGB
 90
        0
102
RTVSPost2010PropOp41
 70
     1
102
RTVSPost2010Prop42
 90
       50
102
RTVSPost2010PropOp42
 70
     1
102
RTVSPost2010Prop43
 90
        3
102
RTVSPost2010PropOp43
 70
     1
102
RTVSPost2010Prop44ColorIndex
 90
        5
102
RTVSPost2010Prop44ColorRGB
 90
      255
102
RTVSPost2010PropOp44
 70
     1
102
RTVSPost2010Prop45
280
     0
102
RTVSPost2010PropOp45
 70
     1
102
RTVSPost2010Prop46
 90
       50
102
RTVSPost2010PropOp46
 70
     1
102
RTVSPost2010Prop47
 90
       50
102
RTVSPost2010PropOp47
 70
     1
102
RTVSPost2010Prop48
 90
       50
102
RTVSPost2010PropOp48
 70
     1
102
RTVSPost2010Prop49
280
     0
102
RTVSPost2010PropOp49
 70
     1
102
RTVSPost2010Prop50
 90
       50
102
RTVSPost2010PropOp50
 70
     1
102
RTVSPost2010Prop51ColorIndex
 90
      256
102
RTVSPost2010Prop51ColorRGB
 90
-16777216
102
RTVSPost2010PropOp51
 70
     0
102
RTVSPost2010Prop52
140
1.0
102
RTVSPost2010PropOp52
 70
     0
102
RTVSPost2010Prop53
 90
        2
102
RTVSPost2010PropOp53
 70
     1
102
RTVSPost2010Prop54
  1
strokes_ogs.tif
102
RTVSPost2010PropOp54
 70
     1
102
RTVSPost2010Prop55
280
     0
102
RTVSPost2010PropOp55
 70
     1
102
RTVSPost2010Prop56
140
1.0
102
RTVSPost2010PropOp56
 70
     1
102
RTVSPost2010Prop57
140
1.0
102
RTVSPost2010PropOp57
 70
     1
  0
XRECORD
  5
194
102
{ACAD_REACTORS
330
193
102
}
330
193
100
AcDbXrecord
280
     1
102
RTVSPropertyOp0
 70
     1
102
RTVSPropertyOp1
 70
     1
102
RTVSPropertyOp2
 70
     1
102
RTVSPropertyOp3
 70
     1
102
RTVSPropertyOp4
 70
     1
102
RTVSPropertyOp5
 70
     1
102
RTVSPropertyOp6
 70
     1
102
RTVSPropertyOp7
 70
     1
102
RTVSPropertyOp8
 70
     1
102
RTVSPropertyOp9
 70
     1
102
RTVSPropertyOp10
 70
     1
102
RTVSPropertyOp11
 70
     1
102
RTVSPropertyOp12
 70
     1
102
RTVSPropertyOp13
 70
     1
102
RTVSPropertyOp14
 70
     1
102
RTVSPropertyOp15
 70
     1
102
RTVSPropertyOp16
 70
     1
102
RTVSPropertyOp17
 70
     1
102
RTVSPropertyOp18
 70
     1
102
RTVSPropertyOp19
 70
     1
102
RTVSPropertyOp20
 70
     1
102
RTVSPropertyOp21
 70
     1
102
RTVSPropertyOp22
 70
     1
102
RTVSPropertyOp23
 70
     1
102
RTVSPropertyOp24
 70
     1
102
RTVSPropertyOp25
 70
     1
102
RTVSPropertyOp26
 70
     1
102
RTVSPropertyOp27
 70
     1
102
RTVSPropertyOp28
 70
     1
102
RTVSPropertyOp29
 70
     1
102
RTVSPropertyOp30
 70
     1
102
RTVSPropertyOp31
 70
     1
102
RTVSPropertyOp32
 70
     1
102
RTVSPropertyOp33
 70
     1
102
RTVSPropertyOp34
 70
     1
102
RTVSPropertyOp35
 70
     1
102
RTVSPropertyOp36
 70
     1
102
RTVSPropertyOp37
 70
     1
102
RTVSPropertyOp38
 70
     1
102
RTVSPropertyOp39
 70
     1
102
RTVSPropertyOp40
 70
     1
102
RTVSPropertyOp41
 70
     1
102
RTVSPropertyOp42
 70
     1
102
RTVSPropertyOp43
 70
     1
102
RTVSPropertyOp44
 70
     1
102
RTVSPropertyOp45
 70
     1
102
RTVSPropertyOp46
 70
     1
102
RTVSPropertyOp47
 70
     1
102
RTVSPropertyOp48
 70
     1
102
RTVSPropertyOp49
 70
     1
102
RTVSPropertyOp50
 70
     1
102
RTVSPropertyOp51
 70
     0
102
RTVSPropertyOp52
 70
     0
102
RTVSPropertyOp53
 70
     1
102
RTVSPropertyOp54
 70
     1
102
RTVSPropertyOp55
 70
     1
102
RTVSPropertyOp56
 70
     1
102
RTVSPropertyOp57
 70
     1
102
RTVSPost2010Prop28
280
     0
102
RTVSPost2010PropOp28
 70
     1
102
RTVSPost2010Prop29
280
     1
102
RTVSPost2010PropOp29
 70
     1
102
RTVSPost2010Prop30
280
     1
102
RTVSPost2010PropOp30
 70
     1
102
RTVSPost2010Prop31
280
     0
102
RTVSPost2010PropOp31
 70
     1
102
RTVSPost2010Prop32
280
     0
102
RTVSPost2010PropOp32
 70
     1
102
RTVSPost2010Prop33
280
     0
102
RTVSPost2010PropOp33
 70
     1
102
RTVSPost2010Prop34
280
     0
102
RTVSPost2010PropOp34
 70
     1
102
RTVSPost2010Prop35
280
     0
102
RTVSPost2010PropOp35
 70
     1
102
RTVSPost2010Prop36
280
     0
102
RTVSPost2010PropOp36
 70
     1
102
RTVSPost2010Prop37
 90
       50
102
RTVSPost2010PropOp37
 70
     1
102
RTVSPost2010Prop38
140
0.0
102
RTVSPost2010PropOp38
 70
     1
102
RTVSPost2010Prop39
140
1.0
102
RTVSPost2010PropOp39
 70
     1
102
RTVSPost2010Prop40
 90
        0
102
RTVSPost2010PropOp40
 70
     1
102
RTVSPost2010Prop41ColorIndex
 90
       18
102
RTVSPost2010Prop41ColorRGB
 90
        0
102
RTVSPost2010PropOp41
 70
     1
102
RTVSPost2010Prop42
 90
       50
102
RTVSPost2010PropOp42
 70
     1
102
RTVSPost2010Prop43
 90
        3
102
RTVSPost2010PropOp43
 70
     1
102
RTVSPost2010Prop44ColorIndex
 90
        5
102
RTVSPost2010Prop44ColorRGB
 90
      255
102
RTVSPost2010PropOp44
 70
     1
102
RTVSPost2010Prop45
280
     0
102
RTVSPost2010PropOp45
 70
     1
102
RTVSPost2010Prop46
 90
       50
102
RTVSPost2010PropOp46
 70
     1
102
RTVSPost2010Prop47
 90
       50
102
RTVSPost2010PropOp47
 70
     1
102
RTVSPost2010Prop48
 90
       50
102
RTVSPost2010PropOp48
 70
     1
102
RTVSPost2010Prop49
280
     0
102
RTVSPost2010PropOp49
 70
     1
102
RTVSPost2010Prop50
 90
       50
102
RTVSPost2010PropOp50
 70
     1
102
RTVSPost2010Prop51ColorIndex
 90
      256
102
RTVSPost2010Prop51ColorRGB
 90
-16777216
102
RTVSPost2010PropOp51
 70
     0
102
RTVSPost2010Prop52
140
1.0
102
RTVSPost2010PropOp52
 70
     0
102
RTVSPost2010Prop53
 90
        2
102
RTVSPost2010PropOp53
 70
     1
102
RTVSPost2010Prop54
  1
strokes_ogs.tif
102
RTVSPost2010PropOp54
 70
     1
102
RTVSPost2010Prop55
280
     0
102
RTVSPost2010PropOp55
 70
     1
102
RTVSPost2010Prop56
140
1.0
102
RTVSPost2010PropOp56
 70
     1
102
RTVSPost2010Prop57
140
1.0
102
RTVSPost2010PropOp57
 70
     1
  0
XRECORD
  5
196
102
{ACAD_REACTORS
330
195
102
}
330
195
100
AcDbXrecord
280
     1
102
RTVSPropertyOp0
 70
     1
102
RTVSPropertyOp1
 70
     1
102
RTVSPropertyOp2
 70
     1
102
RTVSPropertyOp3
 70
     1
102
RTVSPropertyOp4
 70
     1
102
RTVSPropertyOp5
 70
     1
102
RTVSPropertyOp6
 70
     1
102
RTVSPropertyOp7
 70
     1
102
RTVSPropertyOp8
 70
     1
102
RTVSPropertyOp9
 70
     1
102
RTVSPropertyOp10
 70
     1
102
RTVSPropertyOp11
 70
     1
102
RTVSPropertyOp12
 70
     1
102
RTVSPropertyOp13
 70
     1
102
RTVSPropertyOp14
 70
     1
102
RTVSPropertyOp15
 70
     1
102
RTVSPropertyOp16
 70
     1
102
RTVSPropertyOp17
 70
     1
102
RTVSPropertyOp18
 70
     1
102
RTVSPropertyOp19
 70
     1
102
RTVSPropertyOp20
 70
     1
102
RTVSPropertyOp21
 70
     1
102
RTVSPropertyOp22
 70
     1
102
RTVSPropertyOp23
 70
     1
102
RTVSPropertyOp24
 70
     1
102
RTVSPropertyOp25
 70
     1
102
RTVSPropertyOp26
 70
     1
102
RTVSPropertyOp27
 70
     1
102
RTVSPropertyOp28
 70
     1
102
RTVSPropertyOp29
 70
     1
102
RTVSPropertyOp30
 70
     1
102
RTVSPropertyOp31
 70
     1
102
RTVSPropertyOp32
 70
     1
102
RTVSPropertyOp33
 70
     1
102
RTVSPropertyOp34
 70
     1
102
RTVSPropertyOp35
 70
     1
102
RTVSPropertyOp36
 70
     1
102
RTVSPropertyOp37
 70
     1
102
RTVSPropertyOp38
 70
     1
102
RTVSPropertyOp39
 70
     1
102
RTVSPropertyOp40
 70
     1
102
RTVSPropertyOp41
 70
     1
102
RTVSPropertyOp42
 70
     1
102
RTVSPropertyOp43
 70
     1
102
RTVSPropertyOp44
 70
     1
102
RTVSPropertyOp45
 70
     1
102
RTVSPropertyOp46
 70
     1
102
RTVSPropertyOp47
 70
     1
102
RTVSPropertyOp48
 70
     1
102
RTVSPropertyOp49
 70
     1
102
RTVSPropertyOp50
 70
     1
102
RTVSPropertyOp51
 70
     0
102
RTVSPropertyOp52
 70
     0
102
RTVSPropertyOp53
 70
     1
102
RTVSPropertyOp54
 70
     1
102
RTVSPropertyOp55
 70
     1
102
RTVSPropertyOp56
 70
     1
102
RTVSPropertyOp57
 70
     1
102
RTVSPost2010Prop28
280
     0
102
RTVSPost2010PropOp28
 70
     1
102
RTVSPost2010Prop29
280
     1
102
RTVSPost2010PropOp29
 70
     1
102
RTVSPost2010Prop30
280
     1
102
RTVSPost2010PropOp30
 70
     1
102
RTVSPost2010Prop31
280
     0
102
RTVSPost2010PropOp31
 70
     1
102
RTVSPost2010Prop32
280
     0
102
RTVSPost2010PropOp32
 70
     1
102
RTVSPost2010Prop33
280
     0
102
RTVSPost2010PropOp33
 70
     1
102
RTVSPost2010Prop34
280
     0
102
RTVSPost2010PropOp34
 70
     1
102
RTVSPost2010Prop35
280
     0
102
RTVSPost2010PropOp35
 70
     1
102
RTVSPost2010Prop36
280
     0
102
RTVSPost2010PropOp36
 70
     1
102
RTVSPost2010Prop37
 90
       50
102
RTVSPost2010PropOp37
 70
     1
102
RTVSPost2010Prop38
140
0.0
102
RTVSPost2010PropOp38
 70
     1
102
RTVSPost2010Prop39
140
1.0
102
RTVSPost2010PropOp39
 70
     1
102
RTVSPost2010Prop40
 90
        0
102
RTVSPost2010PropOp40
 70
     1
102
RTVSPost2010Prop41ColorIndex
 90
       18
102
RTVSPost2010Prop41ColorRGB
 90
        0
102
RTVSPost2010PropOp41
 70
     1
102
RTVSPost2010Prop42
 90
       50
102
RTVSPost2010PropOp42
 70
     1
102
RTVSPost2010Prop43
 90
        3
102
RTVSPost2010PropOp43
 70
     1
102
RTVSPost2010Prop44ColorIndex
 90
        5
102
RTVSPost2010Prop44ColorRGB
 90
      255
102
RTVSPost2010PropOp44
 70
     1
102
RTVSPost2010Prop45
280
     0
102
RTVSPost2010PropOp45
 70
     1
102
RTVSPost2010Prop46
 90
       50
102
RTVSPost2010PropOp46
 70
     1
102
RTVSPost2010Prop47
 90
       50
102
RTVSPost2010PropOp47
 70
     1
102
RTVSPost2010Prop48
 90
       50
102
RTVSPost2010PropOp48
 70
     1
102
RTVSPost2010Prop49
280
     0
102
RTVSPost2010PropOp49
 70
     1
102
RTVSPost2010Prop50
 90
       50
102
RTVSPost2010PropOp50
 70
     1
102
RTVSPost2010Prop51ColorIndex
 90
      256
102
RTVSPost2010Prop51ColorRGB
 90
-16777216
102
RTVSPost2010PropOp51
 70
     0
102
RTVSPost2010Prop52
140
1.0
102
RTVSPost2010PropOp52
 70
     0
102
RTVSPost2010Prop53
 90
        2
102
RTVSPost2010PropOp53
 70
     1
102
RTVSPost2010Prop54
  1
strokes_ogs.tif
102
RTVSPost2010PropOp54
 70
     1
102
RTVSPost2010Prop55
280
     0
102
RTVSPost2010PropOp55
 70
     1
102
RTVSPost2010Prop56
140
1.0
102
RTVSPost2010PropOp56
 70
     1
102
RTVSPost2010Prop57
140
1.0
102
RTVSPost2010PropOp57
 70
     1
  0
XRECORD
  5
186
102
{ACAD_REACTORS
330
185
102
}
330
185
100
AcDbXrecord
280
     1
102
RTVSPropertyOp0
 70
     1
102
RTVSPropertyOp1
 70
     1
102
RTVSPropertyOp2
 70
     1
102
RTVSPropertyOp3
 70
     1
102
RTVSPropertyOp4
 70
     1
102
RTVSPropertyOp5
 70
     1
102
RTVSPropertyOp6
 70
     1
102
RTVSPropertyOp7
 70
     1
102
RTVSPropertyOp8
 70
     1
102
RTVSPropertyOp9
 70
     1
102
RTVSPropertyOp10
 70
     1
102
RTVSPropertyOp11
 70
     1
102
RTVSPropertyOp12
 70
     1
102
RTVSPropertyOp13
 70
     1
102
RTVSPropertyOp14
 70
     1
102
RTVSPropertyOp15
 70
     1
102
RTVSPropertyOp16
 70
     1
102
RTVSPropertyOp17
 70
     1
102
RTVSPropertyOp18
 70
     1
102
RTVSPropertyOp19
 70
     1
102
RTVSPropertyOp20
 70
     1
102
RTVSPropertyOp21
 70
     1
102
RTVSPropertyOp22
 70
     1
102
RTVSPropertyOp23
 70
     1
102
RTVSPropertyOp24
 70
     1
102
RTVSPropertyOp25
 70
     1
102
RTVSPropertyOp26
 70
     1
102
RTVSPropertyOp27
 70
     1
102
RTVSPropertyOp28
 70
     1
102
RTVSPropertyOp29
 70
     1
102
RTVSPropertyOp30
 70
     1
102
RTVSPropertyOp31
 70
     1
102
RTVSPropertyOp32
 70
     1
102
RTVSPropertyOp33
 70
     1
102
RTVSPropertyOp34
 70
     1
102
RTVSPropertyOp35
 70
     1
102
RTVSPropertyOp36
 70
     1
102
RTVSPropertyOp37
 70
     1
102
RTVSPropertyOp38
 70
     1
102
RTVSPropertyOp39
 70
     1
102
RTVSPropertyOp40
 70
     1
102
RTVSPropertyOp41
 70
     1
102
RTVSPropertyOp42
 70
     1
102
RTVSPropertyOp43
 70
     1
102
RTVSPropertyOp44
 70
     1
102
RTVSPropertyOp45
 70
     1
102
RTVSPropertyOp46
 70
     1
102
RTVSPropertyOp47
 70
     1
102
RTVSPropertyOp48
 70
     1
102
RTVSPropertyOp49
 70
     1
102
RTVSPropertyOp50
 70
     1
102
RTVSPropertyOp51
 70
     0
102
RTVSPropertyOp52
 70
     0
102
RTVSPropertyOp53
 70
     1
102
RTVSPropertyOp54
 70
     1
102
RTVSPropertyOp55
 70
     1
102
RTVSPropertyOp56
 70
     1
102
RTVSPropertyOp57
 70
     1
102
RTVSPost2010Prop28
280
     0
102
RTVSPost2010PropOp28
 70
     1
102
RTVSPost2010Prop29
280
     1
102
RTVSPost2010PropOp29
 70
     1
102
RTVSPost2010Prop30
280
     1
102
RTVSPost2010PropOp30
 70
     1
102
RTVSPost2010Prop31
280
     0
102
RTVSPost2010PropOp31
 70
     1
102
RTVSPost2010Prop32
280
     0
102
RTVSPost2010PropOp32
 70
     1
102
RTVSPost2010Prop33
280
     0
102
RTVSPost2010PropOp33
 70
     1
102
RTVSPost2010Prop34
280
     0
102
RTVSPost2010PropOp34
 70
     1
102
RTVSPost2010Prop35
280
     0
102
RTVSPost2010PropOp35
 70
     1
102
RTVSPost2010Prop36
280
     0
102
RTVSPost2010PropOp36
 70
     1
102
RTVSPost2010Prop37
 90
       50
102
RTVSPost2010PropOp37
 70
     1
102
RTVSPost2010Prop38
140
0.0
102
RTVSPost2010PropOp38
 70
     1
102
RTVSPost2010Prop39
140
1.0
102
RTVSPost2010PropOp39
 70
     1
102
RTVSPost2010Prop40
 90
        0
102
RTVSPost2010PropOp40
 70
     1
102
RTVSPost2010Prop41ColorIndex
 90
       18
102
RTVSPost2010Prop41ColorRGB
 90
        0
102
RTVSPost2010PropOp41
 70
     1
102
RTVSPost2010Prop42
 90
       50
102
RTVSPost2010PropOp42
 70
     1
102
RTVSPost2010Prop43
 90
        3
102
RTVSPost2010PropOp43
 70
     1
102
RTVSPost2010Prop44ColorIndex
 90
        5
102
RTVSPost2010Prop44ColorRGB
 90
      255
102
RTVSPost2010PropOp44
 70
     1
102
RTVSPost2010Prop45
280
     0
102
RTVSPost2010PropOp45
 70
     1
102
RTVSPost2010Prop46
 90
       50
102
RTVSPost2010PropOp46
 70
     1
102
RTVSPost2010Prop47
 90
       50
102
RTVSPost2010PropOp47
 70
     1
102
RTVSPost2010Prop48
 90
       50
102
RTVSPost2010PropOp48
 70
     1
102
RTVSPost2010Prop49
280
     0
102
RTVSPost2010PropOp49
 70
     1
102
RTVSPost2010Prop50
 90
       50
102
RTVSPost2010PropOp50
 70
     1
102
RTVSPost2010Prop51ColorIndex
 90
      256
102
RTVSPost2010Prop51ColorRGB
 90
-16777216
102
RTVSPost2010PropOp51
 70
     0
102
RTVSPost2010Prop52
140
1.0
102
RTVSPost2010PropOp52
 70
     0
102
RTVSPost2010Prop53
 90
        2
102
RTVSPost2010PropOp53
 70
     1
102
RTVSPost2010Prop54
  1
strokes_ogs.tif
102
RTVSPost2010PropOp54
 70
     1
102
RTVSPost2010Prop55
280
     0
102
RTVSPost2010PropOp55
 70
     1
102
RTVSPost2010Prop56
140
1.0
102
RTVSPost2010PropOp56
 70
     1
102
RTVSPost2010Prop57
140
1.0
102
RTVSPost2010PropOp57
 70
     1
  0
XRECORD
  5
178
102
{ACAD_REACTORS
330
177
102
}
330
177
100
AcDbXrecord
280
     1
102
RTVSPropertyOp0
 70
     1
102
RTVSPropertyOp1
 70
     1
102
RTVSPropertyOp2
 70
     1
102
RTVSPropertyOp3
 70
     1
102
RTVSPropertyOp4
 70
     1
102
RTVSPropertyOp5
 70
     1
102
RTVSPropertyOp6
 70
     1
102
RTVSPropertyOp7
 70
     1
102
RTVSPropertyOp8
 70
     1
102
RTVSPropertyOp9
 70
     1
102
RTVSPropertyOp10
 70
     1
102
RTVSPropertyOp11
 70
     1
102
RTVSPropertyOp12
 70
     1
102
RTVSPropertyOp13
 70
     1
102
RTVSPropertyOp14
 70
     1
102
RTVSPropertyOp15
 70
     1
102
RTVSPropertyOp16
 70
     1
102
RTVSPropertyOp17
 70
     1
102
RTVSPropertyOp18
 70
     1
102
RTVSPropertyOp19
 70
     1
102
RTVSPropertyOp20
 70
     1
102
RTVSPropertyOp21
 70
     1
102
RTVSPropertyOp22
 70
     1
102
RTVSPropertyOp23
 70
     1
102
RTVSPropertyOp24
 70
     1
102
RTVSPropertyOp25
 70
     1
102
RTVSPropertyOp26
 70
     1
102
RTVSPropertyOp27
 70
     1
102
RTVSPropertyOp28
 70
     1
102
RTVSPropertyOp29
 70
     1
102
RTVSPropertyOp30
 70
     1
102
RTVSPropertyOp31
 70
     1
102
RTVSPropertyOp32
 70
     1
102
RTVSPropertyOp33
 70
     1
102
RTVSPropertyOp34
 70
     1
102
RTVSPropertyOp35
 70
     1
102
RTVSPropertyOp36
 70
     1
102
RTVSPropertyOp37
 70
     1
102
RTVSPropertyOp38
 70
     1
102
RTVSPropertyOp39
 70
     1
102
RTVSPropertyOp40
 70
     1
102
RTVSPropertyOp41
 70
     1
102
RTVSPropertyOp42
 70
     1
102
RTVSPropertyOp43
 70
     1
102
RTVSPropertyOp44
 70
     1
102
RTVSPropertyOp45
 70
     1
102
RTVSPropertyOp46
 70
     1
102
RTVSPropertyOp47
 70
     1
102
RTVSPropertyOp48
 70
     1
102
RTVSPropertyOp49
 70
     1
102
RTVSPropertyOp50
 70
     1
102
RTVSPropertyOp51
 70
     0
102
RTVSPropertyOp52
 70
     0
102
RTVSPropertyOp53
 70
     1
102
RTVSPropertyOp54
 70
     1
102
RTVSPropertyOp55
 70
     1
102
RTVSPropertyOp56
 70
     1
102
RTVSPropertyOp57
 70
     1
102
RTVSPost2010Prop28
280
     0
102
RTVSPost2010PropOp28
 70
     1
102
RTVSPost2010Prop29
280
     1
102
RTVSPost2010PropOp29
 70
     1
102
RTVSPost2010Prop30
280
     1
102
RTVSPost2010PropOp30
 70
     1
102
RTVSPost2010Prop31
280
     0
102
RTVSPost2010PropOp31
 70
     1
102
RTVSPost2010Prop32
280
     0
102
RTVSPost2010PropOp32
 70
     1
102
RTVSPost2010Prop33
280
     0
102
RTVSPost2010PropOp33
 70
     1
102
RTVSPost2010Prop34
280
     0
102
RTVSPost2010PropOp34
 70
     1
102
RTVSPost2010Prop35
280
     0
102
RTVSPost2010PropOp35
 70
     1
102
RTVSPost2010Prop36
280
     0
102
RTVSPost2010PropOp36
 70
     1
102
RTVSPost2010Prop37
 90
       50
102
RTVSPost2010PropOp37
 70
     1
102
RTVSPost2010Prop38
140
0.0
102
RTVSPost2010PropOp38
 70
     1
102
RTVSPost2010Prop39
140
1.0
102
RTVSPost2010PropOp39
 70
     1
102
RTVSPost2010Prop40
 90
        0
102
RTVSPost2010PropOp40
 70
     1
102
RTVSPost2010Prop41ColorIndex
 90
       18
102
RTVSPost2010Prop41ColorRGB
 90
        0
102
RTVSPost2010PropOp41
 70
     1
102
RTVSPost2010Prop42
 90
       50
102
RTVSPost2010PropOp42
 70
     1
102
RTVSPost2010Prop43
 90
        3
102
RTVSPost2010PropOp43
 70
     1
102
RTVSPost2010Prop44ColorIndex
 90
        5
102
RTVSPost2010Prop44ColorRGB
 90
      255
102
RTVSPost2010PropOp44
 70
     1
102
RTVSPost2010Prop45
280
     0
102
RTVSPost2010PropOp45
 70
     1
102
RTVSPost2010Prop46
 90
       50
102
RTVSPost2010PropOp46
 70
     1
102
RTVSPost2010Prop47
 90
       50
102
RTVSPost2010PropOp47
 70
     1
102
RTVSPost2010Prop48
 90
       50
102
RTVSPost2010PropOp48
 70
     1
102
RTVSPost2010Prop49
280
     0
102
RTVSPost2010PropOp49
 70
     1
102
RTVSPost2010Prop50
 90
       50
102
RTVSPost2010PropOp50
 70
     1
102
RTVSPost2010Prop51ColorIndex
 90
      256
102
RTVSPost2010Prop51ColorRGB
 90
-16777216
102
RTVSPost2010PropOp51
 70
     0
102
RTVSPost2010Prop52
140
1.0
102
RTVSPost2010PropOp52
 70
     0
102
RTVSPost2010Prop53
 90
        2
102
RTVSPost2010PropOp53
 70
     1
102
RTVSPost2010Prop54
  1
strokes_ogs.tif
102
RTVSPost2010PropOp54
 70
     1
102
RTVSPost2010Prop55
280
     0
102
RTVSPost2010PropOp55
 70
     1
102
RTVSPost2010Prop56
140
1.0
102
RTVSPost2010PropOp56
 70
     1
102
RTVSPost2010Prop57
140
1.0
102
RTVSPost2010PropOp57
 70
     1
  0
XRECORD
  5
198
102
{ACAD_REACTORS
330
197
102
}
330
197
100
AcDbXrecord
280
     1
102
RTVSPropertyOp0
 70
     1
102
RTVSPropertyOp1
 70
     1
102
RTVSPropertyOp2
 70
     1
102
RTVSPropertyOp3
 70
     1
102
RTVSPropertyOp4
 70
     1
102
RTVSPropertyOp5
 70
     1
102
RTVSPropertyOp6
 70
     1
102
RTVSPropertyOp7
 70
     1
102
RTVSPropertyOp8
 70
     1
102
RTVSPropertyOp9
 70
     1
102
RTVSPropertyOp10
 70
     1
102
RTVSPropertyOp11
 70
     1
102
RTVSPropertyOp12
 70
     1
102
RTVSPropertyOp13
 70
     1
102
RTVSPropertyOp14
 70
     1
102
RTVSPropertyOp15
 70
     1
102
RTVSPropertyOp16
 70
     1
102
RTVSPropertyOp17
 70
     1
102
RTVSPropertyOp18
 70
     1
102
RTVSPropertyOp19
 70
     1
102
RTVSPropertyOp20
 70
     1
102
RTVSPropertyOp21
 70
     1
102
RTVSPropertyOp22
 70
     1
102
RTVSPropertyOp23
 70
     1
102
RTVSPropertyOp24
 70
     1
102
RTVSPropertyOp25
 70
     1
102
RTVSPropertyOp26
 70
     1
102
RTVSPropertyOp27
 70
     1
102
RTVSPropertyOp28
 70
     1
102
RTVSPropertyOp29
 70
     1
102
RTVSPropertyOp30
 70
     1
102
RTVSPropertyOp31
 70
     1
102
RTVSPropertyOp32
 70
     1
102
RTVSPropertyOp33
 70
     1
102
RTVSPropertyOp34
 70
     1
102
RTVSPropertyOp35
 70
     1
102
RTVSPropertyOp36
 70
     1
102
RTVSPropertyOp37
 70
     1
102
RTVSPropertyOp38
 70
     1
102
RTVSPropertyOp39
 70
     1
102
RTVSPropertyOp40
 70
     1
102
RTVSPropertyOp41
 70
     1
102
RTVSPropertyOp42
 70
     1
102
RTVSPropertyOp43
 70
     1
102
RTVSPropertyOp44
 70
     1
102
RTVSPropertyOp45
 70
     1
102
RTVSPropertyOp46
 70
     1
102
RTVSPropertyOp47
 70
     1
102
RTVSPropertyOp48
 70
     1
102
RTVSPropertyOp49
 70
     1
102
RTVSPropertyOp50
 70
     1
102
RTVSPropertyOp51
 70
     0
102
RTVSPropertyOp52
 70
     0
102
RTVSPropertyOp53
 70
     1
102
RTVSPropertyOp54
 70
     1
102
RTVSPropertyOp55
 70
     1
102
RTVSPropertyOp56
 70
     1
102
RTVSPropertyOp57
 70
     1
102
RTVSPost2010Prop28
280
     0
102
RTVSPost2010PropOp28
 70
     1
102
RTVSPost2010Prop29
280
     1
102
RTVSPost2010PropOp29
 70
     1
102
RTVSPost2010Prop30
280
     1
102
RTVSPost2010PropOp30
 70
     1
102
RTVSPost2010Prop31
280
     0
102
RTVSPost2010PropOp31
 70
     1
102
RTVSPost2010Prop32
280
     0
102
RTVSPost2010PropOp32
 70
     1
102
RTVSPost2010Prop33
280
     0
102
RTVSPost2010PropOp33
 70
     1
102
RTVSPost2010Prop34
280
     0
102
RTVSPost2010PropOp34
 70
     1
102
RTVSPost2010Prop35
280
     0
102
RTVSPost2010PropOp35
 70
     1
102
RTVSPost2010Prop36
280
     0
102
RTVSPost2010PropOp36
 70
     1
102
RTVSPost2010Prop37
 90
       50
102
RTVSPost2010PropOp37
 70
     1
102
RTVSPost2010Prop38
140
0.0
102
RTVSPost2010PropOp38
 70
     1
102
RTVSPost2010Prop39
140
1.0
102
RTVSPost2010PropOp39
 70
     1
102
RTVSPost2010Prop40
 90
        0
102
RTVSPost2010PropOp40
 70
     1
102
RTVSPost2010Prop41ColorIndex
 90
       18
102
RTVSPost2010Prop41ColorRGB
 90
        0
102
RTVSPost2010PropOp41
 70
     1
102
RTVSPost2010Prop42
 90
       50
102
RTVSPost2010PropOp42
 70
     1
102
RTVSPost2010Prop43
 90
        3
102
RTVSPost2010PropOp43
 70
     1
102
RTVSPost2010Prop44ColorIndex
 90
        5
102
RTVSPost2010Prop44ColorRGB
 90
      255
102
RTVSPost2010PropOp44
 70
     1
102
RTVSPost2010Prop45
280
     0
102
RTVSPost2010PropOp45
 70
     1
102
RTVSPost2010Prop46
 90
       50
102
RTVSPost2010PropOp46
 70
     1
102
RTVSPost2010Prop47
 90
       50
102
RTVSPost2010PropOp47
 70
     1
102
RTVSPost2010Prop48
 90
       50
102
RTVSPost2010PropOp48
 70
     1
102
RTVSPost2010Prop49
280
     0
102
RTVSPost2010PropOp49
 70
     1
102
RTVSPost2010Prop50
 90
       50
102
RTVSPost2010PropOp50
 70
     1
102
RTVSPost2010Prop51ColorIndex
 90
      256
102
RTVSPost2010Prop51ColorRGB
 90
-16777216
102
RTVSPost2010PropOp51
 70
     0
102
RTVSPost2010Prop52
140
1.0
102
RTVSPost2010PropOp52
 70
     0
102
RTVSPost2010Prop53
 90
        2
102
RTVSPost2010PropOp53
 70
     1
102
RTVSPost2010Prop54
  1
strokes_ogs.tif
102
RTVSPost2010PropOp54
 70
     1
102
RTVSPost2010Prop55
280
     0
102
RTVSPost2010PropOp55
 70
     1
102
RTVSPost2010Prop56
140
1.0
102
RTVSPost2010PropOp56
 70
     1
102
RTVSPost2010Prop57
140
1.0
102
RTVSPost2010PropOp57
 70
     1
  0
ENDSEC
  0
EOF
