  0
SECTION
  2
HEADER
  9
$ACADVER
  1
AC1015
  9
$ACADMAINTVER
 70
     6
  9
$DWGCODEPAGE
  3
ANSI_1252
  9
$INSBASE
 10
462.0409999999993
 20
362.2577908485982
 30
0.0
  9
$EXTMIN
 10
425.7421892448474
 20
353.949355511612
 30
0.0
  9
$EXTMAX
 10
498.1522874156145
 20
373.9042905543829
 30
0.0
  9
$LIMMIN
 10
0.0
 20
0.0
  9
$LIMMAX
 10
12.0
 20
9.0
  9
$ORTHOMODE
 70
     0
  9
$REGENMODE
 70
     1
  9
$FILLMODE
 70
     1
  9
$QTEXTMODE
 70
     0
  9
$MIRRTEXT
 70
     1
  9
$LTSCALE
 40
1.0
  9
$ATTMODE
 70
     1
  9
$TEXTSIZE
 40
0.2
  9
$TRACEWID
 40
0.05
  9
$TEXTSTYLE
  7
Standard
  9
$CLAYER
  8
0
  9
$CELTYPE
  6
ByLayer
  9
$CECOLOR
 62
   256
  9
$CELTSCALE
 40
1.0
  9
$DISPSILH
 70
     0
  9
$DIMSCALE
 40
1.0
  9
$DIMASZ
 40
0.18
  9
$DIMEXO
 40
0.0625
  9
$DIMDLI
 40
0.38
  9
$DIMRND
 40
0.0
  9
$DIMDLE
 40
0.0
  9
$DIMEXE
 40
0.18
  9
$DIMTP
 40
0.0
  9
$DIMTM
 40
0.0
  9
$DIMTXT
 40
0.18
  9
$DIMCEN
 40
0.09
  9
$DIMTSZ
 40
0.0
  9
$DIMTOL
 70
     0
  9
$DIMLIM
 70
     0
  9
$DIMTIH
 70
     1
  9
$DIMTOH
 70
     1
  9
$DIMSE1
 70
     0
  9
$DIMSE2
 70
     0
  9
$DIMTAD
 70
     0
  9
$DIMZIN
 70
     0
  9
$DIMBLK
  1

  9
$DIMASO
 70
     1
  9
$DIMSHO
 70
     1
  9
$DIMPOST
  1

  9
$DIMAPOST
  1

  9
$DIMALT
 70
     0
  9
$DIMALTD
 70
     2
  9
$DIMALTF
 40
25.4
  9
$DIMLFAC
 40
1.0
  9
$DIMTOFL
 70
     0
  9
$DIMTVP
 40
0.0
  9
$DIMTIX
 70
     0
  9
$DIMSOXD
 70
     0
  9
$DIMSAH
 70
     0
  9
$DIMBLK1
  1

  9
$DIMBLK2
  1

  9
$DIMSTYLE
  2
Standard
  9
$DIMCLRD
 70
     0
  9
$DIMCLRE
 70
     0
  9
$DIMCLRT
 70
     0
  9
$DIMTFAC
 40
1.0
  9
$DIMGAP
 40
0.09
  9
$DIMJUST
 70
     0
  9
$DIMSD1
 70
     0
  9
$DIMSD2
 70
     0
  9
$DIMTOLJ
 70
     1
  9
$DIMTZIN
 70
     0
  9
$DIMALTZ
 70
     0
  9
$DIMALTTZ
 70
     0
  9
$DIMUPT
 70
     0
  9
$DIMDEC
 70
     4
  9
$DIMTDEC
 70
     4
  9
$DIMALTU
 70
     2
  9
$DIMALTTD
 70
     2
  9
$DIMTXSTY
  7
Standard
  9
$DIMAUNIT
 70
     0
  9
$DIMADEC
 70
     0
  9
$DIMALTRND
 40
0.0
  9
$DIMAZIN
 70
     0
  9
$DIMDSEP
 70
    46
  9
$DIMATFIT
 70
     3
  9
$DIMFRAC
 70
     0
  9
$DIMLDRBLK
  1

  9
$DIMLUNIT
 70
     2
  9
$DIMLWD
 70
    -2
  9
$DIMLWE
 70
    -2
  9
$DIMTMOVE
 70
     0
  9
$LUNITS
 70
     2
  9
$LUPREC
 70
     4
  9
$SKETCHINC
 40
0.1
  9
$FILLETRAD
 40
0.5
  9
$AUNITS
 70
     0
  9
$AUPREC
 70
     0
  9
$MENU
  1
.
  9
$ELEVATION
 40
0.0
  9
$PELEVATION
 40
0.0
  9
$THICKNESS
 40
0.0
  9
$LIMCHECK
 70
     0
  9
$CHAMFERA
 40
0.5
  9
$CHAMFERB
 40
0.5
  9
$CHAMFERC
 40
1.0
  9
$CHAMFERD
 40
0.0
  9
$SKPOLY
 70
     0
  9
$TDCREATE
 40
2458676.485268229
  9
$TDUCREATE
 40
2458676.651934896
  9
$TDUPDATE
 40
2458708.549180648
  9
$TDUUPDATE
 40
2458708.715847315
  9
$TDINDWG
 40
0.1600564468
  9
$TDUSRTIMER
 40
0.1600564468
  9
$USRTIMER
 70
     1
  9
$ANGBASE
 50
0.0
  9
$ANGDIR
 70
     0
  9
$PDMODE
 70
     0
  9
$PDSIZE
 40
0.0
  9
$PLINEWID
 40
0.0
  9
$SPLFRAME
 70
     0
  9
$SPLINETYPE
 70
     6
  9
$SPLINESEGS
 70
     8
  9
$HANDSEED
  5
16D
  9
$SURFTAB1
 70
     6
  9
$SURFTAB2
 70
     6
  9
$SURFTYPE
 70
     6
  9
$SURFU
 70
     6
  9
$SURFV
 70
     6
  9
$UCSBASE
  2

  9
$UCSNAME
  2

  9
$UCSORG
 10
0.0
 20
0.0
 30
0.0
  9
$UCSXDIR
 10
1.0
 20
0.0
 30
0.0
  9
$UCSYDIR
 10
0.0
 20
1.0
 30
0.0
  9
$UCSORTHOREF
  2

  9
$UCSORTHOVIEW
 70
     0
  9
$UCSORGTOP
 10
0.0
 20
0.0
 30
0.0
  9
$UCSORGBOTTOM
 10
0.0
 20
0.0
 30
0.0
  9
$UCSORGLEFT
 10
0.0
 20
0.0
 30
0.0
  9
$UCSORGRIGHT
 10
0.0
 20
0.0
 30
0.0
  9
$UCSORGFRONT
 10
0.0
 20
0.0
 30
0.0
  9
$UCSORGBACK
 10
0.0
 20
0.0
 30
0.0
  9
$PUCSBASE
  2

  9
$PUCSNAME
  2

  9
$PUCSORG
 10
0.0
 20
0.0
 30
0.0
  9
$PUCSXDIR
 10
1.0
 20
0.0
 30
0.0
  9
$PUCSYDIR
 10
0.0
 20
1.0
 30
0.0
  9
$PUCSORTHOREF
  2

  9
$PUCSORTHOVIEW
 70
     0
  9
$PUCSORGTOP
 10
0.0
 20
0.0
 30
0.0
  9
$PUCSORGBOTTOM
 10
0.0
 20
0.0
 30
0.0
  9
$PUCSORGLEFT
 10
0.0
 20
0.0
 30
0.0
  9
$PUCSORGRIGHT
 10
0.0
 20
0.0
 30
0.0
  9
$PUCSORGFRONT
 10
0.0
 20
0.0
 30
0.0
  9
$PUCSORGBACK
 10
0.0
 20
0.0
 30
0.0
  9
$USERI1
 70
     0
  9
$USERI2
 70
     0
  9
$USERI3
 70
     0
  9
$USERI4
 70
     0
  9
$USERI5
 70
     0
  9
$USERR1
 40
0.0
  9
$USERR2
 40
0.0
  9
$USERR3
 40
0.0
  9
$USERR4
 40
0.0
  9
$USERR5
 40
0.0
  9
$WORLDVIEW
 70
     1
  9
$SHADEDGE
 70
     3
  9
$SHADEDIF
 70
    70
  9
$TILEMODE
 70
     1
  9
$MAXACTVP
 70
    64
  9
$PINSBASE
 10
0.0
 20
0.0
 30
0.0
  9
$PLIMCHECK
 70
     0
  9
$PEXTMIN
 10
1.000000000000000E+20
 20
1.000000000000000E+20
 30
1.000000000000000E+20
  9
$PEXTMAX
 10
-1.000000000000000E+20
 20
-1.000000000000000E+20
 30
-1.000000000000000E+20
  9
$PLIMMIN
 10
-0.25
 20
-0.25
  9
$PLIMMAX
 10
10.75
 20
8.25
  9
$UNITMODE
 70
     0
  9
$VISRETAIN
 70
     1
  9
$PLINEGEN
 70
     0
  9
$PSLTSCALE
 70
     1
  9
$TREEDEPTH
 70
  3020
  9
$CMLSTYLE
  2
Standard
  9
$CMLJUST
 70
     0
  9
$CMLSCALE
 40
1.0
  9
$PROXYGRAPHICS
 70
     1
  9
$MEASUREMENT
 70
     0
  9
$CELWEIGHT
370
    -1
  9
$ENDCAPS
280
     0
  9
$JOINSTYLE
280
     0
  9
$LWDISPLAY
290
     1
  9
$INSUNITS
 70
     1
  9
$HYPERLINKBASE
  1

  9
$STYLESHEET
  1

  9
$XEDIT
290
     1
  9
$CEPSNTYPE
380
     0
  9
$PSTYLEMODE
290
     1
  9
$FINGERPRINTGUID
  2
{3FF96223-F9C2-48F7-A4C5-C732E40B2087}
  9
$VERSIONGUID
  2
{FAEB1C32-E019-11D5-929B-00C0DF256EC4}
  9
$EXTNAMES
290
     1
  9
$PSVPSCALE
 40
0.0
  9
$OLESTARTUP
290
     0
  0
ENDSEC
  0
SECTION
  2
CLASSES
  0
CLASS
  1
ACDBDICTIONARYWDFLT
  2
AcDbDictionaryWithDefault
  3
ObjectDBX Classes
 90
        0
280
     0
281
     0
  0
CLASS
  1
MATERIAL
  2
AcDbMaterial
  3
ObjectDBX Classes
 90
     1153
280
     0
281
     0
  0
CLASS
  1
VISUALSTYLE
  2
AcDbVisualStyle
  3
ObjectDBX Classes
 90
     4095
280
     0
281
     0
  0
CLASS
  1
SUN
  2
AcDbSun
  3
SCENEOE
 90
     1153
280
     0
281
     0
  0
CLASS
  1
SCALE
  2
AcDbScale
  3
ObjectDBX Classes
 90
     1153
280
     0
281
     0
  0
CLASS
  1
DICTIONARYVAR
  2
AcDbDictionaryVar
  3
ObjectDBX Classes
 90
        0
280
     0
281
     0
  0
CLASS
  1
MLEADERSTYLE
  2
AcDbMLeaderStyle
  3
ACDB_MLEADERSTYLE_CLASS
 90
     4095
280
     0
281
     0
  0
CLASS
  1
TABLESTYLE
  2
AcDbTableStyle
  3
ObjectDBX Classes
 90
     4095
280
     0
281
     0
  0
CLASS
  1
ACDBPLACEHOLDER
  2
AcDbPlaceHolder
  3
ObjectDBX Classes
 90
        0
280
     0
281
     0
  0
CLASS
  1
LAYOUT
  2
AcDbLayout
  3
ObjectDBX Classes
 90
        0
280
     0
281
     0
  0
ENDSEC
  0
SECTION
  2
TABLES
  0
TABLE
  2
VPORT
  5
1F
102
{ACAD_XDICTIONARY
360
131
102
}
330
0
100
AcDbSymbolTable
 70
     1
  0
VPORT
  5
25
330
1F
100
AcDbSymbolTableRecord
100
AcDbViewportTableRecord
  2
*Active
 70
     0
 10
0.0
 20
0.0
 11
1.0
 21
1.0
 12
461.9472383302309
 22
363.9268230329974
 13
0.0
 23
0.0
 14
0.5
 24
0.5
 15
0.5
 25
0.5
 16
0.0
 26
0.0
 36
1.0
 17
0.0
 27
0.0
 37
0.0
 40
20.35403374362632
 41
3.628681226752436
 42
50.0
 43
0.0
 44
0.0
 50
0.0
 51
0.0
 71
    16
 72
   100
 73
     1
 74
     3
 75
     0
 76
     0
 77
     0
 78
     0
281
     0
 65
     1
110
0.0
120
0.0
130
0.0
111
1.0
121
0.0
131
0.0
112
0.0
122
1.0
132
0.0
 79
     0
146
0.0
  0
ENDTAB
  0
TABLE
  2
LTYPE
  5
9
330
0
100
AcDbSymbolTable
 70
     1
  0
LTYPE
  5
A
330
9
100
AcDbSymbolTableRecord
100
AcDbLinetypeTableRecord
  2
ByBlock
 70
     0
  3

 72
    65
 73
     0
 40
0.0
  0
LTYPE
  5
B
330
9
100
AcDbSymbolTableRecord
100
AcDbLinetypeTableRecord
  2
ByLayer
 70
     0
  3

 72
    65
 73
     0
 40
0.0
  0
LTYPE
  5
8
330
9
100
AcDbSymbolTableRecord
100
AcDbLinetypeTableRecord
  2
Continuous
 70
     0
  3
Solid line
 72
    65
 73
     0
 40
0.0
  0
ENDTAB
  0
TABLE
  2
LAYER
  5
2
330
0
100
AcDbSymbolTable
 70
     2
  0
LAYER
  5
1
330
2
100
AcDbSymbolTableRecord
100
AcDbLayerTableRecord
  2
0
 70
     0
 62
     7
  6
Continuous
370
    -3
390
3
  0
LAYER
  5
4E
330
2
100
AcDbSymbolTableRecord
100
AcDbLayerTableRecord
  2
Layer 1
 70
     0
 62
     7
  6
Continuous
370
    -3
390
3
  0
ENDTAB
  0
TABLE
  2
STYLE
  5
D
330
0
100
AcDbSymbolTable
 70
     1
  0
STYLE
  5
C
330
D
100
AcDbSymbolTableRecord
100
AcDbTextStyleTableRecord
  2
Standard
 70
     0
 40
0.0
 41
1.0
 50
0.0
 71
     0
 42
0.2
  3
txt
  4

  0
ENDTAB
  0
TABLE
  2
VIEW
  5
1D
330
0
100
AcDbSymbolTable
 70
     0
  0
ENDTAB
  0
TABLE
  2
UCS
  5
1E
330
0
100
AcDbSymbolTable
 70
     0
  0
ENDTAB
  0
TABLE
  2
APPID
  5
20
330
0
100
AcDbSymbolTable
 70
     2
  0
APPID
  5
24
330
20
100
AcDbSymbolTableRecord
100
AcDbRegAppTableRecord
  2
ACAD
 70
     0
  0
APPID
  5
16A
330
20
100
AcDbSymbolTableRecord
100
AcDbRegAppTableRecord
  2
ACAD_MLEADERVER
 70
     0
  0
ENDTAB
  0
TABLE
  2
DIMSTYLE
  5
10
330
0
100
AcDbSymbolTable
 70
     1
100
AcDbDimStyleTable
  0
DIMSTYLE
105
F
330
10
100
AcDbSymbolTableRecord
100
AcDbDimStyleTableRecord
  2
Standard
 70
     0
178
     0
340
C
  0
ENDTAB
  0
TABLE
  2
BLOCK_RECORD
  5
13
330
0
100
AcDbSymbolTable
 70
     0
  0
BLOCK_RECORD
  5
14
330
13
100
AcDbSymbolTableRecord
100
AcDbBlockTableRecord
  2
*Model_Space
340
17
  0
BLOCK_RECORD
  5
19
330
13
100
AcDbSymbolTableRecord
100
AcDbBlockTableRecord
  2
*Paper_Space
340
1C
  0
ENDTAB
  0
ENDSEC
  0
SECTION
  2
BLOCKS
  0
BLOCK
  5
15
330
14
100
AcDbEntity
  8
0
100
AcDbBlockBegin
  2
*Model_Space
 70
     0
 10
0.0
 20
0.0
 30
0.0
  3
*Model_Space
  1

  0
ENDBLK
  5
16
330
14
100
AcDbEntity
  8
0
100
AcDbBlockEnd
  0
BLOCK
  5
1A
330
19
100
AcDbEntity
 67
     1
  8
0
100
AcDbBlockBegin
  2
*Paper_Space
 70
     0
 10
0.0
 20
0.0
 30
0.0
  3
*Paper_Space
  1

  0
ENDBLK
  5
1B
330
19
100
AcDbEntity
 67
     1
  8
0
100
AcDbBlockEnd
  0
ENDSEC
  0
SECTION
  2
ENTITIES
  0
SPLINE
  5
4D
330
14
100
AcDbEntity
  8
Layer 1
370
     0
100
AcDbSpline
210
0.0
220
0.0
230
1.0
 70
    11
 71
     3
 72
    32
 73
    28
 74
     0
 42
0.000000001
 43
0.0000000001
 40
0.0
 40
0.0
 40
0.0
 40
0.0
 40
1.0
 40
1.0
 40
1.0
 40
2.0
 40
2.0
 40
2.0
 40
3.0
 40
3.0
 40
3.0
 40
4.0
 40
4.0
 40
4.0
 40
5.0
 40
5.0
 40
5.0
 40
6.0
 40
6.0
 40
6.0
 40
7.0
 40
7.0
 40
7.0
 40
8.0
 40
8.0
 40
8.0
 40
9.0
 40
9.0
 40
9.0
 40
9.0
 10
491.8515875747835
 20
357.9804909566519
 30
0.0
 10
491.6190875806569
 20
358.214790950733
 30
0.0
 10
491.2968875887964
 20
358.3573909471306
 30
0.0
 10
490.9423875977518
 20
358.3573909471306
 30
0.0
 10
490.5858876067578
 20
358.3573909471306
 30
0.0
 10
490.2655876148492
 20
358.214790950733
 30
0.0
 10
490.0321876207454
 20
357.9804909566519
 30
0.0
 10
489.7987876266416
 20
357.7479999999996
 30
0.0
 10
489.6552876302667
 20
357.4276909706168
 30
0.0
 10
489.6552876302667
 20
357.0702909796455
 30
0.0
 10
489.6552876302667
 20
356.7147909886262
 30
0.0
 10
489.7987876266416
 20
356.3944909967176
 30
0.0
 10
490.0321876207454
 20
356.1620910025886
 30
0.0
 10
490.2655876148492
 20
355.92769100851
 30
0.0
 10
490.5858876067578
 20
355.7851910121099
 30
0.0
 10
490.9423875977518
 20
355.7851910121099
 30
0.0
 10
491.2968875887964
 20
355.7851910121099
 30
0.0
 10
491.6190875806569
 20
355.9296910084595
 30
0.0
 10
491.8515875747835
 20
356.1620910025886
 30
0.0
 10
492.0840000000007
 20
356.3944909967176
 30
0.0
 10
492.2284875652622
 20
356.7147909886262
 30
0.0
 10
492.2284875652622
 20
357.0702909796455
 30
0.0
 10
492.2284875652622
 20
357.4276909706168
 30
0.0
 10
492.0840000000007
 20
357.7479999999996
 30
0.0
 10
491.8515875747835
 20
357.9804909566519
 30
0.0
 10
491.8515875747835
 20
357.9804909566519
 30
0.0
 10
491.8515875747835
 20
357.9804909566519
 30
0.0
 10
491.8515875747835
 20
357.9804909566519
 30
0.0
  0
SPLINE
  5
4F
330
14
100
AcDbEntity
  8
Layer 1
370
     0
100
AcDbSpline
210
0.0
220
0.0
230
1.0
 70
    11
 71
     3
 72
    20
 73
    16
 74
     0
 42
0.000000001
 43
0.0000000001
 40
0.0
 40
0.0
 40
0.0
 40
0.0
 40
1.0
 40
1.0
 40
1.0
 40
2.0
 40
2.0
 40
2.0
 40
3.0
 40
3.0
 40
3.0
 40
4.0
 40
4.0
 40
4.0
 40
5.0
 40
5.0
 40
5.0
 40
5.0
 10
490.3437876128737
 20
357.8847909590695
 30
0.0
 10
490.2831876144046
 20
357.9452909575411
 30
0.0
 10
490.1854876168727
 20
357.9452909575411
 30
0.0
 10
490.125
 20
357.8847909590695
 30
0.0
 10
490.0644876199294
 20
357.8241909606004
 30
0.0
 10
490.0644876199294
 20
357.726590963066
 30
0.0
 10
490.125
 20
357.6659999999993
 30
0.0
 10
490.1854876168727
 20
357.6054909661252
 30
0.0
 10
490.2831876144046
 20
357.6054909661252
 30
0.0
 10
490.3437876128737
 20
357.6659999999993
 30
0.0
 10
490.4042876113454
 20
357.726590963066
 30
0.0
 10
490.4042876113454
 20
357.8241909606004
 30
0.0
 10
490.3437876128737
 20
357.8847909590695
 30
0.0
 10
490.3437876128737
 20
357.8847909590695
 30
0.0
 10
490.3437876128737
 20
357.8847909590695
 30
0.0
 10
490.3437876128737
 20
357.8847909590695
 30
0.0
  0
SPLINE
  5
50
330
14
100
AcDbEntity
  8
Layer 1
370
     0
100
AcDbSpline
210
0.0
220
0.0
230
1.0
 70
    11
 71
     3
 72
    20
 73
    16
 74
     0
 42
0.000000001
 43
0.0000000001
 40
0.0
 40
0.0
 40
0.0
 40
0.0
 40
1.0
 40
1.0
 40
1.0
 40
2.0
 40
2.0
 40
2.0
 40
3.0
 40
3.0
 40
3.0
 40
4.0
 40
4.0
 40
4.0
 40
5.0
 40
5.0
 40
5.0
 40
5.0
 10
491.0937875939271
 20
358.0702909543834
 30
0.0
 10
491.0937875939271
 20
358.1552909522361
 30
0.0
 10
491.025387595655
 20
358.2245909504854
 30
0.0
 10
490.9394875978251
 20
358.2245909504854
 30
0.0
 10
490.8544875999723
 20
358.2245909504854
 30
0.0
 10
490.785187601723
 20
358.1552909522361
 30
0.0
 10
490.785187601723
 20
358.0702909543834
 30
0.0
 10
490.785187601723
 20
357.9843909565534
 30
0.0
 10
490.8544875999723
 20
357.9159999999993
 30
0.0
 10
490.9394875978251
 20
357.9159999999993
 30
0.0
 10
491.025387595655
 20
357.9159999999993
 30
0.0
 10
491.0937875939271
 20
357.9843909565534
 30
0.0
 10
491.0937875939271
 20
358.0702909543834
 30
0.0
 10
491.0937875939271
 20
358.0702909543834
 30
0.0
 10
491.0937875939271
 20
358.0702909543834
 30
0.0
 10
491.0937875939271
 20
358.0702909543834
 30
0.0
  0
SPLINE
  5
51
330
14
100
AcDbEntity
  8
Layer 1
370
     0
100
AcDbSpline
210
0.0
220
0.0
230
1.0
 70
    11
 71
     3
 72
    20
 73
    16
 74
     0
 42
0.000000001
 43
0.0000000001
 40
0.0
 40
0.0
 40
0.0
 40
0.0
 40
1.0
 40
1.0
 40
1.0
 40
2.0
 40
2.0
 40
2.0
 40
3.0
 40
3.0
 40
3.0
 40
4.0
 40
4.0
 40
4.0
 40
5.0
 40
5.0
 40
5.0
 40
5.0
 10
491.7558875772011
 20
357.6698909644983
 30
0.0
 10
491.8163875756727
 20
357.7304909629675
 30
0.0
 10
491.8163875756727
 20
357.8280909605019
 30
0.0
 10
491.7558875772011
 20
357.888690958971
 30
0.0
 10
491.6952875787319
 20
357.9491909574426
 30
0.0
 10
491.5976875811975
 20
357.9491909574426
 30
0.0
 10
491.5370875827284
 20
357.888690958971
 30
0.0
 10
491.4765875842568
 20
357.8280909605019
 30
0.0
 10
491.4765875842568
 20
357.7304909629675
 30
0.0
 10
491.5370875827284
 20
357.6698909644983
 30
0.0
 10
491.5976875811975
 20
357.6093909660267
 30
0.0
 10
491.6952875787319
 20
357.6093909660267
 30
0.0
 10
491.7558875772011
 20
357.6698909644983
 30
0.0
 10
491.7558875772011
 20
357.6698909644983
 30
0.0
 10
491.7558875772011
 20
357.6698909644983
 30
0.0
 10
491.7558875772011
 20
357.6698909644983
 30
0.0
  0
SPLINE
  5
52
330
14
100
AcDbEntity
  8
Layer 1
370
     0
100
AcDbSpline
210
0.0
220
0.0
230
1.0
 70
    11
 71
     3
 72
    20
 73
    16
 74
     0
 42
0.000000001
 43
0.0000000001
 40
0.0
 40
0.0
 40
0.0
 40
0.0
 40
1.0
 40
1.0
 40
1.0
 40
2.0
 40
2.0
 40
2.0
 40
3.0
 40
3.0
 40
3.0
 40
4.0
 40
4.0
 40
4.0
 40
5.0
 40
5.0
 40
5.0
 40
5.0
 10
491.9413875725149
 20
356.9198909834449
 30
0.0
 10
492.0263875703677
 20
356.9198909834449
 30
0.0
 10
492.095687568617
 20
356.988290981717
 30
0.0
 10
492.095687568617
 20
357.074190979547
 30
0.0
 10
492.095687568617
 20
357.158190977425
 30
0.0
 10
492.0263875703677
 20
357.228490975649
 30
0.0
 10
491.9413875725149
 20
357.228490975649
 30
0.0
 10
491.855487574685
 20
357.228490975649
 30
0.0
 10
491.7870875764129
 20
357.158190977425
 30
0.0
 10
491.7870875764129
 20
357.074190979547
 30
0.0
 10
491.7870875764129
 20
356.988290981717
 30
0.0
 10
491.855487574685
 20
356.9198909834449
 30
0.0
 10
491.9413875725149
 20
356.9198909834449
 30
0.0
 10
491.9413875725149
 20
356.9198909834449
 30
0.0
 10
491.9413875725149
 20
356.9198909834449
 30
0.0
 10
491.9413875725149
 20
356.9198909834449
 30
0.0
  0
SPLINE
  5
53
330
14
100
AcDbEntity
  8
Layer 1
370
     0
100
AcDbSpline
210
0.0
220
0.0
230
1.0
 70
    11
 71
     3
 72
    20
 73
    16
 74
     0
 42
0.000000001
 43
0.0000000001
 40
0.0
 40
0.0
 40
0.0
 40
0.0
 40
1.0
 40
1.0
 40
1.0
 40
2.0
 40
2.0
 40
2.0
 40
3.0
 40
3.0
 40
3.0
 40
4.0
 40
4.0
 40
4.0
 40
5.0
 40
5.0
 40
5.0
 40
5.0
 10
491.5409999999993
 20
356.257791000171
 30
0.0
 10
491.4804875841583
 20
356.3183909986401
 30
0.0
 10
491.4804875841583
 20
356.4159999999993
 30
0.0
 10
491.5409999999993
 20
356.4765909946436
 30
0.0
 10
491.6005875811243
 20
356.5370909931153
 30
0.0
 10
491.6991875786334
 20
356.5370909931153
 30
0.0
 10
491.7597875771025
 20
356.4765909946436
 30
0.0
 10
491.8192875755994
 20
356.4159999999993
 30
0.0
 10
491.8192875755994
 20
356.3183909986401
 30
0.0
 10
491.7597875771025
 20
356.257791000171
 30
0.0
 10
491.6991875786334
 20
356.1972910016993
 30
0.0
 10
491.6005875811243
 20
356.1972910016993
 30
0.0
 10
491.5409999999993
 20
356.257791000171
 30
0.0
 10
491.5409999999993
 20
356.257791000171
 30
0.0
 10
491.5409999999993
 20
356.257791000171
 30
0.0
 10
491.5409999999993
 20
356.257791000171
 30
0.0
  0
SPLINE
  5
54
330
14
100
AcDbEntity
  8
Layer 1
370
     0
100
AcDbSpline
210
0.0
220
0.0
230
1.0
 70
    11
 71
     3
 72
    20
 73
    16
 74
     0
 42
0.000000001
 43
0.0000000001
 40
0.0
 40
0.0
 40
0.0
 40
0.0
 40
1.0
 40
1.0
 40
1.0
 40
2.0
 40
2.0
 40
2.0
 40
3.0
 40
3.0
 40
3.0
 40
4.0
 40
4.0
 40
4.0
 40
5.0
 40
5.0
 40
5.0
 40
5.0
 10
490.7909999999993
 20
356.0722910048571
 30
0.0
 10
490.7909999999993
 20
356.1581910026871
 30
0.0
 10
490.8593875998486
 20
356.2265910009592
 30
0.0
 10
490.9452875976785
 20
356.2265910009592
 30
0.0
 10
491.0302875955313
 20
356.2265910009592
 30
0.0
 10
491.0995875937806
 20
356.1581910026871
 30
0.0
 10
491.0995875937806
 20
356.0722910048571
 30
0.0
 10
491.0995875937806
 20
355.9862910070296
 30
0.0
 10
491.0302875955313
 20
355.9179999999997
 30
0.0
 10
490.9452875976785
 20
355.9179999999997
 30
0.0
 10
490.8593875998486
 20
355.9179999999997
 30
0.0
 10
490.7909999999993
 20
355.9862910070296
 30
0.0
 10
490.7909999999993
 20
356.0722910048571
 30
0.0
 10
490.7909999999993
 20
356.0722910048571
 30
0.0
 10
490.7909999999993
 20
356.0722910048571
 30
0.0
 10
490.7909999999993
 20
356.0722910048571
 30
0.0
  0
SPLINE
  5
55
330
14
100
AcDbEntity
  8
Layer 1
370
     0
100
AcDbSpline
210
0.0
220
0.0
230
1.0
 70
    11
 71
     3
 72
    20
 73
    16
 74
     0
 42
0.000000001
 43
0.0000000001
 40
0.0
 40
0.0
 40
0.0
 40
0.0
 40
1.0
 40
1.0
 40
1.0
 40
2.0
 40
2.0
 40
2.0
 40
3.0
 40
3.0
 40
3.0
 40
4.0
 40
4.0
 40
4.0
 40
5.0
 40
5.0
 40
5.0
 40
5.0
 10
490.1288876183025
 20
356.4726909947422
 30
0.0
 10
490.1894876167717
 20
356.5331909932138
 30
0.0
 10
490.2870876143061
 20
356.5331909932138
 30
0.0
 10
490.3476876127752
 20
356.4726909947422
 30
0.0
 10
490.4081876112468
 20
356.412090996273
 30
0.0
 10
490.4081876112468
 20
356.3144909987386
 30
0.0
 10
490.3476876127752
 20
356.2538910002695
 30
0.0
 10
490.2870876143061
 20
356.1933910017979
 30
0.0
 10
490.1894876167717
 20
356.1933910017979
 30
0.0
 10
490.1288876183025
 20
356.2538910002695
 30
0.0
 10
490.0683876198309
 20
356.3144909987386
 30
0.0
 10
490.0683876198309
 20
356.412090996273
 30
0.0
 10
490.1288876183025
 20
356.4726909947422
 30
0.0
 10
490.1288876183025
 20
356.4726909947422
 30
0.0
 10
490.1288876183025
 20
356.4726909947422
 30
0.0
 10
490.1288876183025
 20
356.4726909947422
 30
0.0
  0
SPLINE
  5
56
330
14
100
AcDbEntity
  8
Layer 1
370
     0
100
AcDbSpline
210
0.0
220
0.0
230
1.0
 70
    11
 71
     3
 72
    20
 73
    16
 74
     0
 42
0.000000001
 43
0.0000000001
 40
0.0
 40
0.0
 40
0.0
 40
0.0
 40
1.0
 40
1.0
 40
1.0
 40
2.0
 40
2.0
 40
2.0
 40
3.0
 40
3.0
 40
3.0
 40
4.0
 40
4.0
 40
4.0
 40
5.0
 40
5.0
 40
5.0
 40
5.0
 10
489.9433876229887
 20
357.2226909757956
 30
0.0
 10
489.8583876251359
 20
357.2226909757956
 30
0.0
 10
489.7890876268866
 20
357.1542909775235
 30
0.0
 10
489.7890876268866
 20
357.0683909796935
 30
0.0
 10
489.7890876268866
 20
356.982390981866
 30
0.0
 10
489.8583876251359
 20
356.9140909835914
 30
0.0
 10
489.9433876229887
 20
356.9140909835914
 30
0.0
 10
490.0292876208186
 20
356.9140909835914
 30
0.0
 10
490.0976876190907
 20
356.982390981866
 30
0.0
 10
490.0976876190907
 20
357.0683909796935
 30
0.0
 10
490.0976876190907
 20
357.1542909775235
 30
0.0
 10
490.0292876208186
 20
357.2226909757956
 30
0.0
 10
489.9433876229887
 20
357.2226909757956
 30
0.0
 10
489.9433876229887
 20
357.2226909757956
 30
0.0
 10
489.9433876229887
 20
357.2226909757956
 30
0.0
 10
489.9433876229887
 20
357.2226909757956
 30
0.0
  0
SPLINE
  5
57
330
14
100
AcDbEntity
  8
Layer 1
370
     0
100
AcDbSpline
210
0.0
220
0.0
230
1.0
 70
    11
 71
     3
 72
    32
 73
    28
 74
     0
 42
0.000000001
 43
0.0000000001
 40
0.0
 40
0.0
 40
0.0
 40
0.0
 40
1.0
 40
1.0
 40
1.0
 40
2.0
 40
2.0
 40
2.0
 40
3.0
 40
3.0
 40
3.0
 40
4.0
 40
4.0
 40
4.0
 40
5.0
 40
5.0
 40
5.0
 40
6.0
 40
6.0
 40
6.0
 40
7.0
 40
7.0
 40
7.0
 40
8.0
 40
8.0
 40
8.0
 40
9.0
 40
9.0
 40
9.0
 40
9.0
 10
490.9423875977518
 20
360.1972909006508
 30
0.0
 10
490.0780876195859
 20
360.1972909006508
 30
0.0
 10
489.2978876392954
 20
359.8466909095077
 30
0.0
 10
488.7323876535811
 20
359.2812909237909
 30
0.0
 10
488.1659999999993
 20
358.7157909380767
 30
0.0
 10
487.8163876767212
 20
357.9335909578367
 30
0.0
 10
487.8163876767212
 20
357.0702909796455
 30
0.0
 10
487.8163876767212
 20
356.2070000000003
 30
0.0
 10
488.1659999999993
 20
355.4257910211891
 30
0.0
 10
488.7323876535811
 20
354.8612910354495
 30
0.0
 10
489.2978876392954
 20
354.294891049758
 30
0.0
 10
490.0780876195859
 20
353.9452910585896
 30
0.0
 10
490.9423875977518
 20
353.9452910585896
 30
0.0
 10
491.8046875759683
 20
353.9452910585896
 30
0.0
 10
492.5868875562082
 20
354.294891049758
 30
0.0
 10
493.152287541925
 20
354.8612910354495
 30
0.0
 10
493.718787527614
 20
355.4257910211891
 30
0.0
 10
494.0673875188077
 20
356.2070000000003
 30
0.0
 10
494.0673875188077
 20
357.0702909796455
 30
0.0
 10
494.0673875188077
 20
357.9335909578367
 30
0.0
 10
493.718787527614
 20
358.7157909380767
 30
0.0
 10
493.152287541925
 20
359.2812909237909
 30
0.0
 10
492.5868875562082
 20
359.8466909095077
 30
0.0
 10
491.8046875759683
 20
360.1972909006508
 30
0.0
 10
490.9423875977518
 20
360.1972909006508
 30
0.0
 10
490.9423875977518
 20
360.1972909006508
 30
0.0
 10
490.9423875977518
 20
360.1972909006508
 30
0.0
 10
490.9423875977518
 20
360.1972909006508
 30
0.0
  0
POLYLINE
  5
58
330
14
100
AcDbEntity
  8
Layer 1
370
     0
100
AcDb2dPolyline
 66
     1
 10
0.0
 20
0.0
 30
0.0
  0
VERTEX
  5
59
330
58
100
AcDbEntity
  8
Layer 1
370
     0
100
AcDbVertex
100
AcDb2dVertex
 10
494.2890875132071
 20
360.9901908806205
 30
0.0
  0
VERTEX
  5
5A
330
58
100
AcDbEntity
  8
Layer 1
370
     0
100
AcDbVertex
100
AcDb2dVertex
 10
494.2890875132071
 20
360.6562908890555
 30
0.0
  0
VERTEX
  5
5B
330
58
100
AcDbEntity
  8
Layer 1
370
     0
100
AcDbVertex
100
AcDb2dVertex
 10
497.1454874410483
 20
360.6562908890555
 30
0.0
  0
VERTEX
  5
5C
330
58
100
AcDbEntity
  8
Layer 1
370
     0
100
AcDbVertex
100
AcDb2dVertex
 10
497.1454874410483
 20
360.9901908806205
 30
0.0
  0
VERTEX
  5
5D
330
58
100
AcDbEntity
  8
Layer 1
370
     0
100
AcDbVertex
100
AcDb2dVertex
 10
494.2890875132071
 20
360.9901908806205
 30
0.0
  0
VERTEX
  5
5E
330
58
100
AcDbEntity
  8
Layer 1
370
     0
100
AcDbVertex
100
AcDb2dVertex
 10
494.2890875132071
 20
360.9901908806205
 30
0.0
  0
SEQEND
  5
5F
330
58
100
AcDbEntity
  8
Layer 1
370
     0
  0
POLYLINE
  5
60
330
14
100
AcDbEntity
  8
Layer 1
370
     0
100
AcDb2dPolyline
 66
     1
 10
0.0
 20
0.0
 30
0.0
  0
VERTEX
  5
61
330
60
100
AcDbEntity
  8
Layer 1
370
     0
100
AcDbVertex
100
AcDb2dVertex
 10
495.0644874936188
 20
359.769490911458
 30
0.0
  0
VERTEX
  5
62
330
60
100
AcDbEntity
  8
Layer 1
370
     0
100
AcDbVertex
100
AcDb2dVertex
 10
495.0644874936188
 20
359.4354909198955
 30
0.0
  0
VERTEX
  5
63
330
60
100
AcDbEntity
  8
Layer 1
370
     0
100
AcDbVertex
100
AcDb2dVertex
 10
497.1454874410483
 20
359.4354909198955
 30
0.0
  0
VERTEX
  5
64
330
60
100
AcDbEntity
  8
Layer 1
370
     0
100
AcDbVertex
100
AcDb2dVertex
 10
497.1454874410483
 20
359.769490911458
 30
0.0
  0
VERTEX
  5
65
330
60
100
AcDbEntity
  8
Layer 1
370
     0
100
AcDbVertex
100
AcDb2dVertex
 10
495.0644874936188
 20
359.769490911458
 30
0.0
  0
VERTEX
  5
66
330
60
100
AcDbEntity
  8
Layer 1
370
     0
100
AcDbVertex
100
AcDb2dVertex
 10
495.0644874936188
 20
359.769490911458
 30
0.0
  0
SEQEND
  5
67
330
60
100
AcDbEntity
  8
Layer 1
370
     0
  0
POLYLINE
  5
68
330
14
100
AcDbEntity
  8
Layer 1
370
     0
100
AcDb2dPolyline
 66
     1
 10
0.0
 20
0.0
 30
0.0
  0
VERTEX
  5
69
330
68
100
AcDbEntity
  8
Layer 1
370
     0
100
AcDbVertex
100
AcDb2dVertex
 10
495.4950874827409
 20
358.5155909431342
 30
0.0
  0
VERTEX
  5
6A
330
68
100
AcDbEntity
  8
Layer 1
370
     0
100
AcDbVertex
100
AcDb2dVertex
 10
495.4950874827409
 20
358.1835909515212
 30
0.0
  0
VERTEX
  5
6B
330
68
100
AcDbEntity
  8
Layer 1
370
     0
100
AcDbVertex
100
AcDb2dVertex
 10
497.1454874410483
 20
358.1835909515212
 30
0.0
  0
VERTEX
  5
6C
330
68
100
AcDbEntity
  8
Layer 1
370
     0
100
AcDbVertex
100
AcDb2dVertex
 10
497.1454874410483
 20
358.5155909431342
 30
0.0
  0
VERTEX
  5
6D
330
68
100
AcDbEntity
  8
Layer 1
370
     0
100
AcDbVertex
100
AcDb2dVertex
 10
495.4950874827409
 20
358.5155909431342
 30
0.0
  0
VERTEX
  5
6E
330
68
100
AcDbEntity
  8
Layer 1
370
     0
100
AcDbVertex
100
AcDb2dVertex
 10
495.4950874827409
 20
358.5155909431342
 30
0.0
  0
SEQEND
  5
6F
330
68
100
AcDbEntity
  8
Layer 1
370
     0
  0
SPLINE
  5
70
330
14
100
AcDbEntity
  8
Layer 1
370
     0
100
AcDbSpline
210
0.0
220
0.0
230
1.0
 70
    11
 71
     3
 72
    35
 73
    31
 74
     0
 42
0.000000001
 43
0.0000000001
 40
0.0
 40
0.0
 40
0.0
 40
0.0
 40
1.0
 40
1.0
 40
1.0
 40
2.0
 40
2.0
 40
2.0
 40
3.0
 40
3.0
 40
3.0
 40
4.0
 40
4.0
 40
4.0
 40
5.0
 40
5.0
 40
5.0
 40
6.0
 40
6.0
 40
6.0
 40
7.0
 40
7.0
 40
7.0
 40
8.0
 40
8.0
 40
8.0
 40
9.0
 40
9.0
 40
9.0
 40
10.0
 40
10.0
 40
10.0
 40
10.0
 10
491.2520000000004
 20
368.4765906914981
 30
0.0
 10
491.2520000000004
 20
368.4765906914981
 30
0.0
 10
491.2520000000004
 20
365.8017907590693
 30
0.0
 10
491.2520000000004
 20
365.8017907590693
 30
0.0
 10
491.2520000000004
 20
365.8017907590693
 30
0.0
 10
496.7265874516306
 20
365.0820000000003
 30
0.0
 10
496.7265874516306
 20
365.0820000000003
 30
0.0
 10
496.6308874540482
 20
366.1718907497198
 30
0.0
 10
496.3847874602652
 20
367.2187907232728
 30
0.0
 10
495.9071874723304
 20
368.2030906984073
 30
0.0
 10
495.9071874723304
 20
368.2030906984073
 30
0.0
 10
495.9071874723304
 20
367.0136907284541
 30
0.0
 10
495.9071874723304
 20
367.0136907284541
 30
0.0
 10
495.9071874723304
 20
366.9081907311192
 30
0.0
 10
495.8212874745004
 20
366.8241907332413
 30
0.0
 10
495.7167874771403
 20
366.8241907332413
 30
0.0
 10
495.7167874771403
 20
366.8241907332413
 30
0.0
 10
495.0194874947556
 20
366.8241907332413
 30
0.0
 10
495.0194874947556
 20
366.8241907332413
 30
0.0
 10
494.9140874974182
 20
366.8241907332413
 30
0.0
 10
494.8280874995908
 20
366.9081907311192
 30
0.0
 10
494.8280874995908
 20
367.0136907284541
 30
0.0
 10
494.8280874995908
 20
367.0136907284541
 30
0.0
 10
494.8280874995908
 20
368.4765906914981
 30
0.0
 10
494.8280874995908
 20
368.4765906914981
 30
0.0
 10
494.8280874995908
 20
368.4765906914981
 30
0.0
 10
491.2520000000004
 20
368.4765906914981
 30
0.0
 10
491.2520000000004
 20
368.4765906914981
 30
0.0
 10
491.2520000000004
 20
368.4765906914981
 30
0.0
 10
491.2520000000004
 20
368.4765906914981
 30
0.0
 10
491.2520000000004
 20
368.4765906914981
 30
0.0
  0
SPLINE
  5
71
330
14
100
AcDbEntity
  8
Layer 1
370
     0
100
AcDbSpline
210
0.0
220
0.0
230
1.0
 70
    11
 71
     3
 72
    65
 73
    61
 74
     0
 42
0.000000001
 43
0.0000000001
 40
0.0
 40
0.0
 40
0.0
 40
0.0
 40
1.0
 40
1.0
 40
1.0
 40
2.0
 40
2.0
 40
2.0
 40
3.0
 40
3.0
 40
3.0
 40
4.0
 40
4.0
 40
4.0
 40
5.0
 40
5.0
 40
5.0
 40
6.0
 40
6.0
 40
6.0
 40
7.0
 40
7.0
 40
7.0
 40
8.0
 40
8.0
 40
8.0
 40
9.0
 40
9.0
 40
9.0
 40
10.0
 40
10.0
 40
10.0
 40
11.0
 40
11.0
 40
11.0
 40
12.0
 40
12.0
 40
12.0
 40
13.0
 40
13.0
 40
13.0
 40
14.0
 40
14.0
 40
14.0
 40
15.0
 40
15.0
 40
15.0
 40
16.0
 40
16.0
 40
16.0
 40
17.0
 40
17.0
 40
17.0
 40
18.0
 40
18.0
 40
18.0
 40
19.0
 40
19.0
 40
19.0
 40
20.0
 40
20.0
 40
20.0
 40
20.0
 10
497.5448874309586
 20
362.0840000000007
 30
0.0
 10
497.5448874309586
 20
362.0840000000007
 30
0.0
 10
498.1522874156144
 20
361.2597908738098
 30
0.0
 10
498.1522874156144
 20
361.2597908738098
 30
0.0
 10
498.1522874156144
 20
361.2597908738098
 30
0.0
 10
498.1522874156144
 20
358.3729999999996
 30
0.0
 10
498.1522874156144
 20
358.3729999999996
 30
0.0
 10
498.1522874156144
 20
358.3729999999996
 30
0.0
 10
497.3915874348313
 20
357.4843909691845
 30
0.0
 10
497.3915874348313
 20
357.4843909691845
 30
0.0
 10
497.3915874348313
 20
357.4843909691845
 30
0.0
 10
495.1073874925351
 20
357.4843909691845
 30
0.0
 10
495.1073874925351
 20
357.4843909691845
 30
0.0
 10
495.1073874925351
 20
357.3476909726378
 30
0.0
 10
495.1073874925351
 20
357.2108909760937
 30
0.0
 10
495.1044874926083
 20
357.072290979595
 30
0.0
 10
494.9315874969761
 20
357.072290979595
 30
0.0
 10
494.7587875013414
 20
357.072290979595
 30
0.0
 10
494.5858875057093
 20
357.072290979595
 30
0.0
 10
494.5820000000003
 20
359.4394909197945
 30
0.0
 10
493.1015875432058
 20
361.1796908758333
 30
0.0
 10
490.2284876157864
 20
360.8290908846902
 30
0.0
 10
490.2284876157864
 20
360.8290908846902
 30
0.0
 10
490.2284876157864
 20
362.0840000000007
 30
0.0
 10
490.2284876157864
 20
362.0840000000007
 30
0.0
 10
490.2284876157864
 20
362.0840000000007
 30
0.0
 10
489.1171876438602
 20
362.0840000000007
 30
0.0
 10
489.1171876438602
 20
362.0840000000007
 30
0.0
 10
489.1171876438602
 20
362.0840000000007
 30
0.0
 10
489.1171876438602
 20
368.6669999999995
 30
0.0
 10
489.1171876438602
 20
368.6669999999995
 30
0.0
 10
489.1171876438602
 20
368.6669999999995
 30
0.0
 10
489.5976876317218
 20
369.5722906638184
 30
0.0
 10
489.5976876317218
 20
369.5722906638184
 30
0.0
 10
489.5976876317218
 20
369.5722906638184
 30
0.0
 10
496.4706874580952
 20
369.5722906638184
 30
0.0
 10
496.4706874580952
 20
369.5722906638184
 30
0.0
 10
497.3280874364355
 20
367.9979999999996
 30
0.0
 10
497.7763874251104
 20
366.3964907440459
 30
0.0
 10
498.0438874183528
 20
364.7812907848493
 30
0.0
 10
498.0438874183528
 20
364.7812907848493
 30
0.0
 10
490.3085876137629
 20
364.7812907848493
 30
0.0
 10
490.3085876137629
 20
364.7812907848493
 30
0.0
 10
490.3085876137629
 20
364.7812907848493
 30
0.0
 10
490.3085876137629
 20
364.5272907912658
 30
0.0
 10
490.3085876137629
 20
364.5272907912658
 30
0.0
 10
490.3085876137629
 20
364.5272907912658
 30
0.0
 10
498.05468741808
 20
364.5272907912658
 30
0.0
 10
498.05468741808
 20
364.5272907912658
 30
0.0
 10
498.05468741808
 20
364.5272907912658
 30
0.0
 10
498.098587416971
 20
362.9179999999997
 30
0.0
 10
498.098587416971
 20
362.9179999999997
 30
0.0
 10
498.098587416971
 20
362.9179999999997
 30
0.0
 10
497.6933874272072
 20
362.0840000000007
 30
0.0
 10
497.6933874272072
 20
362.0840000000007
 30
0.0
 10
497.6933874272072
 20
362.0840000000007
 30
0.0
 10
497.5448874309586
 20
362.0840000000007
 30
0.0
 10
497.5448874309586
 20
362.0840000000007
 30
0.0
 10
497.5448874309586
 20
362.0840000000007
 30
0.0
 10
497.5448874309586
 20
362.0840000000007
 30
0.0
 10
497.5448874309586
 20
362.0840000000007
 30
0.0
  0
SPLINE
  5
72
330
14
100
AcDbEntity
  8
Layer 1
370
     0
100
AcDbSpline
210
0.0
220
0.0
230
1.0
 70
    11
 71
     3
 72
    32
 73
    28
 74
     0
 42
0.000000001
 43
0.0000000001
 40
0.0
 40
0.0
 40
0.0
 40
0.0
 40
1.0
 40
1.0
 40
1.0
 40
2.0
 40
2.0
 40
2.0
 40
3.0
 40
3.0
 40
3.0
 40
4.0
 40
4.0
 40
4.0
 40
5.0
 40
5.0
 40
5.0
 40
6.0
 40
6.0
 40
6.0
 40
7.0
 40
7.0
 40
7.0
 40
8.0
 40
8.0
 40
8.0
 40
9.0
 40
9.0
 40
9.0
 40
9.0
 10
474.7655880064121
 20
357.9804909566519
 30
0.0
 10
475.0
 20
357.7479999999996
 30
0.0
 10
475.1435879968631
 20
357.4276909706168
 30
0.0
 10
475.1435879968631
 20
357.0702909796455
 30
0.0
 10
475.1435879968631
 20
356.7147909886262
 30
0.0
 10
475.0
 20
356.3944909967176
 30
0.0
 10
474.7655880064121
 20
356.1620910025886
 30
0.0
 10
474.5341880122578
 20
355.9296910084595
 30
0.0
 10
474.2128880203745
 20
355.7851910121099
 30
0.0
 10
473.8573880293552
 20
355.7851910121099
 30
0.0
 10
473.5020000000004
 20
355.7851910121099
 30
0.0
 10
473.1796880464753
 20
355.92769100851
 30
0.0
 10
472.9472880523463
 20
356.1620910025886
 30
0.0
 10
472.7138880582424
 20
356.3944909967176
 30
0.0
 10
472.5702880618701
 20
356.7147909886262
 30
0.0
 10
472.5702880618701
 20
357.0702909796455
 30
0.0
 10
472.5702880618701
 20
357.4276909706168
 30
0.0
 10
472.7138880582424
 20
357.7479999999996
 30
0.0
 10
472.9472880523463
 20
357.9804909566519
 30
0.0
 10
473.1796880464753
 20
358.214790950733
 30
0.0
 10
473.5020000000004
 20
358.3573909471306
 30
0.0
 10
473.8573880293552
 20
358.3573909471306
 30
0.0
 10
474.2128880203745
 20
358.3573909471306
 30
0.0
 10
474.5341880122578
 20
358.214790950733
 30
0.0
 10
474.7655880064121
 20
357.9804909566519
 30
0.0
 10
474.7655880064121
 20
357.9804909566519
 30
0.0
 10
474.7655880064121
 20
357.9804909566519
 30
0.0
 10
474.7655880064121
 20
357.9804909566519
 30
0.0
  0
SPLINE
  5
73
330
14
100
AcDbEntity
  8
Layer 1
370
     0
100
AcDbSpline
210
0.0
220
0.0
230
1.0
 70
    11
 71
     3
 72
    20
 73
    16
 74
     0
 42
0.000000001
 43
0.0000000001
 40
0.0
 40
0.0
 40
0.0
 40
0.0
 40
1.0
 40
1.0
 40
1.0
 40
2.0
 40
2.0
 40
2.0
 40
3.0
 40
3.0
 40
3.0
 40
4.0
 40
4.0
 40
4.0
 40
5.0
 40
5.0
 40
5.0
 40
5.0
 10
473.2577880445024
 20
357.8847909590695
 30
0.0
 10
473.3183880429715
 20
357.8241909606004
 30
0.0
 10
473.3183880429715
 20
357.726590963066
 30
0.0
 10
473.2577880445024
 20
357.6659999999993
 30
0.0
 10
473.1972880460307
 20
357.6054909661252
 30
0.0
 10
473.0995880484988
 20
357.6054909661252
 30
0.0
 10
473.0390880500272
 20
357.6659999999993
 30
0.0
 10
472.9784880515581
 20
357.726590963066
 30
0.0
 10
472.9784880515581
 20
357.8241909606004
 30
0.0
 10
473.0390880500272
 20
357.8847909590695
 30
0.0
 10
473.0995880484988
 20
357.9452909575411
 30
0.0
 10
473.1972880460307
 20
357.9452909575411
 30
0.0
 10
473.2577880445024
 20
357.8847909590695
 30
0.0
 10
473.2577880445024
 20
357.8847909590695
 30
0.0
 10
473.2577880445024
 20
357.8847909590695
 30
0.0
 10
473.2577880445024
 20
357.8847909590695
 30
0.0
  0
SPLINE
  5
74
330
14
100
AcDbEntity
  8
Layer 1
370
     0
100
AcDbSpline
210
0.0
220
0.0
230
1.0
 70
    11
 71
     3
 72
    20
 73
    16
 74
     0
 42
0.000000001
 43
0.0000000001
 40
0.0
 40
0.0
 40
0.0
 40
0.0
 40
1.0
 40
1.0
 40
1.0
 40
2.0
 40
2.0
 40
2.0
 40
3.0
 40
3.0
 40
3.0
 40
4.0
 40
4.0
 40
4.0
 40
5.0
 40
5.0
 40
5.0
 40
5.0
 10
474.0087880255305
 20
358.0702909543834
 30
0.0
 10
474.0087880255305
 20
357.9843909565534
 30
0.0
 10
473.9394880272812
 20
357.9159999999993
 30
0.0
 10
473.8534880294537
 20
357.9159999999993
 30
0.0
 10
473.7675880316237
 20
357.9159999999993
 30
0.0
 10
473.6991880333517
 20
357.9843909565534
 30
0.0
 10
473.6991880333517
 20
358.0702909543834
 30
0.0
 10
473.6991880333517
 20
358.1552909522361
 30
0.0
 10
473.7675880316237
 20
358.2245909504854
 30
0.0
 10
473.8534880294537
 20
358.2245909504854
 30
0.0
 10
473.9394880272812
 20
358.2245909504854
 30
0.0
 10
474.0087880255305
 20
358.1552909522361
 30
0.0
 10
474.0087880255305
 20
358.0702909543834
 30
0.0
 10
474.0087880255305
 20
358.0702909543834
 30
0.0
 10
474.0087880255305
 20
358.0702909543834
 30
0.0
 10
474.0087880255305
 20
358.0702909543834
 30
0.0
  0
SPLINE
  5
75
330
14
100
AcDbEntity
  8
Layer 1
370
     0
100
AcDbSpline
210
0.0
220
0.0
230
1.0
 70
    11
 71
     3
 72
    20
 73
    16
 74
     0
 42
0.000000001
 43
0.0000000001
 40
0.0
 40
0.0
 40
0.0
 40
0.0
 40
1.0
 40
1.0
 40
1.0
 40
2.0
 40
2.0
 40
2.0
 40
3.0
 40
3.0
 40
3.0
 40
4.0
 40
4.0
 40
4.0
 40
5.0
 40
5.0
 40
5.0
 40
5.0
 10
474.6698880088297
 20
357.6698909644983
 30
0.0
 10
474.6093880103581
 20
357.6093909660267
 30
0.0
 10
474.5126880128009
 20
357.6093909660267
 30
0.0
 10
474.4511880143546
 20
357.6698909644983
 30
0.0
 10
474.3905880158854
 20
357.7304909629675
 30
0.0
 10
474.3905880158854
 20
357.8280909605019
 30
0.0
 10
474.4511880143546
 20
357.888690958971
 30
0.0
 10
474.5126880128009
 20
357.9491909574426
 30
0.0
 10
474.6093880103581
 20
357.9491909574426
 30
0.0
 10
474.6698880088297
 20
357.888690958971
 30
0.0
 10
474.7304880072988
 20
357.8280909605019
 30
0.0
 10
474.7304880072988
 20
357.7304909629675
 30
0.0
 10
474.6698880088297
 20
357.6698909644983
 30
0.0
 10
474.6698880088297
 20
357.6698909644983
 30
0.0
 10
474.6698880088297
 20
357.6698909644983
 30
0.0
 10
474.6698880088297
 20
357.6698909644983
 30
0.0
  0
SPLINE
  5
76
330
14
100
AcDbEntity
  8
Layer 1
370
     0
100
AcDbSpline
210
0.0
220
0.0
230
1.0
 70
    11
 71
     3
 72
    20
 73
    16
 74
     0
 42
0.000000001
 43
0.0000000001
 40
0.0
 40
0.0
 40
0.0
 40
0.0
 40
1.0
 40
1.0
 40
1.0
 40
2.0
 40
2.0
 40
2.0
 40
3.0
 40
3.0
 40
3.0
 40
4.0
 40
4.0
 40
4.0
 40
5.0
 40
5.0
 40
5.0
 40
5.0
 10
474.8554880041411
 20
356.9198909834449
 30
0.0
 10
474.7694880063136
 20
356.9198909834449
 30
0.0
 10
474.7001880080643
 20
356.988290981717
 30
0.0
 10
474.7001880080643
 20
357.074190979547
 30
0.0
 10
474.7001880080643
 20
357.158190977425
 30
0.0
 10
474.7694880063136
 20
357.228490975649
 30
0.0
 10
474.8554880041411
 20
357.228490975649
 30
0.0
 10
474.9403880019963
 20
357.228490975649
 30
0.0
 10
475.0097880002431
 20
357.158190977425
 30
0.0
 10
475.0097880002431
 20
357.074190979547
 30
0.0
 10
475.0097880002431
 20
356.988290981717
 30
0.0
 10
474.9403880019963
 20
356.9198909834449
 30
0.0
 10
474.8554880041411
 20
356.9198909834449
 30
0.0
 10
474.8554880041411
 20
356.9198909834449
 30
0.0
 10
474.8554880041411
 20
356.9198909834449
 30
0.0
 10
474.8554880041411
 20
356.9198909834449
 30
0.0
  0
SPLINE
  5
77
330
14
100
AcDbEntity
  8
Layer 1
370
     0
100
AcDbSpline
210
0.0
220
0.0
230
1.0
 70
    11
 71
     3
 72
    20
 73
    16
 74
     0
 42
0.000000001
 43
0.0000000001
 40
0.0
 40
0.0
 40
0.0
 40
0.0
 40
1.0
 40
1.0
 40
1.0
 40
2.0
 40
2.0
 40
2.0
 40
3.0
 40
3.0
 40
3.0
 40
4.0
 40
4.0
 40
4.0
 40
5.0
 40
5.0
 40
5.0
 40
5.0
 10
474.4560880142308
 20
356.257791000171
 30
0.0
 10
474.5155880127277
 20
356.1972910016993
 30
0.0
 10
474.6132880102596
 20
356.1972910016993
 30
0.0
 10
474.6737880087312
 20
356.257791000171
 30
0.0
 10
474.7343880072003
 20
356.3183909986401
 30
0.0
 10
474.7343880072003
 20
356.4159999999993
 30
0.0
 10
474.6737880087312
 20
356.4765909946436
 30
0.0
 10
474.6132880102596
 20
356.5370909931153
 30
0.0
 10
474.5155880127277
 20
356.5370909931153
 30
0.0
 10
474.4560880142308
 20
356.4765909946436
 30
0.0
 10
474.3944880157869
 20
356.4159999999993
 30
0.0
 10
474.3944880157869
 20
356.3183909986401
 30
0.0
 10
474.4560880142308
 20
356.257791000171
 30
0.0
 10
474.4560880142308
 20
356.257791000171
 30
0.0
 10
474.4560880142308
 20
356.257791000171
 30
0.0
 10
474.4560880142308
 20
356.257791000171
 30
0.0
  0
SPLINE
  5
78
330
14
100
AcDbEntity
  8
Layer 1
370
     0
100
AcDbSpline
210
0.0
220
0.0
230
1.0
 70
    11
 71
     3
 72
    20
 73
    16
 74
     0
 42
0.000000001
 43
0.0000000001
 40
0.0
 40
0.0
 40
0.0
 40
0.0
 40
1.0
 40
1.0
 40
1.0
 40
2.0
 40
2.0
 40
2.0
 40
3.0
 40
3.0
 40
3.0
 40
4.0
 40
4.0
 40
4.0
 40
5.0
 40
5.0
 40
5.0
 40
5.0
 10
473.7050880332026
 20
356.0722910048571
 30
0.0
 10
473.7050880332026
 20
355.9862910070296
 30
0.0
 10
473.7733880314772
 20
355.9179999999997
 30
0.0
 10
473.8593880293047
 20
355.9179999999997
 30
0.0
 10
473.9442880271599
 20
355.9179999999997
 30
0.0
 10
474.0136880254067
 20
355.9862910070296
 30
0.0
 10
474.0136880254067
 20
356.0722910048571
 30
0.0
 10
474.0136880254067
 20
356.1581910026871
 30
0.0
 10
473.9442880271599
 20
356.2265910009592
 30
0.0
 10
473.8593880293047
 20
356.2265910009592
 30
0.0
 10
473.7733880314772
 20
356.2265910009592
 30
0.0
 10
473.7050880332026
 20
356.1581910026871
 30
0.0
 10
473.7050880332026
 20
356.0722910048571
 30
0.0
 10
473.7050880332026
 20
356.0722910048571
 30
0.0
 10
473.7050880332026
 20
356.0722910048571
 30
0.0
 10
473.7050880332026
 20
356.0722910048571
 30
0.0
  0
SPLINE
  5
79
330
14
100
AcDbEntity
  8
Layer 1
370
     0
100
AcDbSpline
210
0.0
220
0.0
230
1.0
 70
    11
 71
     3
 72
    20
 73
    16
 74
     0
 42
0.000000001
 43
0.0000000001
 40
0.0
 40
0.0
 40
0.0
 40
0.0
 40
1.0
 40
1.0
 40
1.0
 40
2.0
 40
2.0
 40
2.0
 40
3.0
 40
3.0
 40
3.0
 40
4.0
 40
4.0
 40
4.0
 40
5.0
 40
5.0
 40
5.0
 40
5.0
 10
473.0429999999997
 20
356.4726909947422
 30
0.0
 10
472.9823880514596
 20
356.412090996273
 30
0.0
 10
472.9823880514596
 20
356.3144909987386
 30
0.0
 10
473.0429999999997
 20
356.2538910002695
 30
0.0
 10
473.1034880484003
 20
356.1933910017979
 30
0.0
 10
473.2011880459322
 20
356.1933910017979
 30
0.0
 10
473.2616880444039
 20
356.2538910002695
 30
0.0
 10
473.322288042873
 20
356.3144909987386
 30
0.0
 10
473.322288042873
 20
356.412090996273
 30
0.0
 10
473.2616880444039
 20
356.4726909947422
 30
0.0
 10
473.2011880459322
 20
356.5331909932138
 30
0.0
 10
473.1034880484003
 20
356.5331909932138
 30
0.0
 10
473.0429999999997
 20
356.4726909947422
 30
0.0
 10
473.0429999999997
 20
356.4726909947422
 30
0.0
 10
473.0429999999997
 20
356.4726909947422
 30
0.0
 10
473.0429999999997
 20
356.4726909947422
 30
0.0
  0
SPLINE
  5
7A
330
14
100
AcDbEntity
  8
Layer 1
370
     0
100
AcDbSpline
210
0.0
220
0.0
230
1.0
 70
    11
 71
     3
 72
    20
 73
    16
 74
     0
 42
0.000000001
 43
0.0000000001
 40
0.0
 40
0.0
 40
0.0
 40
0.0
 40
1.0
 40
1.0
 40
1.0
 40
2.0
 40
2.0
 40
2.0
 40
3.0
 40
3.0
 40
3.0
 40
4.0
 40
4.0
 40
4.0
 40
5.0
 40
5.0
 40
5.0
 40
5.0
 10
472.8573880546173
 20
357.2226909757956
 30
0.0
 10
472.9433880524448
 20
357.2226909757956
 30
0.0
 10
473.0126880506941
 20
357.1542909775235
 30
0.0
 10
473.0126880506941
 20
357.0683909796935
 30
0.0
 10
473.0126880506941
 20
356.982390981866
 30
0.0
 10
472.9433880524448
 20
356.9140909835914
 30
0.0
 10
472.8573880546173
 20
356.9140909835914
 30
0.0
 10
472.7724880567621
 20
356.9140909835914
 30
0.0
 10
472.7030880585153
 20
356.982390981866
 30
0.0
 10
472.7030880585153
 20
357.0683909796935
 30
0.0
 10
472.7030880585153
 20
357.1542909775235
 30
0.0
 10
472.7724880567621
 20
357.2226909757956
 30
0.0
 10
472.8573880546173
 20
357.2226909757956
 30
0.0
 10
472.8573880546173
 20
357.2226909757956
 30
0.0
 10
472.8573880546173
 20
357.2226909757956
 30
0.0
 10
472.8573880546173
 20
357.2226909757956
 30
0.0
  0
SPLINE
  5
7B
330
14
100
AcDbEntity
  8
Layer 1
370
     0
100
AcDbSpline
210
0.0
220
0.0
230
1.0
 70
    11
 71
     3
 72
    32
 73
    28
 74
     0
 42
0.000000001
 43
0.0000000001
 40
0.0
 40
0.0
 40
0.0
 40
0.0
 40
1.0
 40
1.0
 40
1.0
 40
2.0
 40
2.0
 40
2.0
 40
3.0
 40
3.0
 40
3.0
 40
4.0
 40
4.0
 40
4.0
 40
5.0
 40
5.0
 40
5.0
 40
6.0
 40
6.0
 40
6.0
 40
7.0
 40
7.0
 40
7.0
 40
8.0
 40
8.0
 40
8.0
 40
9.0
 40
9.0
 40
9.0
 40
9.0
 10
473.8573880293552
 20
360.1972909006508
 30
0.0
 10
474.7206880075464
 20
360.1972909006508
 30
0.0
 10
475.5010000000002
 20
359.8466909095077
 30
0.0
 10
476.0673879735259
 20
359.2812909237909
 30
0.0
 10
476.6327879592427
 20
358.7157909380767
 30
0.0
 10
476.9823879504111
 20
357.9335909578367
 30
0.0
 10
476.9823879504111
 20
357.0702909796455
 30
0.0
 10
476.9823879504111
 20
356.2070000000003
 30
0.0
 10
476.6327879592427
 20
355.4257910211891
 30
0.0
 10
476.0673879735259
 20
354.8612910354495
 30
0.0
 10
475.5010000000002
 20
354.294891049758
 30
0.0
 10
474.7206880075464
 20
353.9452910585896
 30
0.0
 10
473.8573880293552
 20
353.9452910585896
 30
0.0
 10
472.994088051164
 20
353.9452910585896
 30
0.0
 10
472.211888070924
 20
354.294891049758
 30
0.0
 10
471.6464880852072
 20
354.8612910354495
 30
0.0
 10
471.0800880995157
 20
355.4257910211891
 30
0.0
 10
470.7313881083246
 20
356.2070000000003
 30
0.0
 10
470.7313881083246
 20
357.0702909796455
 30
0.0
 10
470.7313881083246
 20
357.9335909578367
 30
0.0
 10
471.0800880995157
 20
358.7157909380767
 30
0.0
 10
471.6464880852072
 20
359.2812909237909
 30
0.0
 10
472.211888070924
 20
359.8466909095077
 30
0.0
 10
472.994088051164
 20
360.1972909006508
 30
0.0
 10
473.8573880293552
 20
360.1972909006508
 30
0.0
 10
473.8573880293552
 20
360.1972909006508
 30
0.0
 10
473.8573880293552
 20
360.1972909006508
 30
0.0
 10
473.8573880293552
 20
360.1972909006508
 30
0.0
  0
SPLINE
  5
7C
330
14
100
AcDbEntity
  8
Layer 1
370
     0
100
AcDbSpline
210
0.0
220
0.0
230
1.0
 70
    11
 71
     3
 72
    20
 73
    16
 74
     0
 42
0.000000001
 43
0.0000000001
 40
0.0
 40
0.0
 40
0.0
 40
0.0
 40
1.0
 40
1.0
 40
1.0
 40
2.0
 40
2.0
 40
2.0
 40
3.0
 40
3.0
 40
3.0
 40
4.0
 40
4.0
 40
4.0
 40
5.0
 40
5.0
 40
5.0
 40
5.0
 10
467.1903881977778
 20
356.9198909834449
 30
0.0
 10
467.1054881999225
 20
356.9198909834449
 30
0.0
 10
467.0351882016985
 20
356.988290981717
 30
0.0
 10
467.0351882016985
 20
357.074190979547
 30
0.0
 10
467.0351882016985
 20
357.158190977425
 30
0.0
 10
467.1054881999225
 20
357.228490975649
 30
0.0
 10
467.1903881977778
 20
357.228490975649
 30
0.0
 10
467.2753881956305
 20
357.228490975649
 30
0.0
 10
467.3456881938546
 20
357.158190977425
 30
0.0
 10
467.3456881938546
 20
357.074190979547
 30
0.0
 10
467.3456881938546
 20
356.988290981717
 30
0.0
 10
467.2753881956305
 20
356.9198909834449
 30
0.0
 10
467.1903881977778
 20
356.9198909834449
 30
0.0
 10
467.1903881977778
 20
356.9198909834449
 30
0.0
 10
467.1903881977778
 20
356.9198909834449
 30
0.0
 10
467.1903881977778
 20
356.9198909834449
 30
0.0
  0
SPLINE
  5
7D
330
14
100
AcDbEntity
  8
Layer 1
370
     0
100
AcDbSpline
210
0.0
220
0.0
230
1.0
 70
    11
 71
     3
 72
    20
 73
    16
 74
     0
 42
0.000000001
 43
0.0000000001
 40
0.0
 40
0.0
 40
0.0
 40
0.0
 40
1.0
 40
1.0
 40
1.0
 40
2.0
 40
2.0
 40
2.0
 40
3.0
 40
3.0
 40
3.0
 40
4.0
 40
4.0
 40
4.0
 40
5.0
 40
5.0
 40
5.0
 40
5.0
 10
454.628888515108
 20
357.8847909590695
 30
0.0
 10
454.6894885135771
 20
357.9452909575411
 30
0.0
 10
454.7870885111115
 20
357.9452909575411
 30
0.0
 10
454.8476885095806
 20
357.8847909590695
 30
0.0
 10
454.9081885080523
 20
357.8241909606004
 30
0.0
 10
454.9081885080523
 20
357.726590963066
 30
0.0
 10
454.8476885095806
 20
357.6659999999993
 30
0.0
 10
454.7870885111115
 20
357.6054909661252
 30
0.0
 10
454.6894885135771
 20
357.6054909661252
 30
0.0
 10
454.628888515108
 20
357.6659999999993
 30
0.0
 10
454.5683885166363
 20
357.726590963066
 30
0.0
 10
454.5683885166363
 20
357.8241909606004
 30
0.0
 10
454.628888515108
 20
357.8847909590695
 30
0.0
 10
454.628888515108
 20
357.8847909590695
 30
0.0
 10
454.628888515108
 20
357.8847909590695
 30
0.0
 10
454.628888515108
 20
357.8847909590695
 30
0.0
  0
SPLINE
  5
7E
330
14
100
AcDbEntity
  8
Layer 1
370
     0
100
AcDbSpline
210
0.0
220
0.0
230
1.0
 70
    11
 71
     3
 72
    20
 73
    16
 74
     0
 42
0.000000001
 43
0.0000000001
 40
0.0
 40
0.0
 40
0.0
 40
0.0
 40
1.0
 40
1.0
 40
1.0
 40
2.0
 40
2.0
 40
2.0
 40
3.0
 40
3.0
 40
3.0
 40
4.0
 40
4.0
 40
4.0
 40
5.0
 40
5.0
 40
5.0
 40
5.0
 10
454.8437885096791
 20
356.4726909947422
 30
0.0
 10
454.78318851121
 20
356.5331909932138
 30
0.0
 10
454.6854885136781
 20
356.5331909932138
 30
0.0
 10
454.625
 20
356.4726909947422
 30
0.0
 10
454.5644885167349
 20
356.412090996273
 30
0.0
 10
454.5644885167349
 20
356.3144909987386
 30
0.0
 10
454.625
 20
356.2538910002695
 30
0.0
 10
454.6854885136781
 20
356.1933910017979
 30
0.0
 10
454.78318851121
 20
356.1933910017979
 30
0.0
 10
454.8437885096791
 20
356.2538910002695
 30
0.0
 10
454.9042885081508
 20
356.3144909987386
 30
0.0
 10
454.9042885081508
 20
356.412090996273
 30
0.0
 10
454.8437885096791
 20
356.4726909947422
 30
0.0
 10
454.8437885096791
 20
356.4726909947422
 30
0.0
 10
454.8437885096791
 20
356.4726909947422
 30
0.0
 10
454.8437885096791
 20
356.4726909947422
 30
0.0
  0
SPLINE
  5
7F
330
14
100
AcDbEntity
  8
Layer 1
370
     0
100
AcDbSpline
210
0.0
220
0.0
230
1.0
 70
    11
 71
     3
 72
    20
 73
    16
 74
     0
 42
0.000000001
 43
0.0000000001
 40
0.0
 40
0.0
 40
0.0
 40
0.0
 40
1.0
 40
1.0
 40
1.0
 40
2.0
 40
2.0
 40
2.0
 40
3.0
 40
3.0
 40
3.0
 40
4.0
 40
4.0
 40
4.0
 40
5.0
 40
5.0
 40
5.0
 40
5.0
 10
455.029288504993
 20
357.2226909757956
 30
0.0
 10
455.1142885028457
 20
357.2226909757956
 30
0.0
 10
455.1835885010951
 20
357.1542909775235
 30
0.0
 10
455.1835885010951
 20
357.0683909796935
 30
0.0
 10
455.1835885010951
 20
356.982390981866
 30
0.0
 10
455.1142885028457
 20
356.9140909835914
 30
0.0
 10
455.029288504993
 20
356.9140909835914
 30
0.0
 10
454.943388507163
 20
356.9140909835914
 30
0.0
 10
454.8739999999998
 20
356.982390981866
 30
0.0
 10
454.8739999999998
 20
357.0683909796935
 30
0.0
 10
454.8739999999998
 20
357.1542909775235
 30
0.0
 10
454.943388507163
 20
357.2226909757956
 30
0.0
 10
455.029288504993
 20
357.2226909757956
 30
0.0
 10
455.029288504993
 20
357.2226909757956
 30
0.0
 10
455.029288504993
 20
357.2226909757956
 30
0.0
 10
455.029288504993
 20
357.2226909757956
 30
0.0
  0
SPLINE
  5
80
330
14
100
AcDbEntity
  8
Layer 1
370
     0
100
AcDbSpline
210
0.0
220
0.0
230
1.0
 70
    11
 71
     3
 72
    20
 73
    16
 74
     0
 42
0.000000001
 43
0.0000000001
 40
0.0
 40
0.0
 40
0.0
 40
0.0
 40
1.0
 40
1.0
 40
1.0
 40
2.0
 40
2.0
 40
2.0
 40
3.0
 40
3.0
 40
3.0
 40
4.0
 40
4.0
 40
4.0
 40
5.0
 40
5.0
 40
5.0
 40
5.0
 10
465.5937882381113
 20
357.8847909590695
 30
0.0
 10
465.6532882366082
 20
357.8241909606004
 30
0.0
 10
465.6532882366082
 20
357.726590963066
 30
0.0
 10
465.5937882381113
 20
357.6659999999993
 30
0.0
 10
465.5331882396422
 20
357.6054909661252
 30
0.0
 10
465.434588242133
 20
357.6054909661252
 30
0.0
 10
465.375
 20
357.6659999999993
 30
0.0
 10
465.314488245167
 20
357.726590963066
 30
0.0
 10
465.314488245167
 20
357.8241909606004
 30
0.0
 10
465.375
 20
357.8847909590695
 30
0.0
 10
465.434588242133
 20
357.9452909575411
 30
0.0
 10
465.5331882396422
 20
357.9452909575411
 30
0.0
 10
465.5937882381113
 20
357.8847909590695
 30
0.0
 10
465.5937882381113
 20
357.8847909590695
 30
0.0
 10
465.5937882381113
 20
357.8847909590695
 30
0.0
 10
465.5937882381113
 20
357.8847909590695
 30
0.0
  0
SPLINE
  5
81
330
14
100
AcDbEntity
  8
Layer 1
370
     0
100
AcDbSpline
210
0.0
220
0.0
230
1.0
 70
    11
 71
     3
 72
    20
 73
    16
 74
     0
 42
0.000000001
 43
0.0000000001
 40
0.0
 40
0.0
 40
0.0
 40
0.0
 40
1.0
 40
1.0
 40
1.0
 40
2.0
 40
2.0
 40
2.0
 40
3.0
 40
3.0
 40
3.0
 40
4.0
 40
4.0
 40
4.0
 40
5.0
 40
5.0
 40
5.0
 40
5.0
 10
466.3437882191647
 20
358.0702909543834
 30
0.0
 10
466.3437882191647
 20
357.9843909565534
 30
0.0
 10
466.2733882209432
 20
357.9159999999993
 30
0.0
 10
466.1894882230627
 20
357.9159999999993
 30
0.0
 10
466.1034882252352
 20
357.9159999999993
 30
0.0
 10
466.0351882269606
 20
357.9843909565534
 30
0.0
 10
466.0351882269606
 20
358.0702909543834
 30
0.0
 10
466.0351882269606
 20
358.1552909522361
 30
0.0
 10
466.1034882252352
 20
358.2245909504854
 30
0.0
 10
466.1894882230627
 20
358.2245909504854
 30
0.0
 10
466.2733882209432
 20
358.2245909504854
 30
0.0
 10
466.3437882191647
 20
358.1552909522361
 30
0.0
 10
466.3437882191647
 20
358.0702909543834
 30
0.0
 10
466.3437882191647
 20
358.0702909543834
 30
0.0
 10
466.3437882191647
 20
358.0702909543834
 30
0.0
 10
466.3437882191647
 20
358.0702909543834
 30
0.0
  0
SPLINE
  5
82
330
14
100
AcDbEntity
  8
Layer 1
370
     0
100
AcDbSpline
210
0.0
220
0.0
230
1.0
 70
    11
 71
     3
 72
    20
 73
    16
 74
     0
 42
0.000000001
 43
0.0000000001
 40
0.0
 40
0.0
 40
0.0
 40
0.0
 40
1.0
 40
1.0
 40
1.0
 40
2.0
 40
2.0
 40
2.0
 40
3.0
 40
3.0
 40
3.0
 40
4.0
 40
4.0
 40
4.0
 40
5.0
 40
5.0
 40
5.0
 40
5.0
 10
466.0409999999993
 20
356.0722910048571
 30
0.0
 10
466.0409999999993
 20
355.9862910070296
 30
0.0
 10
466.1093882250861
 20
355.9179999999997
 30
0.0
 10
466.1952882229161
 20
355.9179999999997
 30
0.0
 10
466.2812882207436
 20
355.9179999999997
 30
0.0
 10
466.3485882190434
 20
355.9862910070296
 30
0.0
 10
466.3485882190434
 20
356.0722910048571
 30
0.0
 10
466.3485882190434
 20
356.1581910026871
 30
0.0
 10
466.2812882207436
 20
356.2265910009592
 30
0.0
 10
466.1952882229161
 20
356.2265910009592
 30
0.0
 10
466.1093882250861
 20
356.2265910009592
 30
0.0
 10
466.0409999999993
 20
356.1581910026871
 30
0.0
 10
466.0409999999993
 20
356.0722910048571
 30
0.0
 10
466.0409999999993
 20
356.0722910048571
 30
0.0
 10
466.0409999999993
 20
356.0722910048571
 30
0.0
 10
466.0409999999993
 20
356.0722910048571
 30
0.0
  0
SPLINE
  5
83
330
14
100
AcDbEntity
  8
Layer 1
370
     0
100
AcDbSpline
210
0.0
220
0.0
230
1.0
 70
    11
 71
     3
 72
    20
 73
    16
 74
     0
 42
0.000000001
 43
0.0000000001
 40
0.0
 40
0.0
 40
0.0
 40
0.0
 40
1.0
 40
1.0
 40
1.0
 40
2.0
 40
2.0
 40
2.0
 40
3.0
 40
3.0
 40
3.0
 40
4.0
 40
4.0
 40
4.0
 40
5.0
 40
5.0
 40
5.0
 40
5.0
 10
465.3778882435654
 20
356.4726909947422
 30
0.0
 10
465.3183882450685
 20
356.412090996273
 30
0.0
 10
465.3183882450685
 20
356.3144909987386
 30
0.0
 10
465.3778882435654
 20
356.2538910002695
 30
0.0
 10
465.4394882420092
 20
356.1933910017979
 30
0.0
 10
465.5370882395437
 20
356.1933910017979
 30
0.0
 10
465.596688238038
 20
356.2538910002695
 30
0.0
 10
465.6581882364844
 20
356.3144909987386
 30
0.0
 10
465.6581882364844
 20
356.412090996273
 30
0.0
 10
465.596688238038
 20
356.4726909947422
 30
0.0
 10
465.5370882395437
 20
356.5331909932138
 30
0.0
 10
465.4394882420092
 20
356.5331909932138
 30
0.0
 10
465.3778882435654
 20
356.4726909947422
 30
0.0
 10
465.3778882435654
 20
356.4726909947422
 30
0.0
 10
465.3778882435654
 20
356.4726909947422
 30
0.0
 10
465.3778882435654
 20
356.4726909947422
 30
0.0
  0
SPLINE
  5
84
330
14
100
AcDbEntity
  8
Layer 1
370
     0
100
AcDbSpline
210
0.0
220
0.0
230
1.0
 70
    11
 71
     3
 72
    20
 73
    16
 74
     0
 42
0.000000001
 43
0.0000000001
 40
0.0
 40
0.0
 40
0.0
 40
0.0
 40
1.0
 40
1.0
 40
1.0
 40
2.0
 40
2.0
 40
2.0
 40
3.0
 40
3.0
 40
3.0
 40
4.0
 40
4.0
 40
4.0
 40
5.0
 40
5.0
 40
5.0
 40
5.0
 10
465.1933882482263
 20
357.2226909757956
 30
0.0
 10
465.2792882460562
 20
357.2226909757956
 30
0.0
 10
465.3476882443283
 20
357.1542909775235
 30
0.0
 10
465.3476882443283
 20
357.0683909796935
 30
0.0
 10
465.3476882443283
 20
356.982390981866
 30
0.0
 10
465.2792882460562
 20
356.9140909835914
 30
0.0
 10
465.1933882482263
 20
356.9140909835914
 30
0.0
 10
465.1073882503988
 20
356.9140909835914
 30
0.0
 10
465.0390882521242
 20
356.982390981866
 30
0.0
 10
465.0390882521242
 20
357.0683909796935
 30
0.0
 10
465.0390882521242
 20
357.1542909775235
 30
0.0
 10
465.1073882503988
 20
357.2226909757956
 30
0.0
 10
465.1933882482263
 20
357.2226909757956
 30
0.0
 10
465.1933882482263
 20
357.2226909757956
 30
0.0
 10
465.1933882482263
 20
357.2226909757956
 30
0.0
 10
465.1933882482263
 20
357.2226909757956
 30
0.0
  0
SPLINE
  5
85
330
14
100
AcDbEntity
  8
Layer 1
370
     0
100
AcDbSpline
210
0.0
220
0.0
230
1.0
 70
    11
 71
     3
 72
    32
 73
    28
 74
     0
 42
0.000000001
 43
0.0000000001
 40
0.0
 40
0.0
 40
0.0
 40
0.0
 40
1.0
 40
1.0
 40
1.0
 40
2.0
 40
2.0
 40
2.0
 40
3.0
 40
3.0
 40
3.0
 40
4.0
 40
4.0
 40
4.0
 40
5.0
 40
5.0
 40
5.0
 40
6.0
 40
6.0
 40
6.0
 40
7.0
 40
7.0
 40
7.0
 40
8.0
 40
8.0
 40
8.0
 40
9.0
 40
9.0
 40
9.0
 40
9.0
 10
467.1024881999983
 20
357.9804909566519
 30
0.0
 10
467.3349999999991
 20
357.7479999999996
 30
0.0
 10
467.4794881904745
 20
357.4276909706168
 30
0.0
 10
467.4794881904745
 20
357.0702909796455
 30
0.0
 10
467.4794881904745
 20
356.7147909886262
 30
0.0
 10
467.3349999999991
 20
356.3944909967176
 30
0.0
 10
467.1024881999983
 20
356.1620910025886
 30
0.0
 10
466.8690882058945
 20
355.9296910084595
 30
0.0
 10
466.546888214034
 20
355.7851910121099
 30
0.0
 10
466.1913882230147
 20
355.7851910121099
 30
0.0
 10
465.8368882319701
 20
355.7851910121099
 30
0.0
 10
465.5155882400868
 20
355.92769100851
 30
0.0
 10
465.2812882460057
 20
356.1620910025886
 30
0.0
 10
465.0487882518792
 20
356.3944909967176
 30
0.0
 10
464.9042882555295
 20
356.7147909886262
 30
0.0
 10
464.9042882555295
 20
357.0702909796455
 30
0.0
 10
464.9042882555295
 20
357.4276909706168
 30
0.0
 10
465.0487882518792
 20
357.7479999999996
 30
0.0
 10
465.2812882460057
 20
357.9804909566519
 30
0.0
 10
465.5155882400868
 20
358.214790950733
 30
0.0
 10
465.8368882319701
 20
358.3573909471306
 30
0.0
 10
466.1913882230147
 20
358.3573909471306
 30
0.0
 10
466.546888214034
 20
358.3573909471306
 30
0.0
 10
466.8690882058945
 20
358.214790950733
 30
0.0
 10
467.1024881999983
 20
357.9804909566519
 30
0.0
 10
467.1024881999983
 20
357.9804909566519
 30
0.0
 10
467.1024881999983
 20
357.9804909566519
 30
0.0
 10
467.1024881999983
 20
357.9804909566519
 30
0.0
  0
SPLINE
  5
86
330
14
100
AcDbEntity
  8
Layer 1
370
     0
100
AcDbSpline
210
0.0
220
0.0
230
1.0
 70
    11
 71
     3
 72
    20
 73
    16
 74
     0
 42
0.000000001
 43
0.0000000001
 40
0.0
 40
0.0
 40
0.0
 40
0.0
 40
1.0
 40
1.0
 40
1.0
 40
2.0
 40
2.0
 40
2.0
 40
3.0
 40
3.0
 40
3.0
 40
4.0
 40
4.0
 40
4.0
 40
5.0
 40
5.0
 40
5.0
 40
5.0
 10
467.0058882024387
 20
357.6698909644983
 30
0.0
 10
466.9452882039695
 20
357.6093909660267
 30
0.0
 10
466.8476882064351
 20
357.6093909660267
 30
0.0
 10
466.7860882079913
 20
357.6698909644983
 30
0.0
 10
466.7265882094944
 20
357.7304909629675
 30
0.0
 10
466.7265882094944
 20
357.8280909605019
 30
0.0
 10
466.7860882079913
 20
357.888690958971
 30
0.0
 10
466.8476882064351
 20
357.9491909574426
 30
0.0
 10
466.9452882039695
 20
357.9491909574426
 30
0.0
 10
467.0058882024387
 20
357.888690958971
 30
0.0
 10
467.0663882009103
 20
357.8280909605019
 30
0.0
 10
467.0663882009103
 20
357.7304909629675
 30
0.0
 10
467.0058882024387
 20
357.6698909644983
 30
0.0
 10
467.0058882024387
 20
357.6698909644983
 30
0.0
 10
467.0058882024387
 20
357.6698909644983
 30
0.0
 10
467.0058882024387
 20
357.6698909644983
 30
0.0
  0
SPLINE
  5
87
330
14
100
AcDbEntity
  8
Layer 1
370
     0
100
AcDbSpline
210
0.0
220
0.0
230
1.0
 70
    11
 71
     3
 72
    20
 73
    16
 74
     0
 42
0.000000001
 43
0.0000000001
 40
0.0
 40
0.0
 40
0.0
 40
0.0
 40
1.0
 40
1.0
 40
1.0
 40
2.0
 40
2.0
 40
2.0
 40
3.0
 40
3.0
 40
3.0
 40
4.0
 40
4.0
 40
4.0
 40
5.0
 40
5.0
 40
5.0
 40
5.0
 10
466.7909999999993
 20
356.257791000171
 30
0.0
 10
466.8515882063366
 20
356.1972910016993
 30
0.0
 10
466.949188203871
 20
356.1972910016993
 30
0.0
 10
467.0097882023401
 20
356.257791000171
 30
0.0
 10
467.0702882008118
 20
356.3183909986401
 30
0.0
 10
467.0702882008118
 20
356.4159999999993
 30
0.0
 10
467.0097882023401
 20
356.4765909946436
 30
0.0
 10
466.949188203871
 20
356.5370909931153
 30
0.0
 10
466.8515882063366
 20
356.5370909931153
 30
0.0
 10
466.7909999999993
 20
356.4765909946436
 30
0.0
 10
466.7304882093958
 20
356.4159999999993
 30
0.0
 10
466.7304882093958
 20
356.3183909986401
 30
0.0
 10
466.7909999999993
 20
356.257791000171
 30
0.0
 10
466.7909999999993
 20
356.257791000171
 30
0.0
 10
466.7909999999993
 20
356.257791000171
 30
0.0
 10
466.7909999999993
 20
356.257791000171
 30
0.0
  0
SPLINE
  5
88
330
14
100
AcDbEntity
  8
Layer 1
370
     0
100
AcDbSpline
210
0.0
220
0.0
230
1.0
 70
    11
 71
     3
 72
    32
 73
    28
 74
     0
 42
0.000000001
 43
0.0000000001
 40
0.0
 40
0.0
 40
0.0
 40
0.0
 40
1.0
 40
1.0
 40
1.0
 40
2.0
 40
2.0
 40
2.0
 40
3.0
 40
3.0
 40
3.0
 40
4.0
 40
4.0
 40
4.0
 40
5.0
 40
5.0
 40
5.0
 40
6.0
 40
6.0
 40
6.0
 40
7.0
 40
7.0
 40
7.0
 40
8.0
 40
8.0
 40
8.0
 40
9.0
 40
9.0
 40
9.0
 40
9.0
 10
466.1913882230147
 20
360.1972909006508
 30
0.0
 10
467.0546882012059
 20
360.1972909006508
 30
0.0
 10
467.8358881814711
 20
359.8466909095077
 30
0.0
 10
468.4022881671626
 20
359.2812909237909
 30
0.0
 10
468.9667881529022
 20
358.7157909380767
 30
0.0
 10
469.31838814402
 20
357.9335909578367
 30
0.0
 10
469.31838814402
 20
357.0702909796455
 30
0.0
 10
469.31838814402
 20
356.2070000000003
 30
0.0
 10
468.9667881529022
 20
355.4257910211891
 30
0.0
 10
468.4022881671626
 20
354.8612910354495
 30
0.0
 10
467.8358881814711
 20
354.294891049758
 30
0.0
 10
467.0546882012059
 20
353.9452910585896
 30
0.0
 10
466.1913882230147
 20
353.9452910585896
 30
0.0
 10
465.3290882447982
 20
353.9452910585896
 30
0.0
 10
464.5468882645582
 20
354.294891049758
 30
0.0
 10
463.981388278844
 20
354.8612910354495
 30
0.0
 10
463.4169999999995
 20
355.4257910211891
 30
0.0
 10
463.0663883019588
 20
356.2070000000003
 30
0.0
 10
463.0663883019588
 20
357.0702909796455
 30
0.0
 10
463.0663883019588
 20
357.9335909578367
 30
0.0
 10
463.4169999999995
 20
358.7157909380767
 30
0.0
 10
463.981388278844
 20
359.2812909237909
 30
0.0
 10
464.5468882645582
 20
359.8466909095077
 30
0.0
 10
465.3290882447982
 20
360.1972909006508
 30
0.0
 10
466.1913882230147
 20
360.1972909006508
 30
0.0
 10
466.1913882230147
 20
360.1972909006508
 30
0.0
 10
466.1913882230147
 20
360.1972909006508
 30
0.0
 10
466.1913882230147
 20
360.1972909006508
 30
0.0
  0
POLYLINE
  5
89
330
14
100
AcDbEntity
  8
Layer 1
370
     0
100
AcDb2dPolyline
 66
     1
 10
0.0
 20
0.0
 30
0.0
  0
VERTEX
  5
8A
330
89
100
AcDbEntity
  8
Layer 1
370
     0
100
AcDbVertex
100
AcDb2dVertex
 10
470.5468881129855
 20
372.9433905786573
 30
0.0
  0
VERTEX
  5
8B
330
89
100
AcDbEntity
  8
Layer 1
370
     0
100
AcDbVertex
100
AcDb2dVertex
 10
471.1630880974189
 20
372.9433905786573
 30
0.0
  0
VERTEX
  5
8C
330
89
100
AcDbEntity
  8
Layer 1
370
     0
100
AcDbVertex
100
AcDb2dVertex
 10
471.1630880974189
 20
362.9081908321677
 30
0.0
  0
VERTEX
  5
8D
330
89
100
AcDbEntity
  8
Layer 1
370
     0
100
AcDbVertex
100
AcDb2dVertex
 10
470.5468881129855
 20
362.9081908321677
 30
0.0
  0
VERTEX
  5
8E
330
89
100
AcDbEntity
  8
Layer 1
370
     0
100
AcDbVertex
100
AcDb2dVertex
 10
470.5468881129855
 20
372.9433905786573
 30
0.0
  0
VERTEX
  5
8F
330
89
100
AcDbEntity
  8
Layer 1
370
     0
100
AcDbVertex
100
AcDb2dVertex
 10
470.5468881129855
 20
372.9433905786573
 30
0.0
  0
SEQEND
  5
90
330
89
100
AcDbEntity
  8
Layer 1
370
     0
  0
POLYLINE
  5
91
330
14
100
AcDbEntity
  8
Layer 1
370
     0
100
AcDb2dPolyline
 66
     1
 10
0.0
 20
0.0
 30
0.0
  0
VERTEX
  5
92
330
91
100
AcDbEntity
  8
Layer 1
370
     0
100
AcDbVertex
100
AcDb2dVertex
 10
475.3935879905475
 20
372.9433905786573
 30
0.0
  0
VERTEX
  5
93
330
91
100
AcDbEntity
  8
Layer 1
370
     0
100
AcDbVertex
100
AcDb2dVertex
 10
476.009787974981
 20
372.9433905786573
 30
0.0
  0
VERTEX
  5
94
330
91
100
AcDbEntity
  8
Layer 1
370
     0
100
AcDbVertex
100
AcDb2dVertex
 10
476.009787974981
 20
362.9081908321677
 30
0.0
  0
VERTEX
  5
95
330
91
100
AcDbEntity
  8
Layer 1
370
     0
100
AcDbVertex
100
AcDb2dVertex
 10
475.3935879905475
 20
362.9081908321677
 30
0.0
  0
VERTEX
  5
96
330
91
100
AcDbEntity
  8
Layer 1
370
     0
100
AcDbVertex
100
AcDb2dVertex
 10
475.3935879905475
 20
372.9433905786573
 30
0.0
  0
VERTEX
  5
97
330
91
100
AcDbEntity
  8
Layer 1
370
     0
100
AcDbVertex
100
AcDb2dVertex
 10
475.3935879905475
 20
372.9433905786573
 30
0.0
  0
SEQEND
  5
98
330
91
100
AcDbEntity
  8
Layer 1
370
     0
  0
POLYLINE
  5
99
330
14
100
AcDbEntity
  8
Layer 1
370
     0
100
AcDb2dPolyline
 66
     1
 10
0.0
 20
0.0
 30
0.0
  0
VERTEX
  5
9A
330
99
100
AcDbEntity
  8
Layer 1
370
     0
100
AcDbVertex
100
AcDb2dVertex
 10
479.9491878754634
 20
372.9433905786573
 30
0.0
  0
VERTEX
  5
9B
330
99
100
AcDbEntity
  8
Layer 1
370
     0
100
AcDbVertex
100
AcDb2dVertex
 10
480.5653878598969
 20
372.9433905786573
 30
0.0
  0
VERTEX
  5
9C
330
99
100
AcDbEntity
  8
Layer 1
370
     0
100
AcDbVertex
100
AcDb2dVertex
 10
480.5653878598969
 20
362.9081908321677
 30
0.0
  0
VERTEX
  5
9D
330
99
100
AcDbEntity
  8
Layer 1
370
     0
100
AcDbVertex
100
AcDb2dVertex
 10
479.9491878754634
 20
362.9081908321677
 30
0.0
  0
VERTEX
  5
9E
330
99
100
AcDbEntity
  8
Layer 1
370
     0
100
AcDbVertex
100
AcDb2dVertex
 10
479.9491878754634
 20
372.9433905786573
 30
0.0
  0
VERTEX
  5
9F
330
99
100
AcDbEntity
  8
Layer 1
370
     0
100
AcDbVertex
100
AcDb2dVertex
 10
479.9491878754634
 20
372.9433905786573
 30
0.0
  0
SEQEND
  5
A0
330
99
100
AcDbEntity
  8
Layer 1
370
     0
  0
POLYLINE
  5
A1
330
14
100
AcDbEntity
  8
Layer 1
370
     0
100
AcDb2dPolyline
 66
     1
 10
0.0
 20
0.0
 30
0.0
  0
VERTEX
  5
A2
330
A1
100
AcDbEntity
  8
Layer 1
370
     0
100
AcDbVertex
100
AcDb2dVertex
 10
484.3622877639791
 20
372.9433905786573
 30
0.0
  0
VERTEX
  5
A3
330
A1
100
AcDbEntity
  8
Layer 1
370
     0
100
AcDbVertex
100
AcDb2dVertex
 10
484.9784877484126
 20
372.9433905786573
 30
0.0
  0
VERTEX
  5
A4
330
A1
100
AcDbEntity
  8
Layer 1
370
     0
100
AcDbVertex
100
AcDb2dVertex
 10
484.9784877484126
 20
362.9081908321677
 30
0.0
  0
VERTEX
  5
A5
330
A1
100
AcDbEntity
  8
Layer 1
370
     0
100
AcDbVertex
100
AcDb2dVertex
 10
484.3622877639791
 20
362.9081908321677
 30
0.0
  0
VERTEX
  5
A6
330
A1
100
AcDbEntity
  8
Layer 1
370
     0
100
AcDbVertex
100
AcDb2dVertex
 10
484.3622877639791
 20
372.9433905786573
 30
0.0
  0
VERTEX
  5
A7
330
A1
100
AcDbEntity
  8
Layer 1
370
     0
100
AcDbVertex
100
AcDb2dVertex
 10
484.3622877639791
 20
372.9433905786573
 30
0.0
  0
SEQEND
  5
A8
330
A1
100
AcDbEntity
  8
Layer 1
370
     0
  0
POLYLINE
  5
A9
330
14
100
AcDbEntity
  8
Layer 1
370
     0
100
AcDb2dPolyline
 66
     1
 10
0.0
 20
0.0
 30
0.0
  0
VERTEX
  5
AA
330
A9
100
AcDbEntity
  8
Layer 1
370
     0
100
AcDbVertex
100
AcDb2dVertex
 10
465.9921882280469
 20
372.9433905786573
 30
0.0
  0
VERTEX
  5
AB
330
A9
100
AcDbEntity
  8
Layer 1
370
     0
100
AcDbVertex
100
AcDb2dVertex
 10
466.6073882125056
 20
372.9433905786573
 30
0.0
  0
VERTEX
  5
AC
330
A9
100
AcDbEntity
  8
Layer 1
370
     0
100
AcDbVertex
100
AcDb2dVertex
 10
466.6073882125056
 20
362.9081908321677
 30
0.0
  0
VERTEX
  5
AD
330
A9
100
AcDbEntity
  8
Layer 1
370
     0
100
AcDbVertex
100
AcDb2dVertex
 10
465.9921882280469
 20
362.9081908321677
 30
0.0
  0
VERTEX
  5
AE
330
A9
100
AcDbEntity
  8
Layer 1
370
     0
100
AcDbVertex
100
AcDb2dVertex
 10
465.9921882280469
 20
372.9433905786573
 30
0.0
  0
VERTEX
  5
AF
330
A9
100
AcDbEntity
  8
Layer 1
370
     0
100
AcDbVertex
100
AcDb2dVertex
 10
465.9921882280469
 20
372.9433905786573
 30
0.0
  0
SEQEND
  5
B0
330
A9
100
AcDbEntity
  8
Layer 1
370
     0
  0
POLYLINE
  5
B1
330
14
100
AcDbEntity
  8
Layer 1
370
     0
100
AcDb2dPolyline
 66
     1
 10
0.0
 20
0.0
 30
0.0
  0
VERTEX
  5
B2
330
B1
100
AcDbEntity
  8
Layer 1
370
     0
100
AcDbVertex
100
AcDb2dVertex
 10
462.0409999999993
 20
362.2577908485982
 30
0.0
  0
VERTEX
  5
B3
330
B1
100
AcDbEntity
  8
Layer 1
370
     0
100
AcDbVertex
100
AcDb2dVertex
 10
488.414087661622
 20
362.2577908485982
 30
0.0
  0
VERTEX
  5
B4
330
B1
100
AcDbEntity
  8
Layer 1
370
     0
100
AcDbVertex
100
AcDb2dVertex
 10
488.414087661622
 20
373.9042905543829
 30
0.0
  0
VERTEX
  5
B5
330
B1
100
AcDbEntity
  8
Layer 1
370
     0
100
AcDbVertex
100
AcDb2dVertex
 10
462.0409999999993
 20
373.9042905543829
 30
0.0
  0
VERTEX
  5
B6
330
B1
100
AcDbEntity
  8
Layer 1
370
     0
100
AcDbVertex
100
AcDb2dVertex
 10
462.0409999999993
 20
362.2577908485982
 30
0.0
  0
VERTEX
  5
B7
330
B1
100
AcDbEntity
  8
Layer 1
370
     0
100
AcDbVertex
100
AcDb2dVertex
 10
462.0409999999993
 20
362.2577908485982
 30
0.0
  0
SEQEND
  5
B8
330
B1
100
AcDbEntity
  8
Layer 1
370
     0
  0
SPLINE
  5
B9
330
14
100
AcDbEntity
  8
Layer 1
370
     0
100
AcDbSpline
210
0.0
220
0.0
230
1.0
 70
    11
 71
     3
 72
    20
 73
    16
 74
     0
 42
0.000000001
 43
0.0000000001
 40
0.0
 40
0.0
 40
0.0
 40
0.0
 40
1.0
 40
1.0
 40
1.0
 40
2.0
 40
2.0
 40
2.0
 40
3.0
 40
3.0
 40
3.0
 40
4.0
 40
4.0
 40
4.0
 40
5.0
 40
5.0
 40
5.0
 40
5.0
 10
453.2167885507806
 20
357.6698909644983
 30
0.0
 10
453.156288552309
 20
357.7304909629675
 30
0.0
 10
453.156288552309
 20
357.8280909605019
 30
0.0
 10
453.2167885507806
 20
357.888690958971
 30
0.0
 10
453.2772885492523
 20
357.9491909574426
 30
0.0
 10
453.3739999999998
 20
357.9491909574426
 30
0.0
 10
453.4354885452558
 20
357.888690958971
 30
0.0
 10
453.4960885437249
 20
357.8280909605019
 30
0.0
 10
453.4960885437249
 20
357.7304909629675
 30
0.0
 10
453.4354885452558
 20
357.6698909644983
 30
0.0
 10
453.3739999999998
 20
357.6093909660267
 30
0.0
 10
453.2772885492523
 20
357.6093909660267
 30
0.0
 10
453.2167885507806
 20
357.6698909644983
 30
0.0
 10
453.2167885507806
 20
357.6698909644983
 30
0.0
 10
453.2167885507806
 20
357.6698909644983
 30
0.0
 10
453.2167885507806
 20
357.6698909644983
 30
0.0
  0
SPLINE
  5
BA
330
14
100
AcDbEntity
  8
Layer 1
370
     0
100
AcDbSpline
210
0.0
220
0.0
230
1.0
 70
    11
 71
     3
 72
    20
 73
    16
 74
     0
 42
0.000000001
 43
0.0000000001
 40
0.0
 40
0.0
 40
0.0
 40
0.0
 40
1.0
 40
1.0
 40
1.0
 40
2.0
 40
2.0
 40
2.0
 40
3.0
 40
3.0
 40
3.0
 40
4.0
 40
4.0
 40
4.0
 40
5.0
 40
5.0
 40
5.0
 40
5.0
 10
453.0312885554667
 20
356.9198909834449
 30
0.0
 10
452.946288557614
 20
356.9198909834449
 30
0.0
 10
452.8770000000004
 20
356.988290981717
 30
0.0
 10
452.8770000000004
 20
357.074190979547
 30
0.0
 10
452.8770000000004
 20
357.158190977425
 30
0.0
 10
452.946288557614
 20
357.228490975649
 30
0.0
 10
453.0312885554667
 20
357.228490975649
 30
0.0
 10
453.1171885532967
 20
357.228490975649
 30
0.0
 10
453.1854885515713
 20
357.158190977425
 30
0.0
 10
453.1854885515713
 20
357.074190979547
 30
0.0
 10
453.1854885515713
 20
356.988290981717
 30
0.0
 10
453.1171885532967
 20
356.9198909834449
 30
0.0
 10
453.0312885554667
 20
356.9198909834449
 30
0.0
 10
453.0312885554667
 20
356.9198909834449
 30
0.0
 10
453.0312885554667
 20
356.9198909834449
 30
0.0
 10
453.0312885554667
 20
356.9198909834449
 30
0.0
  0
SPLINE
  5
BB
330
14
100
AcDbEntity
  8
Layer 1
370
     0
100
AcDbSpline
210
0.0
220
0.0
230
1.0
 70
    11
 71
     3
 72
    20
 73
    16
 74
     0
 42
0.000000001
 43
0.0000000001
 40
0.0
 40
0.0
 40
0.0
 40
0.0
 40
1.0
 40
1.0
 40
1.0
 40
2.0
 40
2.0
 40
2.0
 40
3.0
 40
3.0
 40
3.0
 40
4.0
 40
4.0
 40
4.0
 40
5.0
 40
5.0
 40
5.0
 40
5.0
 10
453.4306885453771
 20
356.257791000171
 30
0.0
 10
453.490188543874
 20
356.3183909986401
 30
0.0
 10
453.490188543874
 20
356.4159999999993
 30
0.0
 10
453.4306885453771
 20
356.4765909946436
 30
0.0
 10
453.3710885468827
 20
356.5370909931153
 30
0.0
 10
453.2724885493735
 20
356.5370909931153
 30
0.0
 10
453.2118885509044
 20
356.4765909946436
 30
0.0
 10
453.15228855241
 20
356.4159999999993
 30
0.0
 10
453.15228855241
 20
356.3183909986401
 30
0.0
 10
453.2118885509044
 20
356.257791000171
 30
0.0
 10
453.2724885493735
 20
356.1972910016993
 30
0.0
 10
453.3710885468827
 20
356.1972910016993
 30
0.0
 10
453.4306885453771
 20
356.257791000171
 30
0.0
 10
453.4306885453771
 20
356.257791000171
 30
0.0
 10
453.4306885453771
 20
356.257791000171
 30
0.0
 10
453.4306885453771
 20
356.257791000171
 30
0.0
  0
SPLINE
  5
BC
330
14
100
AcDbEntity
  8
Layer 1
370
     0
100
AcDbSpline
210
0.0
220
0.0
230
1.0
 70
    11
 71
     3
 72
    29
 73
    25
 74
     0
 42
0.000000001
 43
0.0000000001
 40
0.0
 40
0.0
 40
0.0
 40
0.0
 40
1.0
 40
1.0
 40
1.0
 40
2.0
 40
2.0
 40
2.0
 40
3.0
 40
3.0
 40
3.0
 40
4.0
 40
4.0
 40
4.0
 40
5.0
 40
5.0
 40
5.0
 40
6.0
 40
6.0
 40
6.0
 40
7.0
 40
7.0
 40
7.0
 40
8.0
 40
8.0
 40
8.0
 40
8.0
 10
439.0546889085454
 20
357.9804909566519
 30
0.0
 10
439.2870889026744
 20
357.7479999999996
 30
0.0
 10
439.4315888990241
 20
357.4276909706168
 30
0.0
 10
439.4315888990241
 20
357.0702909796455
 30
0.0
 10
439.4315888990241
 20
356.7147909886262
 30
0.0
 10
439.2870889026744
 20
356.3944909967176
 30
0.0
 10
439.0546889085454
 20
356.1620910025886
 30
0.0
 10
438.8222889144163
 20
355.9296910084595
 30
0.0
 10
438.5010000000002
 20
355.7851910121099
 30
0.0
 10
438.1444889315389
 20
355.7851910121099
 30
0.0
 10
437.7890889405171
 20
355.7851910121099
 30
0.0
 10
437.4687889486086
 20
355.92769100851
 30
0.0
 10
437.2353889545047
 20
356.1620910025886
 30
0.0
 10
437.0020000000004
 20
356.3944909967176
 30
0.0
 10
436.8583889640286
 20
356.7147909886262
 30
0.0
 10
436.8583889640286
 20
357.0702909796455
 30
0.0
 10
436.8583889640286
 20
357.4276909706168
 30
0.0
 10
437.0020000000004
 20
357.7479999999996
 30
0.0
 10
437.2353889545047
 20
357.9804909566519
 30
0.0
 10
437.4687889486086
 20
358.214790950733
 30
0.0
 10
437.7890889405171
 20
358.3573909471306
 30
0.0
 10
438.1444889315389
 20
358.3573909471306
 30
0.0
 10
438.5010000000002
 20
358.3573909471306
 30
0.0
 10
438.8222889144163
 20
358.214790950733
 30
0.0
 10
439.0546889085454
 20
357.9804909566519
 30
0.0
  0
SPLINE
  5
BD
330
14
100
AcDbEntity
  8
Layer 1
370
     0
100
AcDbSpline
210
0.0
220
0.0
230
1.0
 70
    11
 71
     3
 72
    20
 73
    16
 74
     0
 42
0.000000001
 43
0.0000000001
 40
0.0
 40
0.0
 40
0.0
 40
0.0
 40
1.0
 40
1.0
 40
1.0
 40
2.0
 40
2.0
 40
2.0
 40
3.0
 40
3.0
 40
3.0
 40
4.0
 40
4.0
 40
4.0
 40
5.0
 40
5.0
 40
5.0
 40
5.0
 10
437.5468889466356
 20
357.8847909590695
 30
0.0
 10
437.6073889451072
 20
357.8241909606004
 30
0.0
 10
437.6073889451072
 20
357.726590963066
 30
0.0
 10
437.5468889466356
 20
357.6659999999993
 30
0.0
 10
437.4862889481665
 20
357.6054909661252
 30
0.0
 10
437.3886889506321
 20
357.6054909661252
 30
0.0
 10
437.3280889521629
 20
357.6659999999993
 30
0.0
 10
437.2675889536913
 20
357.726590963066
 30
0.0
 10
437.2675889536913
 20
357.8241909606004
 30
0.0
 10
437.3280889521629
 20
357.8847909590695
 30
0.0
 10
437.3886889506321
 20
357.9452909575411
 30
0.0
 10
437.4862889481665
 20
357.9452909575411
 30
0.0
 10
437.5468889466356
 20
357.8847909590695
 30
0.0
 10
437.5468889466356
 20
357.8847909590695
 30
0.0
 10
437.5468889466356
 20
357.8847909590695
 30
0.0
 10
437.5468889466356
 20
357.8847909590695
 30
0.0
  0
SPLINE
  5
BE
330
14
100
AcDbEntity
  8
Layer 1
370
     0
100
AcDbSpline
210
0.0
220
0.0
230
1.0
 70
    11
 71
     3
 72
    20
 73
    16
 74
     0
 42
0.000000001
 43
0.0000000001
 40
0.0
 40
0.0
 40
0.0
 40
0.0
 40
1.0
 40
1.0
 40
1.0
 40
2.0
 40
2.0
 40
2.0
 40
3.0
 40
3.0
 40
3.0
 40
4.0
 40
4.0
 40
4.0
 40
5.0
 40
5.0
 40
5.0
 40
5.0
 10
438.296888927689
 20
358.0702909543834
 30
0.0
 10
438.296888927689
 20
357.9843909565534
 30
0.0
 10
438.2274889294422
 20
357.9159999999993
 30
0.0
 10
438.1425889315869
 20
357.9159999999993
 30
0.0
 10
438.0565889337595
 20
357.9159999999993
 30
0.0
 10
437.9882889354849
 20
357.9843909565534
 30
0.0
 10
437.9882889354849
 20
358.0702909543834
 30
0.0
 10
437.9882889354849
 20
358.1552909522361
 30
0.0
 10
438.0565889337595
 20
358.2245909504854
 30
0.0
 10
438.1425889315869
 20
358.2245909504854
 30
0.0
 10
438.2274889294422
 20
358.2245909504854
 30
0.0
 10
438.296888927689
 20
358.1552909522361
 30
0.0
 10
438.296888927689
 20
358.0702909543834
 30
0.0
 10
438.296888927689
 20
358.0702909543834
 30
0.0
 10
438.296888927689
 20
358.0702909543834
 30
0.0
 10
438.296888927689
 20
358.0702909543834
 30
0.0
  0
SPLINE
  5
BF
330
14
100
AcDbEntity
  8
Layer 1
370
     0
100
AcDbSpline
210
0.0
220
0.0
230
1.0
 70
    11
 71
     3
 72
    20
 73
    16
 74
     0
 42
0.000000001
 43
0.0000000001
 40
0.0
 40
0.0
 40
0.0
 40
0.0
 40
1.0
 40
1.0
 40
1.0
 40
2.0
 40
2.0
 40
2.0
 40
3.0
 40
3.0
 40
3.0
 40
4.0
 40
4.0
 40
4.0
 40
5.0
 40
5.0
 40
5.0
 40
5.0
 10
438.9590000000007
 20
357.6698909644983
 30
0.0
 10
438.8983889124938
 20
357.6093909660267
 30
0.0
 10
438.8007889149594
 20
357.6093909660267
 30
0.0
 10
438.7401889164903
 20
357.6698909644983
 30
0.0
 10
438.6796889180187
 20
357.7304909629675
 30
0.0
 10
438.6796889180187
 20
357.8280909605019
 30
0.0
 10
438.7401889164903
 20
357.888690958971
 30
0.0
 10
438.8007889149594
 20
357.9491909574426
 30
0.0
 10
438.8983889124938
 20
357.9491909574426
 30
0.0
 10
438.9590000000007
 20
357.888690958971
 30
0.0
 10
439.0194889094346
 20
357.8280909605019
 30
0.0
 10
439.0194889094346
 20
357.7304909629675
 30
0.0
 10
438.9590000000007
 20
357.6698909644983
 30
0.0
 10
438.9590000000007
 20
357.6698909644983
 30
0.0
 10
438.9590000000007
 20
357.6698909644983
 30
0.0
 10
438.9590000000007
 20
357.6698909644983
 30
0.0
  0
SPLINE
  5
C0
330
14
100
AcDbEntity
  8
Layer 1
370
     0
100
AcDbSpline
210
0.0
220
0.0
230
1.0
 70
    11
 71
     3
 72
    20
 73
    16
 74
     0
 42
0.000000001
 43
0.0000000001
 40
0.0
 40
0.0
 40
0.0
 40
0.0
 40
1.0
 40
1.0
 40
1.0
 40
2.0
 40
2.0
 40
2.0
 40
3.0
 40
3.0
 40
3.0
 40
4.0
 40
4.0
 40
4.0
 40
5.0
 40
5.0
 40
5.0
 40
5.0
 10
439.1444889062768
 20
356.9198909834449
 30
0.0
 10
439.0585889084468
 20
356.9198909834449
 30
0.0
 10
438.9892889101975
 20
356.988290981717
 30
0.0
 10
438.9892889101975
 20
357.074190979547
 30
0.0
 10
438.9892889101975
 20
357.158190977425
 30
0.0
 10
439.0585889084468
 20
357.228490975649
 30
0.0
 10
439.1444889062768
 20
357.228490975649
 30
0.0
 10
439.2294889041295
 20
357.228490975649
 30
0.0
 10
439.2987889023789
 20
357.158190977425
 30
0.0
 10
439.2987889023789
 20
357.074190979547
 30
0.0
 10
439.2987889023789
 20
356.988290981717
 30
0.0
 10
439.2294889041295
 20
356.9198909834449
 30
0.0
 10
439.1444889062768
 20
356.9198909834449
 30
0.0
 10
439.1444889062768
 20
356.9198909834449
 30
0.0
 10
439.1444889062768
 20
356.9198909834449
 30
0.0
 10
439.1444889062768
 20
356.9198909834449
 30
0.0
  0
SPLINE
  5
C1
330
14
100
AcDbEntity
  8
Layer 1
370
     0
100
AcDbSpline
210
0.0
220
0.0
230
1.0
 70
    11
 71
     3
 72
    20
 73
    16
 74
     0
 42
0.000000001
 43
0.0000000001
 40
0.0
 40
0.0
 40
0.0
 40
0.0
 40
1.0
 40
1.0
 40
1.0
 40
2.0
 40
2.0
 40
2.0
 40
3.0
 40
3.0
 40
3.0
 40
4.0
 40
4.0
 40
4.0
 40
5.0
 40
5.0
 40
5.0
 40
5.0
 10
438.7440889163918
 20
356.257791000171
 30
0.0
 10
438.8046889148609
 20
356.1972910016993
 30
0.0
 10
438.9022889123953
 20
356.1972910016993
 30
0.0
 10
438.9628889108644
 20
356.257791000171
 30
0.0
 10
439.0224889093588
 20
356.3183909986401
 30
0.0
 10
439.0224889093588
 20
356.4159999999993
 30
0.0
 10
438.9628889108644
 20
356.4765909946436
 30
0.0
 10
438.9022889123953
 20
356.5370909931153
 30
0.0
 10
438.8046889148609
 20
356.5370909931153
 30
0.0
 10
438.7440889163918
 20
356.4765909946436
 30
0.0
 10
438.6835889179201
 20
356.4159999999993
 30
0.0
 10
438.6835889179201
 20
356.3183909986401
 30
0.0
 10
438.7440889163918
 20
356.257791000171
 30
0.0
 10
438.7440889163918
 20
356.257791000171
 30
0.0
 10
438.7440889163918
 20
356.257791000171
 30
0.0
 10
438.7440889163918
 20
356.257791000171
 30
0.0
  0
SPLINE
  5
C2
330
14
100
AcDbEntity
  8
Layer 1
370
     0
100
AcDbSpline
210
0.0
220
0.0
230
1.0
 70
    11
 71
     3
 72
    20
 73
    16
 74
     0
 42
0.000000001
 43
0.0000000001
 40
0.0
 40
0.0
 40
0.0
 40
0.0
 40
1.0
 40
1.0
 40
1.0
 40
2.0
 40
2.0
 40
2.0
 40
3.0
 40
3.0
 40
3.0
 40
4.0
 40
4.0
 40
4.0
 40
5.0
 40
5.0
 40
5.0
 40
5.0
 10
437.9931889353611
 20
356.0722910048571
 30
0.0
 10
437.9931889353611
 20
355.9862910070296
 30
0.0
 10
438.0624889336104
 20
355.9179999999997
 30
0.0
 10
438.1483889314404
 20
355.9179999999997
 30
0.0
 10
438.2333889292931
 20
355.9179999999997
 30
0.0
 10
438.3026889275425
 20
355.9862910070296
 30
0.0
 10
438.3026889275425
 20
356.0722910048571
 30
0.0
 10
438.3026889275425
 20
356.1581910026871
 30
0.0
 10
438.2333889292931
 20
356.2265910009592
 30
0.0
 10
438.1483889314404
 20
356.2265910009592
 30
0.0
 10
438.0624889336104
 20
356.2265910009592
 30
0.0
 10
437.9931889353611
 20
356.1581910026871
 30
0.0
 10
437.9931889353611
 20
356.0722910048571
 30
0.0
 10
437.9931889353611
 20
356.0722910048571
 30
0.0
 10
437.9931889353611
 20
356.0722910048571
 30
0.0
 10
437.9931889353611
 20
356.0722910048571
 30
0.0
  0
SPLINE
  5
C3
330
14
100
AcDbEntity
  8
Layer 1
370
     0
100
AcDbSpline
210
0.0
220
0.0
230
1.0
 70
    11
 71
     3
 72
    20
 73
    16
 74
     0
 42
0.000000001
 43
0.0000000001
 40
0.0
 40
0.0
 40
0.0
 40
0.0
 40
1.0
 40
1.0
 40
1.0
 40
2.0
 40
2.0
 40
2.0
 40
3.0
 40
3.0
 40
3.0
 40
4.0
 40
4.0
 40
4.0
 40
5.0
 40
5.0
 40
5.0
 40
5.0
 10
437.3320000000003
 20
356.4726909947422
 30
0.0
 10
437.2714889535928
 20
356.412090996273
 30
0.0
 10
437.2714889535928
 20
356.3144909987386
 30
0.0
 10
437.3320000000003
 20
356.2538910002695
 30
0.0
 10
437.3925889505335
 20
356.1933910017979
 30
0.0
 10
437.490188948068
 20
356.1933910017979
 30
0.0
 10
437.5507889465371
 20
356.2538910002695
 30
0.0
 10
437.6112889450087
 20
356.3144909987386
 30
0.0
 10
437.6112889450087
 20
356.412090996273
 30
0.0
 10
437.5507889465371
 20
356.4726909947422
 30
0.0
 10
437.490188948068
 20
356.5331909932138
 30
0.0
 10
437.3925889505335
 20
356.5331909932138
 30
0.0
 10
437.3320000000003
 20
356.4726909947422
 30
0.0
 10
437.3320000000003
 20
356.4726909947422
 30
0.0
 10
437.3320000000003
 20
356.4726909947422
 30
0.0
 10
437.3320000000003
 20
356.4726909947422
 30
0.0
  0
SPLINE
  5
C4
330
14
100
AcDbEntity
  8
Layer 1
370
     0
100
AcDbSpline
210
0.0
220
0.0
230
1.0
 70
    11
 71
     3
 72
    20
 73
    16
 74
     0
 42
0.000000001
 43
0.0000000001
 40
0.0
 40
0.0
 40
0.0
 40
0.0
 40
1.0
 40
1.0
 40
1.0
 40
2.0
 40
2.0
 40
2.0
 40
3.0
 40
3.0
 40
3.0
 40
4.0
 40
4.0
 40
4.0
 40
5.0
 40
5.0
 40
5.0
 40
5.0
 10
437.1464889567505
 20
357.2226909757956
 30
0.0
 10
437.2313889546058
 20
357.2226909757956
 30
0.0
 10
437.3007889528526
 20
357.1542909775235
 30
0.0
 10
437.3007889528526
 20
357.0683909796935
 30
0.0
 10
437.3007889528526
 20
356.982390981866
 30
0.0
 10
437.2313889546058
 20
356.9140909835914
 30
0.0
 10
437.1464889567505
 20
356.9140909835914
 30
0.0
 10
437.0614889588978
 20
356.9140909835914
 30
0.0
 10
436.9921889606485
 20
356.982390981866
 30
0.0
 10
436.9921889606485
 20
357.0683909796935
 30
0.0
 10
436.9921889606485
 20
357.1542909775235
 30
0.0
 10
437.0614889588978
 20
357.2226909757956
 30
0.0
 10
437.1464889567505
 20
357.2226909757956
 30
0.0
 10
437.1464889567505
 20
357.2226909757956
 30
0.0
 10
437.1464889567505
 20
357.2226909757956
 30
0.0
 10
437.1464889567505
 20
357.2226909757956
 30
0.0
  0
SPLINE
  5
C5
330
14
100
AcDbEntity
  8
Layer 1
370
     0
100
AcDbSpline
210
0.0
220
0.0
230
1.0
 70
    11
 71
     3
 72
    32
 73
    28
 74
     0
 42
0.000000001
 43
0.0000000001
 40
0.0
 40
0.0
 40
0.0
 40
0.0
 40
1.0
 40
1.0
 40
1.0
 40
2.0
 40
2.0
 40
2.0
 40
3.0
 40
3.0
 40
3.0
 40
4.0
 40
4.0
 40
4.0
 40
5.0
 40
5.0
 40
5.0
 40
6.0
 40
6.0
 40
6.0
 40
7.0
 40
7.0
 40
7.0
 40
8.0
 40
8.0
 40
8.0
 40
9.0
 40
9.0
 40
9.0
 40
9.0
 10
431.3905891021568
 20
357.9804909566519
 30
0.0
 10
431.6229999999996
 20
357.7479999999996
 30
0.0
 10
431.767589092633
 20
357.4276909706168
 30
0.0
 10
431.767589092633
 20
357.0702909796455
 30
0.0
 10
431.767589092633
 20
356.7147909886262
 30
0.0
 10
431.6229999999996
 20
356.3944909967176
 30
0.0
 10
431.3905891021568
 20
356.1620910025886
 30
0.0
 10
431.157189108053
 20
355.9296910084595
 30
0.0
 10
430.8358891161697
 20
355.7851910121099
 30
0.0
 10
430.4804891251479
 20
355.7851910121099
 30
0.0
 10
430.125
 20
355.7851910121099
 30
0.0
 10
429.8026891422705
 20
355.92769100851
 30
0.0
 10
429.5702891481415
 20
356.1620910025886
 30
0.0
 10
429.3378891540124
 20
356.3944909967176
 30
0.0
 10
429.1933891576628
 20
356.7147909886262
 30
0.0
 10
429.1933891576628
 20
357.0702909796455
 30
0.0
 10
429.1933891576628
 20
357.4276909706168
 30
0.0
 10
429.3378891540124
 20
357.7479999999996
 30
0.0
 10
429.5702891481415
 20
357.9804909566519
 30
0.0
 10
429.8026891422705
 20
358.214790950733
 30
0.0
 10
430.125
 20
358.3573909471306
 30
0.0
 10
430.4804891251479
 20
358.3573909471306
 30
0.0
 10
430.8358891161697
 20
358.3573909471306
 30
0.0
 10
431.157189108053
 20
358.214790950733
 30
0.0
 10
431.3905891021568
 20
357.9804909566519
 30
0.0
 10
431.3905891021568
 20
357.9804909566519
 30
0.0
 10
431.3905891021568
 20
357.9804909566519
 30
0.0
 10
431.3905891021568
 20
357.9804909566519
 30
0.0
  0
SPLINE
  5
C6
330
14
100
AcDbEntity
  8
Layer 1
370
     0
100
AcDbSpline
210
0.0
220
0.0
230
1.0
 70
    11
 71
     3
 72
    20
 73
    16
 74
     0
 42
0.000000001
 43
0.0000000001
 40
0.0
 40
0.0
 40
0.0
 40
0.0
 40
1.0
 40
1.0
 40
1.0
 40
2.0
 40
2.0
 40
2.0
 40
3.0
 40
3.0
 40
3.0
 40
4.0
 40
4.0
 40
4.0
 40
5.0
 40
5.0
 40
5.0
 40
5.0
 10
429.8817891402723
 20
357.8847909590695
 30
0.0
 10
429.9413891387667
 20
357.8241909606004
 30
0.0
 10
429.9413891387667
 20
357.726590963066
 30
0.0
 10
429.8817891402723
 20
357.6659999999993
 30
0.0
 10
429.8222891417754
 20
357.6054909661252
 30
0.0
 10
429.7226891442915
 20
357.6054909661252
 30
0.0
 10
429.6630891457971
 20
357.6659999999993
 30
0.0
 10
429.6034891473028
 20
357.726590963066
 30
0.0
 10
429.6034891473028
 20
357.8241909606004
 30
0.0
 10
429.6630891457971
 20
357.8847909590695
 30
0.0
 10
429.7226891442915
 20
357.9452909575411
 30
0.0
 10
429.8222891417754
 20
357.9452909575411
 30
0.0
 10
429.8817891402723
 20
357.8847909590695
 30
0.0
 10
429.8817891402723
 20
357.8847909590695
 30
0.0
 10
429.8817891402723
 20
357.8847909590695
 30
0.0
 10
429.8817891402723
 20
357.8847909590695
 30
0.0
  0
SPLINE
  5
C7
330
14
100
AcDbEntity
  8
Layer 1
370
     0
100
AcDbSpline
210
0.0
220
0.0
230
1.0
 70
    11
 71
     3
 72
    20
 73
    16
 74
     0
 42
0.000000001
 43
0.0000000001
 40
0.0
 40
0.0
 40
0.0
 40
0.0
 40
1.0
 40
1.0
 40
1.0
 40
2.0
 40
2.0
 40
2.0
 40
3.0
 40
3.0
 40
3.0
 40
4.0
 40
4.0
 40
4.0
 40
5.0
 40
5.0
 40
5.0
 40
5.0
 10
430.6327891213004
 20
358.0702909543834
 30
0.0
 10
430.6327891213004
 20
357.9843909565534
 30
0.0
 10
430.5624891230764
 20
357.9159999999993
 30
0.0
 10
430.4774891252237
 20
357.9159999999993
 30
0.0
 10
430.3925891273684
 20
357.9159999999993
 30
0.0
 10
430.3222891291443
 20
357.9843909565534
 30
0.0
 10
430.3222891291443
 20
358.0702909543834
 30
0.0
 10
430.3222891291443
 20
358.1552909522361
 30
0.0
 10
430.3925891273684
 20
358.2245909504854
 30
0.0
 10
430.4774891252237
 20
358.2245909504854
 30
0.0
 10
430.5624891230764
 20
358.2245909504854
 30
0.0
 10
430.6327891213004
 20
358.1552909522361
 30
0.0
 10
430.6327891213004
 20
358.0702909543834
 30
0.0
 10
430.6327891213004
 20
358.0702909543834
 30
0.0
 10
430.6327891213004
 20
358.0702909543834
 30
0.0
 10
430.6327891213004
 20
358.0702909543834
 30
0.0
  0
SPLINE
  5
C8
330
14
100
AcDbEntity
  8
Layer 1
370
     0
100
AcDbSpline
210
0.0
220
0.0
230
1.0
 70
    11
 71
     3
 72
    20
 73
    16
 74
     0
 42
0.000000001
 43
0.0000000001
 40
0.0
 40
0.0
 40
0.0
 40
0.0
 40
1.0
 40
1.0
 40
1.0
 40
2.0
 40
2.0
 40
2.0
 40
3.0
 40
3.0
 40
3.0
 40
4.0
 40
4.0
 40
4.0
 40
5.0
 40
5.0
 40
5.0
 40
5.0
 10
431.2929999999997
 20
357.6698909644983
 30
0.0
 10
431.233389106128
 20
357.6093909660267
 30
0.0
 10
431.1347891086189
 20
357.6093909660267
 30
0.0
 10
431.0751891101245
 20
357.6698909644983
 30
0.0
 10
431.0155891116301
 20
357.7304909629675
 30
0.0
 10
431.0155891116301
 20
357.8280909605019
 30
0.0
 10
431.0751891101245
 20
357.888690958971
 30
0.0
 10
431.1347891086189
 20
357.9491909574426
 30
0.0
 10
431.233389106128
 20
357.9491909574426
 30
0.0
 10
431.2929999999997
 20
357.888690958971
 30
0.0
 10
431.353489103094
 20
357.8280909605019
 30
0.0
 10
431.353489103094
 20
357.7304909629675
 30
0.0
 10
431.2929999999997
 20
357.6698909644983
 30
0.0
 10
431.2929999999997
 20
357.6698909644983
 30
0.0
 10
431.2929999999997
 20
357.6698909644983
 30
0.0
 10
431.2929999999997
 20
357.6698909644983
 30
0.0
  0
SPLINE
  5
C9
330
14
100
AcDbEntity
  8
Layer 1
370
     0
100
AcDbSpline
210
0.0
220
0.0
230
1.0
 70
    11
 71
     3
 72
    20
 73
    16
 74
     0
 42
0.000000001
 43
0.0000000001
 40
0.0
 40
0.0
 40
0.0
 40
0.0
 40
1.0
 40
1.0
 40
1.0
 40
2.0
 40
2.0
 40
2.0
 40
3.0
 40
3.0
 40
3.0
 40
4.0
 40
4.0
 40
4.0
 40
5.0
 40
5.0
 40
5.0
 40
5.0
 10
431.4784890999363
 20
356.9198909834449
 30
0.0
 10
431.3944891020583
 20
356.9198909834449
 30
0.0
 10
431.3241891038342
 20
356.988290981717
 30
0.0
 10
431.3241891038342
 20
357.074190979547
 30
0.0
 10
431.3241891038342
 20
357.158190977425
 30
0.0
 10
431.3944891020583
 20
357.228490975649
 30
0.0
 10
431.4784890999363
 20
357.228490975649
 30
0.0
 10
431.5644890977637
 20
357.228490975649
 30
0.0
 10
431.6337890960131
 20
357.158190977425
 30
0.0
 10
431.6337890960131
 20
357.074190979547
 30
0.0
 10
431.6337890960131
 20
356.988290981717
 30
0.0
 10
431.5644890977637
 20
356.9198909834449
 30
0.0
 10
431.4784890999363
 20
356.9198909834449
 30
0.0
 10
431.4784890999363
 20
356.9198909834449
 30
0.0
 10
431.4784890999363
 20
356.9198909834449
 30
0.0
 10
431.4784890999363
 20
356.9198909834449
 30
0.0
  0
SPLINE
  5
CA
330
14
100
AcDbEntity
  8
Layer 1
370
     0
100
AcDbSpline
210
0.0
220
0.0
230
1.0
 70
    11
 71
     3
 72
    20
 73
    16
 74
     0
 42
0.000000001
 43
0.0000000001
 40
0.0
 40
0.0
 40
0.0
 40
0.0
 40
1.0
 40
1.0
 40
1.0
 40
2.0
 40
2.0
 40
2.0
 40
3.0
 40
3.0
 40
3.0
 40
4.0
 40
4.0
 40
4.0
 40
5.0
 40
5.0
 40
5.0
 40
5.0
 10
431.0800891100007
 20
356.257791000171
 30
0.0
 10
431.1405891084723
 20
356.1972910016993
 30
0.0
 10
431.2372891060295
 20
356.1972910016993
 30
0.0
 10
431.2968891045239
 20
356.257791000171
 30
0.0
 10
431.3573891029955
 20
356.3183909986401
 30
0.0
 10
431.3583891029702
 20
356.4159999999993
 30
0.0
 10
431.2968891045239
 20
356.4765909946436
 30
0.0
 10
431.2372891060295
 20
356.5370909931153
 30
0.0
 10
431.1405891084723
 20
356.5370909931153
 30
0.0
 10
431.0800891100007
 20
356.4765909946436
 30
0.0
 10
431.0185891115543
 20
356.4159999999993
 30
0.0
 10
431.0185891115543
 20
356.3183909986401
 30
0.0
 10
431.0800891100007
 20
356.257791000171
 30
0.0
 10
431.0800891100007
 20
356.257791000171
 30
0.0
 10
431.0800891100007
 20
356.257791000171
 30
0.0
 10
431.0800891100007
 20
356.257791000171
 30
0.0
  0
SPLINE
  5
CB
330
14
100
AcDbEntity
  8
Layer 1
370
     0
100
AcDbSpline
210
0.0
220
0.0
230
1.0
 70
    11
 71
     3
 72
    20
 73
    16
 74
     0
 42
0.000000001
 43
0.0000000001
 40
0.0
 40
0.0
 40
0.0
 40
0.0
 40
1.0
 40
1.0
 40
1.0
 40
2.0
 40
2.0
 40
2.0
 40
3.0
 40
3.0
 40
3.0
 40
4.0
 40
4.0
 40
4.0
 40
5.0
 40
5.0
 40
5.0
 40
5.0
 10
430.3280891289978
 20
356.0722910048571
 30
0.0
 10
430.3280891289978
 20
355.9862910070296
 30
0.0
 10
430.3983891272219
 20
355.9179999999997
 30
0.0
 10
430.4823891250999
 20
355.9179999999997
 30
0.0
 10
430.5683891229273
 20
355.9179999999997
 30
0.0
 10
430.6376891211767
 20
355.9862910070296
 30
0.0
 10
430.6376891211767
 20
356.0722910048571
 30
0.0
 10
430.6376891211767
 20
356.1581910026871
 30
0.0
 10
430.5683891229273
 20
356.2265910009592
 30
0.0
 10
430.4823891250999
 20
356.2265910009592
 30
0.0
 10
430.3983891272219
 20
356.2265910009592
 30
0.0
 10
430.3280891289978
 20
356.1581910026871
 30
0.0
 10
430.3280891289978
 20
356.0722910048571
 30
0.0
 10
430.3280891289978
 20
356.0722910048571
 30
0.0
 10
430.3280891289978
 20
356.0722910048571
 30
0.0
 10
430.3280891289978
 20
356.0722910048571
 30
0.0
  0
SPLINE
  5
CC
330
14
100
AcDbEntity
  8
Layer 1
370
     0
100
AcDbSpline
210
0.0
220
0.0
230
1.0
 70
    11
 71
     3
 72
    20
 73
    16
 74
     0
 42
0.000000001
 43
0.0000000001
 40
0.0
 40
0.0
 40
0.0
 40
0.0
 40
1.0
 40
1.0
 40
1.0
 40
2.0
 40
2.0
 40
2.0
 40
3.0
 40
3.0
 40
3.0
 40
4.0
 40
4.0
 40
4.0
 40
5.0
 40
5.0
 40
5.0
 40
5.0
 10
429.6669999999995
 20
356.4726909947422
 30
0.0
 10
429.6063891472295
 20
356.412090996273
 30
0.0
 10
429.6063891472295
 20
356.3144909987386
 30
0.0
 10
429.6669999999995
 20
356.2538910002695
 30
0.0
 10
429.726589144193
 20
356.1933910017979
 30
0.0
 10
429.8251891417021
 20
356.1933910017979
 30
0.0
 10
429.8847891401965
 20
356.2538910002695
 30
0.0
 10
429.9452891386682
 20
356.3144909987386
 30
0.0
 10
429.9452891386682
 20
356.412090996273
 30
0.0
 10
429.8847891401965
 20
356.4726909947422
 30
0.0
 10
429.8251891417021
 20
356.5331909932138
 30
0.0
 10
429.726589144193
 20
356.5331909932138
 30
0.0
 10
429.6669999999995
 20
356.4726909947422
 30
0.0
 10
429.6669999999995
 20
356.4726909947422
 30
0.0
 10
429.6669999999995
 20
356.4726909947422
 30
0.0
 10
429.6669999999995
 20
356.4726909947422
 30
0.0
  0
SPLINE
  5
CD
330
14
100
AcDbEntity
  8
Layer 1
370
     0
100
AcDbSpline
210
0.0
220
0.0
230
1.0
 70
    11
 71
     3
 72
    20
 73
    16
 74
     0
 42
0.000000001
 43
0.0000000001
 40
0.0
 40
0.0
 40
0.0
 40
0.0
 40
1.0
 40
1.0
 40
1.0
 40
2.0
 40
2.0
 40
2.0
 40
3.0
 40
3.0
 40
3.0
 40
4.0
 40
4.0
 40
4.0
 40
5.0
 40
5.0
 40
5.0
 40
5.0
 10
429.4813891503873
 20
357.2226909757956
 30
0.0
 10
429.56638914824
 20
357.2226909757956
 30
0.0
 10
429.6366891464641
 20
357.1542909775235
 30
0.0
 10
429.6366891464641
 20
357.0683909796935
 30
0.0
 10
429.6366891464641
 20
356.982390981866
 30
0.0
 10
429.56638914824
 20
356.9140909835914
 30
0.0
 10
429.4813891503873
 20
356.9140909835914
 30
0.0
 10
429.396489152532
 20
356.9140909835914
 30
0.0
 10
429.3261891543079
 20
356.982390981866
 30
0.0
 10
429.3261891543079
 20
357.0683909796935
 30
0.0
 10
429.3261891543079
 20
357.1542909775235
 30
0.0
 10
429.396489152532
 20
357.2226909757956
 30
0.0
 10
429.4813891503873
 20
357.2226909757956
 30
0.0
 10
429.4813891503873
 20
357.2226909757956
 30
0.0
 10
429.4813891503873
 20
357.2226909757956
 30
0.0
 10
429.4813891503873
 20
357.2226909757956
 30
0.0
  0
SPLINE
  5
CE
330
14
100
AcDbEntity
  8
Layer 1
370
     0
100
AcDbSpline
210
0.0
220
0.0
230
1.0
 70
    11
 71
     3
 72
    32
 73
    28
 74
     0
 42
0.000000001
 43
0.0000000001
 40
0.0
 40
0.0
 40
0.0
 40
0.0
 40
1.0
 40
1.0
 40
1.0
 40
2.0
 40
2.0
 40
2.0
 40
3.0
 40
3.0
 40
3.0
 40
4.0
 40
4.0
 40
4.0
 40
5.0
 40
5.0
 40
5.0
 40
6.0
 40
6.0
 40
6.0
 40
7.0
 40
7.0
 40
7.0
 40
8.0
 40
8.0
 40
8.0
 40
9.0
 40
9.0
 40
9.0
 40
9.0
 10
438.1444889315389
 20
360.1972909006508
 30
0.0
 10
439.0077889097302
 20
360.1972909006508
 30
0.0
 10
439.7900000000009
 20
359.8466909095077
 30
0.0
 10
440.3554888756844
 20
359.2812909237909
 30
0.0
 10
440.9208888614012
 20
358.7157909380767
 30
0.0
 10
441.2714888525443
 20
357.9335909578367
 30
0.0
 10
441.2714888525443
 20
357.0702909796455
 30
0.0
 10
441.2714888525443
 20
356.2070000000003
 30
0.0
 10
440.9208888614012
 20
355.4257910211891
 30
0.0
 10
440.3554888756844
 20
354.8612910354495
 30
0.0
 10
439.7900000000009
 20
354.294891049758
 30
0.0
 10
439.0077889097302
 20
353.9452910585896
 30
0.0
 10
438.1444889315389
 20
353.9452910585896
 30
0.0
 10
437.2812889533452
 20
353.9452910585896
 30
0.0
 10
436.5
 20
354.294891049758
 30
0.0
 10
435.935488987343
 20
354.8612910354495
 30
0.0
 10
435.3690890016514
 20
355.4257910211891
 30
0.0
 10
435.0194890104831
 20
356.2070000000003
 30
0.0
 10
435.0194890104831
 20
357.0702909796455
 30
0.0
 10
435.0194890104831
 20
357.9335909578367
 30
0.0
 10
435.3690890016514
 20
358.7157909380767
 30
0.0
 10
435.935488987343
 20
359.2812909237909
 30
0.0
 10
436.5
 20
359.8466909095077
 30
0.0
 10
437.2812889533452
 20
360.1972909006508
 30
0.0
 10
438.1444889315389
 20
360.1972909006508
 30
0.0
 10
438.1444889315389
 20
360.1972909006508
 30
0.0
 10
438.1444889315389
 20
360.1972909006508
 30
0.0
 10
438.1444889315389
 20
360.1972909006508
 30
0.0
  0
SPLINE
  5
CF
330
14
100
AcDbEntity
  8
Layer 1
370
     0
100
AcDbSpline
210
0.0
220
0.0
230
1.0
 70
    11
 71
     3
 72
    32
 73
    28
 74
     0
 42
0.000000001
 43
0.0000000001
 40
0.0
 40
0.0
 40
0.0
 40
0.0
 40
1.0
 40
1.0
 40
1.0
 40
2.0
 40
2.0
 40
2.0
 40
3.0
 40
3.0
 40
3.0
 40
4.0
 40
4.0
 40
4.0
 40
5.0
 40
5.0
 40
5.0
 40
6.0
 40
6.0
 40
6.0
 40
7.0
 40
7.0
 40
7.0
 40
8.0
 40
8.0
 40
8.0
 40
9.0
 40
9.0
 40
9.0
 40
9.0
 10
430.4804891251479
 20
360.1972909006508
 30
0.0
 10
431.3437891033391
 20
360.1972909006508
 30
0.0
 10
432.125
 20
359.8466909095077
 30
0.0
 10
432.6913890692958
 20
359.2812909237909
 30
0.0
 10
433.2558890550354
 20
358.7157909380767
 30
0.0
 10
433.606389046181
 20
357.9335909578367
 30
0.0
 10
433.606389046181
 20
357.0702909796455
 30
0.0
 10
433.606389046181
 20
356.2070000000003
 30
0.0
 10
433.2558890550354
 20
355.4257910211891
 30
0.0
 10
432.6913890692958
 20
354.8612910354495
 30
0.0
 10
432.125
 20
354.294891049758
 30
0.0
 10
431.3437891033391
 20
353.9452910585896
 30
0.0
 10
430.4804891251479
 20
353.9452910585896
 30
0.0
 10
429.6171891469567
 20
353.9452910585896
 30
0.0
 10
428.835889166694
 20
354.294891049758
 30
0.0
 10
428.2704891809772
 20
354.8612910354495
 30
0.0
 10
427.7050891952604
 20
355.4257910211891
 30
0.0
 10
427.355489204092
 20
356.2070000000003
 30
0.0
 10
427.355489204092
 20
357.0702909796455
 30
0.0
 10
427.355489204092
 20
357.9335909578367
 30
0.0
 10
427.7050891952604
 20
358.7157909380767
 30
0.0
 10
428.2704891809772
 20
359.2812909237909
 30
0.0
 10
428.835889166694
 20
359.8466909095077
 30
0.0
 10
429.6171891469567
 20
360.1972909006508
 30
0.0
 10
430.4804891251479
 20
360.1972909006508
 30
0.0
 10
430.4804891251479
 20
360.1972909006508
 30
0.0
 10
430.4804891251479
 20
360.1972909006508
 30
0.0
 10
430.4804891251479
 20
360.1972909006508
 30
0.0
  0
POLYLINE
  5
D0
330
14
100
AcDbEntity
  8
Layer 1
370
     0
100
AcDb2dPolyline
 66
     1
 10
0.0
 20
0.0
 30
0.0
  0
VERTEX
  5
D1
330
D0
100
AcDbEntity
  8
Layer 1
370
     0
100
AcDbVertex
100
AcDb2dVertex
 10
430.5761891227303
 20
372.9433905786573
 30
0.0
  0
VERTEX
  5
D2
330
D0
100
AcDbEntity
  8
Layer 1
370
     0
100
AcDbVertex
100
AcDb2dVertex
 10
431.1933891071385
 20
372.9433905786573
 30
0.0
  0
VERTEX
  5
D3
330
D0
100
AcDbEntity
  8
Layer 1
370
     0
100
AcDbVertex
100
AcDb2dVertex
 10
431.1933891071385
 20
362.9081908321677
 30
0.0
  0
VERTEX
  5
D4
330
D0
100
AcDbEntity
  8
Layer 1
370
     0
100
AcDbVertex
100
AcDb2dVertex
 10
430.5761891227303
 20
362.9081908321677
 30
0.0
  0
VERTEX
  5
D5
330
D0
100
AcDbEntity
  8
Layer 1
370
     0
100
AcDbVertex
100
AcDb2dVertex
 10
430.5761891227303
 20
372.9433905786573
 30
0.0
  0
VERTEX
  5
D6
330
D0
100
AcDbEntity
  8
Layer 1
370
     0
100
AcDbVertex
100
AcDb2dVertex
 10
430.5761891227303
 20
372.9433905786573
 30
0.0
  0
SEQEND
  5
D7
330
D0
100
AcDbEntity
  8
Layer 1
370
     0
  0
POLYLINE
  5
D8
330
14
100
AcDbEntity
  8
Layer 1
370
     0
100
AcDb2dPolyline
 66
     1
 10
0.0
 20
0.0
 30
0.0
  0
VERTEX
  5
D9
330
D8
100
AcDbEntity
  8
Layer 1
370
     0
100
AcDbVertex
100
AcDb2dVertex
 10
435.1317890076461
 20
372.9433905786573
 30
0.0
  0
VERTEX
  5
DA
330
D8
100
AcDbEntity
  8
Layer 1
370
     0
100
AcDbVertex
100
AcDb2dVertex
 10
435.7479999999996
 20
372.9433905786573
 30
0.0
  0
VERTEX
  5
DB
330
D8
100
AcDbEntity
  8
Layer 1
370
     0
100
AcDbVertex
100
AcDb2dVertex
 10
435.7479999999996
 20
362.9081908321677
 30
0.0
  0
VERTEX
  5
DC
330
D8
100
AcDbEntity
  8
Layer 1
370
     0
100
AcDbVertex
100
AcDb2dVertex
 10
435.1317890076461
 20
362.9081908321677
 30
0.0
  0
VERTEX
  5
DD
330
D8
100
AcDbEntity
  8
Layer 1
370
     0
100
AcDbVertex
100
AcDb2dVertex
 10
435.1317890076461
 20
372.9433905786573
 30
0.0
  0
VERTEX
  5
DE
330
D8
100
AcDbEntity
  8
Layer 1
370
     0
100
AcDbVertex
100
AcDb2dVertex
 10
435.1317890076461
 20
372.9433905786573
 30
0.0
  0
SEQEND
  5
DF
330
D8
100
AcDbEntity
  8
Layer 1
370
     0
  0
POLYLINE
  5
E0
330
14
100
AcDbEntity
  8
Layer 1
370
     0
100
AcDb2dPolyline
 66
     1
 10
0.0
 20
0.0
 30
0.0
  0
VERTEX
  5
E1
330
E0
100
AcDbEntity
  8
Layer 1
370
     0
100
AcDbVertex
100
AcDb2dVertex
 10
439.9784888852082
 20
372.9433905786573
 30
0.0
  0
VERTEX
  5
E2
330
E0
100
AcDbEntity
  8
Layer 1
370
     0
100
AcDbVertex
100
AcDb2dVertex
 10
440.5956888696164
 20
372.9433905786573
 30
0.0
  0
VERTEX
  5
E3
330
E0
100
AcDbEntity
  8
Layer 1
370
     0
100
AcDbVertex
100
AcDb2dVertex
 10
440.5956888696164
 20
362.9081908321677
 30
0.0
  0
VERTEX
  5
E4
330
E0
100
AcDbEntity
  8
Layer 1
370
     0
100
AcDbVertex
100
AcDb2dVertex
 10
439.9784888852082
 20
362.9081908321677
 30
0.0
  0
VERTEX
  5
E5
330
E0
100
AcDbEntity
  8
Layer 1
370
     0
100
AcDbVertex
100
AcDb2dVertex
 10
439.9784888852082
 20
372.9433905786573
 30
0.0
  0
VERTEX
  5
E6
330
E0
100
AcDbEntity
  8
Layer 1
370
     0
100
AcDbVertex
100
AcDb2dVertex
 10
439.9784888852082
 20
372.9433905786573
 30
0.0
  0
SEQEND
  5
E7
330
E0
100
AcDbEntity
  8
Layer 1
370
     0
  0
POLYLINE
  5
E8
330
14
100
AcDbEntity
  8
Layer 1
370
     0
100
AcDb2dPolyline
 66
     1
 10
0.0
 20
0.0
 30
0.0
  0
VERTEX
  5
E9
330
E8
100
AcDbEntity
  8
Layer 1
370
     0
100
AcDbVertex
100
AcDb2dVertex
 10
444.5351887700963
 20
372.9433905786573
 30
0.0
  0
VERTEX
  5
EA
330
E8
100
AcDbEntity
  8
Layer 1
370
     0
100
AcDbVertex
100
AcDb2dVertex
 10
445.150388754555
 20
372.9433905786573
 30
0.0
  0
VERTEX
  5
EB
330
E8
100
AcDbEntity
  8
Layer 1
370
     0
100
AcDbVertex
100
AcDb2dVertex
 10
445.150388754555
 20
362.9081908321677
 30
0.0
  0
VERTEX
  5
EC
330
E8
100
AcDbEntity
  8
Layer 1
370
     0
100
AcDbVertex
100
AcDb2dVertex
 10
444.5351887700963
 20
362.9081908321677
 30
0.0
  0
VERTEX
  5
ED
330
E8
100
AcDbEntity
  8
Layer 1
370
     0
100
AcDbVertex
100
AcDb2dVertex
 10
444.5351887700963
 20
372.9433905786573
 30
0.0
  0
VERTEX
  5
EE
330
E8
100
AcDbEntity
  8
Layer 1
370
     0
100
AcDbVertex
100
AcDb2dVertex
 10
444.5351887700963
 20
372.9433905786573
 30
0.0
  0
SEQEND
  5
EF
330
E8
100
AcDbEntity
  8
Layer 1
370
     0
  0
POLYLINE
  5
F0
330
14
100
AcDbEntity
  8
Layer 1
370
     0
100
AcDb2dPolyline
 66
     1
 10
0.0
 20
0.0
 30
0.0
  0
VERTEX
  5
F1
330
F0
100
AcDbEntity
  8
Layer 1
370
     0
100
AcDbVertex
100
AcDb2dVertex
 10
448.9462886586625
 20
372.9433905786573
 30
0.0
  0
VERTEX
  5
F2
330
F0
100
AcDbEntity
  8
Layer 1
370
     0
100
AcDbVertex
100
AcDb2dVertex
 10
449.5634886430707
 20
372.9433905786573
 30
0.0
  0
VERTEX
  5
F3
330
F0
100
AcDbEntity
  8
Layer 1
370
     0
100
AcDbVertex
100
AcDb2dVertex
 10
449.5634886430707
 20
362.9081908321677
 30
0.0
  0
VERTEX
  5
F4
330
F0
100
AcDbEntity
  8
Layer 1
370
     0
100
AcDbVertex
100
AcDb2dVertex
 10
448.9462886586625
 20
362.9081908321677
 30
0.0
  0
VERTEX
  5
F5
330
F0
100
AcDbEntity
  8
Layer 1
370
     0
100
AcDbVertex
100
AcDb2dVertex
 10
448.9462886586625
 20
372.9433905786573
 30
0.0
  0
VERTEX
  5
F6
330
F0
100
AcDbEntity
  8
Layer 1
370
     0
100
AcDbVertex
100
AcDb2dVertex
 10
448.9462886586625
 20
372.9433905786573
 30
0.0
  0
SEQEND
  5
F7
330
F0
100
AcDbEntity
  8
Layer 1
370
     0
  0
POLYLINE
  5
F8
330
14
100
AcDbEntity
  8
Layer 1
370
     0
100
AcDb2dPolyline
 66
     1
 10
0.0
 20
0.0
 30
0.0
  0
VERTEX
  5
F9
330
F8
100
AcDbEntity
  8
Layer 1
370
     0
100
AcDbVertex
100
AcDb2dVertex
 10
453.3456885475243
 20
372.9433905786573
 30
0.0
  0
VERTEX
  5
FA
330
F8
100
AcDbEntity
  8
Layer 1
370
     0
100
AcDbVertex
100
AcDb2dVertex
 10
453.9628885319325
 20
372.9433905786573
 30
0.0
  0
VERTEX
  5
FB
330
F8
100
AcDbEntity
  8
Layer 1
370
     0
100
AcDbVertex
100
AcDb2dVertex
 10
453.9628885319325
 20
362.9081908321677
 30
0.0
  0
VERTEX
  5
FC
330
F8
100
AcDbEntity
  8
Layer 1
370
     0
100
AcDbVertex
100
AcDb2dVertex
 10
453.3456885475243
 20
362.9081908321677
 30
0.0
  0
VERTEX
  5
FD
330
F8
100
AcDbEntity
  8
Layer 1
370
     0
100
AcDbVertex
100
AcDb2dVertex
 10
453.3456885475243
 20
372.9433905786573
 30
0.0
  0
VERTEX
  5
FE
330
F8
100
AcDbEntity
  8
Layer 1
370
     0
100
AcDbVertex
100
AcDb2dVertex
 10
453.3456885475243
 20
372.9433905786573
 30
0.0
  0
SEQEND
  5
FF
330
F8
100
AcDbEntity
  8
Layer 1
370
     0
  0
HATCH
  5
100
330
14
100
AcDbEntity
  8
Layer 1
 62
     7
100
AcDbHatch
 10
0.0
 20
0.0
 30
0.0
210
0.0
220
0.0
230
1.0
  2
SOLID
 70
     1
 71
     0
 91
       79
 92
        1
 93
        4
 72
     1
 10
425.8495892421342
 20
362.2577908485982
 11
458.2841884227673
 21
362.2577908485982
 72
     1
 10
458.2841884227673
 20
362.2577908485982
 11
458.2841884227673
 21
373.9042905543829
 72
     1
 10
458.2841884227673
 20
373.9042905543829
 11
425.8495892421342
 21
373.9042905543829
 72
     1
 10
425.8495892421342
 20
373.9042905543829
 11
425.8495892421342
 21
362.2577908485982
 97
        0
 92
        1
 93
        4
 72
     1
 10
462.0409999999993
 20
362.2577908485982
 11
488.414087661622
 21
362.2577908485982
 72
     1
 10
488.414087661622
 20
362.2577908485982
 11
488.414087661622
 21
373.9042905543829
 72
     1
 10
488.414087661622
 20
373.9042905543829
 11
462.0409999999993
 21
373.9042905543829
 72
     1
 10
462.0409999999993
 20
373.9042905543829
 11
462.0409999999993
 21
362.2577908485982
 97
        0
 92
        1
 93
        4
 72
     1
 10
465.9921882280469
 20
372.9433905786573
 11
466.6073882125056
 21
372.9433905786573
 72
     1
 10
466.6073882125056
 20
372.9433905786573
 11
466.6073882125056
 21
362.9081908321677
 72
     1
 10
466.6073882125056
 20
362.9081908321677
 11
465.9921882280469
 21
362.9081908321677
 72
     1
 10
465.9921882280469
 20
362.9081908321677
 11
465.9921882280469
 21
372.9433905786573
 97
        0
 92
        1
 93
        4
 72
     1
 10
484.3622877639791
 20
372.9433905786573
 11
484.9784877484126
 21
372.9433905786573
 72
     1
 10
484.9784877484126
 20
372.9433905786573
 11
484.9784877484126
 21
362.9081908321677
 72
     1
 10
484.9784877484126
 20
362.9081908321677
 11
484.3622877639791
 21
362.9081908321677
 72
     1
 10
484.3622877639791
 20
362.9081908321677
 11
484.3622877639791
 21
372.9433905786573
 97
        0
 92
        1
 93
        4
 72
     1
 10
479.9491878754634
 20
372.9433905786573
 11
480.5653878598969
 21
372.9433905786573
 72
     1
 10
480.5653878598969
 20
372.9433905786573
 11
480.5653878598969
 21
362.9081908321677
 72
     1
 10
480.5653878598969
 20
362.9081908321677
 11
479.9491878754634
 21
362.9081908321677
 72
     1
 10
479.9491878754634
 20
362.9081908321677
 11
479.9491878754634
 21
372.9433905786573
 97
        0
 92
        1
 93
        4
 72
     1
 10
475.3935879905475
 20
372.9433905786573
 11
476.009787974981
 21
372.9433905786573
 72
     1
 10
476.009787974981
 20
372.9433905786573
 11
476.009787974981
 21
362.9081908321677
 72
     1
 10
476.009787974981
 20
362.9081908321677
 11
475.3935879905475
 21
362.9081908321677
 72
     1
 10
475.3935879905475
 20
362.9081908321677
 11
475.3935879905475
 21
372.9433905786573
 97
        0
 92
        1
 93
        4
 72
     1
 10
470.5468881129855
 20
372.9433905786573
 11
471.1630880974189
 21
372.9433905786573
 72
     1
 10
471.1630880974189
 20
372.9433905786573
 11
471.1630880974189
 21
362.9081908321677
 72
     1
 10
471.1630880974189
 20
362.9081908321677
 11
470.5468881129855
 21
362.9081908321677
 72
     1
 10
470.5468881129855
 20
362.9081908321677
 11
470.5468881129855
 21
372.9433905786573
 97
        0
 92
        1
 93
        1
 72
     4
 94
        3
 73
     0
 74
     1
 95
       65
 96
       61
 40
0.0
 40
0.0
 40
0.0
 40
0.0
 40
1.0
 40
1.0
 40
1.0
 40
2.0
 40
2.0
 40
2.0
 40
3.0
 40
3.0
 40
3.0
 40
4.0
 40
4.0
 40
4.0
 40
5.0
 40
5.0
 40
5.0
 40
6.0
 40
6.0
 40
6.0
 40
7.0
 40
7.0
 40
7.0
 40
8.0
 40
8.0
 40
8.0
 40
9.0
 40
9.0
 40
9.0
 40
10.0
 40
10.0
 40
10.0
 40
11.0
 40
11.0
 40
11.0
 40
12.0
 40
12.0
 40
12.0
 40
13.0
 40
13.0
 40
13.0
 40
14.0
 40
14.0
 40
14.0
 40
15.0
 40
15.0
 40
15.0
 40
16.0
 40
16.0
 40
16.0
 40
17.0
 40
17.0
 40
17.0
 40
18.0
 40
18.0
 40
18.0
 40
19.0
 40
19.0
 40
19.0
 40
20.0
 40
20.0
 40
20.0
 40
20.0
 10
497.5448874309586
 20
362.0840000000007
 10
497.5448874309586
 20
362.0840000000007
 10
498.1522874156144
 20
361.2597908738098
 10
498.1522874156144
 20
361.2597908738098
 10
498.1522874156144
 20
361.2597908738098
 10
498.1522874156144
 20
358.3729999999996
 10
498.1522874156144
 20
358.3729999999996
 10
498.1522874156144
 20
358.3729999999996
 10
497.3915874348313
 20
357.4843909691845
 10
497.3915874348313
 20
357.4843909691845
 10
497.3915874348313
 20
357.4843909691845
 10
495.1073874925351
 20
357.4843909691845
 10
495.1073874925351
 20
357.4843909691845
 10
495.1073874925351
 20
357.3476909726378
 10
495.1073874925351
 20
357.2108909760937
 10
495.1044874926083
 20
357.072290979595
 10
494.9315874969761
 20
357.072290979595
 10
494.7587875013414
 20
357.072290979595
 10
494.5858875057093
 20
357.072290979595
 10
494.5820000000003
 20
359.4394909197945
 10
493.1015875432058
 20
361.1796908758333
 10
490.2284876157864
 20
360.8290908846902
 10
490.2284876157864
 20
360.8290908846902
 10
490.2284876157864
 20
362.0840000000007
 10
490.2284876157864
 20
362.0840000000007
 10
490.2284876157864
 20
362.0840000000007
 10
489.1171876438602
 20
362.0840000000007
 10
489.1171876438602
 20
362.0840000000007
 10
489.1171876438602
 20
362.0840000000007
 10
489.1171876438602
 20
368.6669999999995
 10
489.1171876438602
 20
368.6669999999995
 10
489.1171876438602
 20
368.6669999999995
 10
489.5976876317218
 20
369.5722906638184
 10
489.5976876317218
 20
369.5722906638184
 10
489.5976876317218
 20
369.5722906638184
 10
496.4706874580952
 20
369.5722906638184
 10
496.4706874580952
 20
369.5722906638184
 10
497.3280874364355
 20
367.9979999999996
 10
497.7763874251104
 20
366.3964907440459
 10
498.0438874183528
 20
364.7812907848493
 10
498.0438874183528
 20
364.7812907848493
 10
490.3085876137629
 20
364.7812907848493
 10
490.3085876137629
 20
364.7812907848493
 10
490.3085876137629
 20
364.7812907848493
 10
490.3085876137629
 20
364.5272907912658
 10
490.3085876137629
 20
364.5272907912658
 10
490.3085876137629
 20
364.5272907912658
 10
498.05468741808
 20
364.5272907912658
 10
498.05468741808
 20
364.5272907912658
 10
498.05468741808
 20
364.5272907912658
 10
498.098587416971
 20
362.9179999999997
 10
498.098587416971
 20
362.9179999999997
 10
498.098587416971
 20
362.9179999999997
 10
497.6933874272072
 20
362.0840000000007
 10
497.6933874272072
 20
362.0840000000007
 10
497.6933874272072
 20
362.0840000000007
 10
497.5448874309586
 20
362.0840000000007
 10
497.5448874309586
 20
362.0840000000007
 10
497.5448874309586
 20
362.0840000000007
 10
497.5448874309586
 20
362.0840000000007
 10
497.5448874309586
 20
362.0840000000007
 97
        0
 92
        1
 93
        1
 72
     4
 94
        3
 73
     0
 74
     1
 95
      236
 96
      232
 40
0.0
 40
0.0
 40
0.0
 40
0.0
 40
1.0
 40
1.0
 40
1.0
 40
2.0
 40
2.0
 40
2.0
 40
3.0
 40
3.0
 40
3.0
 40
4.0
 40
4.0
 40
4.0
 40
5.0
 40
5.0
 40
5.0
 40
6.0
 40
6.0
 40
6.0
 40
7.0
 40
7.0
 40
7.0
 40
8.0
 40
8.0
 40
8.0
 40
9.0
 40
9.0
 40
9.0
 40
10.0
 40
10.0
 40
10.0
 40
11.0
 40
11.0
 40
11.0
 40
12.0
 40
12.0
 40
12.0
 40
13.0
 40
13.0
 40
13.0
 40
14.0
 40
14.0
 40
14.0
 40
15.0
 40
15.0
 40
15.0
 40
16.0
 40
16.0
 40
16.0
 40
17.0
 40
17.0
 40
17.0
 40
18.0
 40
18.0
 40
18.0
 40
19.0
 40
19.0
 40
19.0
 40
20.0
 40
20.0
 40
20.0
 40
21.0
 40
21.0
 40
21.0
 40
22.0
 40
22.0
 40
22.0
 40
23.0
 40
23.0
 40
23.0
 40
24.0
 40
24.0
 40
24.0
 40
25.0
 40
25.0
 40
25.0
 40
26.0
 40
26.0
 40
26.0
 40
27.0
 40
27.0
 40
27.0
 40
28.0
 40
28.0
 40
28.0
 40
29.0
 40
29.0
 40
29.0
 40
30.0
 40
30.0
 40
30.0
 40
31.0
 40
31.0
 40
31.0
 40
32.0
 40
32.0
 40
32.0
 40
33.0
 40
33.0
 40
33.0
 40
34.0
 40
34.0
 40
34.0
 40
35.0
 40
35.0
 40
35.0
 40
36.0
 40
36.0
 40
36.0
 40
37.0
 40
37.0
 40
37.0
 40
38.0
 40
38.0
 40
38.0
 40
39.0
 40
39.0
 40
39.0
 40
40.0
 40
40.0
 40
40.0
 40
41.0
 40
41.0
 40
41.0
 40
42.0
 40
42.0
 40
42.0
 40
43.0
 40
43.0
 40
43.0
 40
44.0
 40
44.0
 40
44.0
 40
45.0
 40
45.0
 40
45.0
 40
46.0
 40
46.0
 40
46.0
 40
47.0
 40
47.0
 40
47.0
 40
48.0
 40
48.0
 40
48.0
 40
49.0
 40
49.0
 40
49.0
 40
50.0
 40
50.0
 40
50.0
 40
51.0
 40
51.0
 40
51.0
 40
52.0
 40
52.0
 40
52.0
 40
53.0
 40
53.0
 40
53.0
 40
54.0
 40
54.0
 40
54.0
 40
55.0
 40
55.0
 40
55.0
 40
56.0
 40
56.0
 40
56.0
 40
57.0
 40
57.0
 40
57.0
 40
58.0
 40
58.0
 40
58.0
 40
59.0
 40
59.0
 40
59.0
 40
60.0
 40
60.0
 40
60.0
 40
61.0
 40
61.0
 40
61.0
 40
62.0
 40
62.0
 40
62.0
 40
63.0
 40
63.0
 40
63.0
 40
64.0
 40
64.0
 40
64.0
 40
65.0
 40
65.0
 40
65.0
 40
66.0
 40
66.0
 40
66.0
 40
67.0
 40
67.0
 40
67.0
 40
68.0
 40
68.0
 40
68.0
 40
69.0
 40
69.0
 40
69.0
 40
70.0
 40
70.0
 40
70.0
 40
71.0
 40
71.0
 40
71.0
 40
72.0
 40
72.0
 40
72.0
 40
73.0
 40
73.0
 40
73.0
 40
74.0
 40
74.0
 40
74.0
 40
75.0
 40
75.0
 40
75.0
 40
76.0
 40
76.0
 40
76.0
 40
77.0
 40
77.0
 40
77.0
 40
77.0
 10
462.5478883150572
 20
359.895490908275
 10
462.5478883150572
 20
359.895490908275
 10
461.4530883427142
 20
359.895490908275
 10
461.4530883427142
 20
359.895490908275
 10
461.4530883427142
 20
359.895490908275
 10
461.4530883427142
 20
359.6270000000004
 10
461.4530883427142
 20
359.6270000000004
 10
461.4530883427142
 20
359.6270000000004
 10
458.2401884238789
 20
359.6270000000004
 10
458.2401884238789
 20
359.6270000000004
 10
458.2401884238789
 20
359.6270000000004
 10
458.2401884238789
 20
361.4590000000007
 10
458.2401884238789
 20
361.4590000000007
 10
458.2401884238789
 20
361.4590000000007
 10
447.3407886992209
 20
361.4590000000007
 10
447.3407886992209
 20
361.4590000000007
 10
447.3407886992209
 20
361.4590000000007
 10
444.8340000000007
 20
361.4590000000007
 10
444.8340000000007
 20
361.4590000000007
 10
444.8340000000007
 20
361.4590000000007
 10
426.8358892172182
 20
361.4590000000007
 10
426.8358892172182
 20
361.4590000000007
 10
426.8358892172182
 20
361.4590000000007
 10
426.8358892172182
 20
359.895490908275
 10
426.8358892172182
 20
359.895490908275
 10
426.8358892172182
 20
359.895490908275
 10
425.7421892448474
 20
359.895490908275
 10
425.7421892448474
 20
359.895490908275
 10
425.7421892448474
 20
359.895490908275
 10
425.7421892448474
 20
357.5097909685428
 10
425.7421892448474
 20
357.5097909685428
 10
425.7421892448474
 20
357.5097909685428
 10
426.5341892248398
 20
357.5097909685428
 10
426.5341892248398
 20
357.5097909685428
 10
426.5194892252111
 20
357.3026909737746
 10
426.5145892253349
 20
357.0897909791529
 10
426.5185892252339
 20
356.8671909847762
 10
426.5185892252339
 20
356.8671909847762
 10
426.7929999999997
 20
356.8671909847762
 10
426.7929999999997
 20
356.8671909847762
 10
426.7929999999997
 20
356.8671909847762
 10
427.0644892114433
 20
356.8378909855164
 10
427.0644892114433
 20
356.8378909855164
 10
427.1444892094223
 20
357.5897909665218
 10
427.313489205153
 20
358.2792909491036
 10
427.5360891995297
 20
358.8866909337594
 10
427.7665891937067
 20
359.5175909178215
 10
428.053689186454
 20
360.0565909042052
 10
428.3563891788071
 20
360.4853908933728
 10
428.3563891788071
 20
360.4853908933728
 10
432.8534890652008
 20
360.4853908933728
 10
432.8534890652008
 20
360.4853908933728
 10
433.112289058663
 20
359.9862909059811
 10
433.32418905331
 20
359.4491909195494
 10
433.4911890490912
 20
358.8729999999996
 10
433.6737890444783
 20
358.2411909500661
 10
433.80078904127
 20
357.5624909672115
 10
433.8760000000002
 20
356.8397909854684
 10
433.8760000000002
 20
356.8397909854684
 10
434.3144890282929
 20
356.8827909843822
 10
434.3144890282929
 20
356.8827909843822
 10
434.3144890282929
 20
356.8827909843822
 10
434.7479999999996
 20
356.8378909855164
 10
434.7479999999996
 20
356.8378909855164
 10
434.8270890153435
 20
357.5897909665218
 10
434.997089011049
 20
358.2792909491036
 10
435.2206890054003
 20
358.8866909337594
 10
435.4511889995774
 20
359.5175909178215
 10
435.7382889923247
 20
360.0565909042052
 10
436.0409999999993
 20
360.4853908933728
 10
436.0409999999993
 20
360.4853908933728
 10
440.5370888710968
 20
360.4853908933728
 10
440.5370888710968
 20
360.4853908933728
 10
440.7968888645337
 20
359.9862909059811
 10
441.0097888591554
 20
359.4491909195494
 10
441.1747888549871
 20
358.8729999999996
 10
441.358388850349
 20
358.2411909500661
 10
441.4853888471407
 20
357.5624909672115
 10
441.5595888452663
 20
356.8397909854684
 10
441.5595888452663
 20
356.8397909854684
 10
442.0995888316247
 20
356.8944909840866
 10
442.0995888316247
 20
356.8944909840866
 10
442.0858888319708
 20
357.0136909810753
 10
442.0741888322664
 20
357.1327909780666
 10
442.0585888326605
 20
357.25
 10
442.0585888326605
 20
357.3358909729359
 10
442.0585888326605
 20
357.4237909707153
 10
442.0585888326605
 20
357.5097909685428
 10
442.0585888326605
 20
357.5097909685428
 10
444.8340000000007
 20
357.5097909685428
 10
444.8340000000007
 20
357.5097909685428
 10
444.8340000000007
 20
357.5097909685428
 10
447.3407886992209
 20
357.5097909685428
 10
447.3407886992209
 20
357.5097909685428
 10
447.3407886992209
 20
357.5097909685428
 10
450.1171886290831
 20
357.5097909685428
 10
450.1171886290831
 20
357.5097909685428
 10
450.1171886290831
 20
357.4237909707153
 10
450.1171886290831
 20
357.3358909729359
 10
450.1171886290831
 20
357.25
 10
450.1015886294772
 20
357.1327909780666
 10
450.0878886298233
 20
357.0136909810753
 10
450.0761886301188
 20
356.8944909840866
 10
450.0761886301188
 20
356.8944909840866
 10
450.6151886165026
 20
356.8397909854684
 10
450.6151886165026
 20
356.8397909854684
 10
450.6894886146256
 20
357.5624909672115
 10
450.8163886114198
 20
358.2411909500661
 10
451.0
 20
358.8729999999996
 10
451.1659999999993
 20
359.4491909195494
 10
451.3788885972099
 20
359.9862909059811
 10
451.6386885906468
 20
360.4853908933728
 10
451.6386885906468
 20
360.4853908933728
 10
456.1347884770657
 20
360.4853908933728
 10
456.1347884770657
 20
360.4853908933728
 10
456.4374884694189
 20
360.0565909042052
 10
456.7245884621661
 20
359.5175909178215
 10
456.9550884563432
 20
358.8866909337594
 10
457.1776884507199
 20
358.2792909491036
 10
457.3476884464253
 20
357.5897909665218
 10
457.4267884444271
 20
356.8378909855164
 10
457.4267884444271
 20
356.8378909855164
 10
457.8603884334734
 20
356.8827909843822
 10
457.8603884334734
 20
356.8827909843822
 10
457.8603884334734
 20
356.8827909843822
 10
458.2401884238789
 20
356.8456909853194
 10
458.2401884238789
 20
356.8456909853194
 10
458.2401884238789
 20
356.8456909853194
 10
458.2401884238789
 20
357.5097909685428
 10
458.2401884238789
 20
357.5097909685428
 10
458.2401884238789
 20
357.5097909685428
 10
461.4530883427142
 20
357.5097909685428
 10
461.4530883427142
 20
357.5097909685428
 10
461.4530883427142
 20
357.5097909685428
 10
462.2460883226813
 20
357.5097909685428
 10
462.2460883226813
 20
357.5097909685428
 10
462.2313883230527
 20
357.3026909737746
 10
462.2265883231739
 20
357.0897909791529
 10
462.2304883230754
 20
356.8671909847762
 10
462.2304883230754
 20
356.8671909847762
 10
462.5058883161182
 20
356.8671909847762
 10
462.5058883161182
 20
356.8671909847762
 10
462.5058883161182
 20
356.8671909847762
 10
462.7753883093101
 20
356.8378909855164
 10
462.7753883093101
 20
356.8378909855164
 10
462.8554883072866
 20
357.5897909665218
 10
463.0253883029945
 20
358.2792909491036
 10
463.2470882973939
 20
358.8866909337594
 10
463.4784882915483
 20
359.5175909178215
 10
463.7655882842955
 20
360.0565909042052
 10
464.0683882766461
 20
360.4853908933728
 10
464.0683882766461
 20
360.4853908933728
 10
468.5644881630651
 20
360.4853908933728
 10
468.5644881630651
 20
360.4853908933728
 10
468.8241881565045
 20
359.9862909059811
 10
469.0370881511262
 20
359.4491909195494
 10
469.2030881469327
 20
358.8729999999996
 10
469.3847881423426
 20
358.2411909500661
 10
469.5136881390863
 20
357.5624909672115
 10
469.5878881372118
 20
356.8397909854684
 10
469.5878881372118
 20
356.8397909854684
 10
470.0263881261344
 20
356.8827909843822
 10
470.0263881261344
 20
356.8827909843822
 10
470.0263881261344
 20
356.8827909843822
 10
470.4599999999991
 20
356.8378909855164
 10
470.4599999999991
 20
356.8378909855164
 10
470.5390881131825
 20
357.5897909665218
 10
470.7090000000007
 20
358.2792909491036
 10
470.9315881032671
 20
358.8866909337594
 10
471.1620880974442
 20
359.5175909178215
 10
471.4491880901915
 20
360.0565909042052
 10
471.7520000000004
 20
360.4853908933728
 10
471.7520000000004
 20
360.4853908933728
 10
476.2489999999998
 20
360.4853908933728
 10
476.2489999999998
 20
360.4853908933728
 10
476.5077879624005
 20
359.9862909059811
 10
476.7206879570222
 20
359.4491909195494
 10
476.8866879528287
 20
358.8729999999996
 10
477.0702879481905
 20
358.2411909500661
 10
477.1972879449822
 20
357.5624909672115
 10
477.2714879431078
 20
356.8397909854684
 10
477.2714879431078
 20
356.8397909854684
 10
477.8104879294915
 20
356.8944909840866
 10
477.8104879294915
 20
356.8944909840866
 10
477.7987879297871
 20
357.0136909810753
 10
477.7851879301306
 20
357.1327909780666
 10
477.7694879305272
 20
357.25
 10
477.7694879305272
 20
357.3358909729359
 10
477.7694879305272
 20
357.4237909707153
 10
477.7694879305272
 20
357.5097909685428
 10
477.7694879305272
 20
357.5097909685428
 10
486.8017877023522
 20
357.5097909685428
 10
486.8017877023522
 20
357.5097909685428
 10
486.789087702673
 20
357.3026909737746
 10
486.783187702822
 20
357.0878909792009
 10
486.7870877027235
 20
356.8671909847762
 10
486.9804876978378
 20
356.8671909847762
 10
487.1737876929546
 20
356.8671909847762
 10
487.367187688069
 20
356.8671909847762
 10
487.3026876896984
 20
358.7987909359799
 10
487.9882876723786
 20
360.2030909005043
 10
489.8358876257043
 20
360.7909999999993
 10
489.8358876257043
 20
360.9696908811384
 10
489.8358876257043
 20
361.148390876624
 10
489.8358876257043
 20
361.3261908721324
 10
489.4647876350791
 20
361.2313908745273
 10
489.1288876435647
 20
361.1073908776598
 10
488.8261876512115
 20
360.9511908816057
 10
488.8261876512115
 20
360.9511908816057
 10
488.8261876512115
 20
361.4335908694193
 10
488.8261876512115
 20
361.4335908694193
 10
488.0956876696655
 20
361.4335908694193
 10
487.4345876863663
 20
361.4590000000007
 10
486.7187877044489
 20
361.4590000000007
 10
486.7187877044489
 20
361.4590000000007
 10
486.7187877044489
 20
359.895490908275
 10
486.7187877044489
 20
359.895490908275
 10
486.7187877044489
 20
359.895490908275
 10
484.3397877645475
 20
359.895490908275
 10
484.3397877645475
 20
359.895490908275
 10
484.3397877645475
 20
359.895490908275
 10
483.771487778904
 20
361.4590000000007
 10
483.771487778904
 20
361.4590000000007
 10
476.8388879540362
 20
361.4590000000007
 10
472.3163880682841
 20
361.4590000000007
 10
462.5478883150572
 20
361.4590000000007
 10
462.5478883150572
 20
361.4590000000007
 10
462.5478883150572
 20
359.895490908275
 10
462.5478883150572
 20
359.895490908275
 10
462.5478883150572
 20
359.895490908275
 10
462.5478883150572
 20
359.895490908275
 10
462.5478883150572
 20
359.895490908275
 97
        0
 92
        1
 93
        1
 72
     4
 94
        3
 73
     0
 74
     1
 95
       35
 96
       31
 40
0.0
 40
0.0
 40
0.0
 40
0.0
 40
1.0
 40
1.0
 40
1.0
 40
2.0
 40
2.0
 40
2.0
 40
3.0
 40
3.0
 40
3.0
 40
4.0
 40
4.0
 40
4.0
 40
5.0
 40
5.0
 40
5.0
 40
6.0
 40
6.0
 40
6.0
 40
7.0
 40
7.0
 40
7.0
 40
8.0
 40
8.0
 40
8.0
 40
9.0
 40
9.0
 40
9.0
 40
10.0
 40
10.0
 40
10.0
 40
10.0
 10
491.2520000000004
 20
368.4765906914981
 10
491.2520000000004
 20
368.4765906914981
 10
491.2520000000004
 20
365.8017907590693
 10
491.2520000000004
 20
365.8017907590693
 10
491.2520000000004
 20
365.8017907590693
 10
496.7265874516306
 20
365.0820000000003
 10
496.7265874516306
 20
365.0820000000003
 10
496.6308874540482
 20
366.1718907497198
 10
496.3847874602652
 20
367.2187907232728
 10
495.9071874723304
 20
368.2030906984073
 10
495.9071874723304
 20
368.2030906984073
 10
495.9071874723304
 20
367.0136907284541
 10
495.9071874723304
 20
367.0136907284541
 10
495.9071874723304
 20
366.9081907311192
 10
495.8212874745004
 20
366.8241907332413
 10
495.7167874771403
 20
366.8241907332413
 10
495.7167874771403
 20
366.8241907332413
 10
495.0194874947556
 20
366.8241907332413
 10
495.0194874947556
 20
366.8241907332413
 10
494.9140874974182
 20
366.8241907332413
 10
494.8280874995908
 20
366.9081907311192
 10
494.8280874995908
 20
367.0136907284541
 10
494.8280874995908
 20
367.0136907284541
 10
494.8280874995908
 20
368.4765906914981
 10
494.8280874995908
 20
368.4765906914981
 10
494.8280874995908
 20
368.4765906914981
 10
491.2520000000004
 20
368.4765906914981
 10
491.2520000000004
 20
368.4765906914981
 10
491.2520000000004
 20
368.4765906914981
 10
491.2520000000004
 20
368.4765906914981
 10
491.2520000000004
 20
368.4765906914981
 97
        0
 92
        1
 93
        4
 72
     1
 10
495.4950874827409
 20
358.5155909431342
 11
495.4950874827409
 21
358.1835909515212
 72
     1
 10
495.4950874827409
 20
358.1835909515212
 11
497.1454874410483
 21
358.1835909515212
 72
     1
 10
497.1454874410483
 20
358.1835909515212
 11
497.1454874410483
 21
358.5155909431342
 72
     1
 10
497.1454874410483
 20
358.5155909431342
 11
495.4950874827409
 21
358.5155909431342
 97
        0
 92
        1
 93
        4
 72
     1
 10
495.0644874936188
 20
359.769490911458
 11
495.0644874936188
 21
359.4354909198955
 72
     1
 10
495.0644874936188
 20
359.4354909198955
 11
497.1454874410483
 21
359.4354909198955
 72
     1
 10
497.1454874410483
 20
359.4354909198955
 11
497.1454874410483
 21
359.769490911458
 72
     1
 10
497.1454874410483
 20
359.769490911458
 11
495.0644874936188
 21
359.769490911458
 97
        0
 92
        1
 93
        4
 72
     1
 10
494.2890875132071
 20
360.9901908806205
 11
494.2890875132071
 21
360.6562908890555
 72
     1
 10
494.2890875132071
 20
360.6562908890555
 11
497.1454874410483
 21
360.6562908890555
 72
     1
 10
497.1454874410483
 20
360.6562908890555
 11
497.1454874410483
 21
360.9901908806205
 72
     1
 10
497.1454874410483
 20
360.9901908806205
 11
494.2890875132071
 21
360.9901908806205
 97
        0
 92
        1
 93
        1
 72
     4
 94
        3
 73
     0
 74
     1
 95
       32
 96
       28
 40
0.0
 40
0.0
 40
0.0
 40
0.0
 40
1.0
 40
1.0
 40
1.0
 40
2.0
 40
2.0
 40
2.0
 40
3.0
 40
3.0
 40
3.0
 40
4.0
 40
4.0
 40
4.0
 40
5.0
 40
5.0
 40
5.0
 40
6.0
 40
6.0
 40
6.0
 40
7.0
 40
7.0
 40
7.0
 40
8.0
 40
8.0
 40
8.0
 40
9.0
 40
9.0
 40
9.0
 40
9.0
 10
466.1913882230147
 20
360.1972909006508
 10
467.0546882012059
 20
360.1972909006508
 10
467.8358881814711
 20
359.8466909095077
 10
468.4022881671626
 20
359.2812909237909
 10
468.9667881529022
 20
358.7157909380767
 10
469.31838814402
 20
357.9335909578367
 10
469.31838814402
 20
357.0702909796455
 10
469.31838814402
 20
356.2070000000003
 10
468.9667881529022
 20
355.4257910211891
 10
468.4022881671626
 20
354.8612910354495
 10
467.8358881814711
 20
354.294891049758
 10
467.0546882012059
 20
353.9452910585896
 10
466.1913882230147
 20
353.9452910585896
 10
465.3290882447982
 20
353.9452910585896
 10
464.5468882645582
 20
354.294891049758
 10
463.981388278844
 20
354.8612910354495
 10
463.4169999999995
 20
355.4257910211891
 10
463.0663883019588
 20
356.2070000000003
 10
463.0663883019588
 20
357.0702909796455
 10
463.0663883019588
 20
357.9335909578367
 10
463.4169999999995
 20
358.7157909380767
 10
463.981388278844
 20
359.2812909237909
 10
464.5468882645582
 20
359.8466909095077
 10
465.3290882447982
 20
360.1972909006508
 10
466.1913882230147
 20
360.1972909006508
 10
466.1913882230147
 20
360.1972909006508
 10
466.1913882230147
 20
360.1972909006508
 10
466.1913882230147
 20
360.1972909006508
 97
        0
 92
        1
 93
        1
 72
     4
 94
        3
 73
     0
 74
     1
 95
       20
 96
       16
 40
0.0
 40
0.0
 40
0.0
 40
0.0
 40
1.0
 40
1.0
 40
1.0
 40
2.0
 40
2.0
 40
2.0
 40
3.0
 40
3.0
 40
3.0
 40
4.0
 40
4.0
 40
4.0
 40
5.0
 40
5.0
 40
5.0
 40
5.0
 10
465.1933882482263
 20
357.2226909757956
 10
465.2792882460562
 20
357.2226909757956
 10
465.3476882443283
 20
357.1542909775235
 10
465.3476882443283
 20
357.0683909796935
 10
465.3476882443283
 20
356.982390981866
 10
465.2792882460562
 20
356.9140909835914
 10
465.1933882482263
 20
356.9140909835914
 10
465.1073882503988
 20
356.9140909835914
 10
465.0390882521242
 20
356.982390981866
 10
465.0390882521242
 20
357.0683909796935
 10
465.0390882521242
 20
357.1542909775235
 10
465.1073882503988
 20
357.2226909757956
 10
465.1933882482263
 20
357.2226909757956
 10
465.1933882482263
 20
357.2226909757956
 10
465.1933882482263
 20
357.2226909757956
 10
465.1933882482263
 20
357.2226909757956
 97
        0
 92
        1
 93
        1
 72
     4
 94
        3
 73
     0
 74
     1
 95
       20
 96
       16
 40
0.0
 40
0.0
 40
0.0
 40
0.0
 40
1.0
 40
1.0
 40
1.0
 40
2.0
 40
2.0
 40
2.0
 40
3.0
 40
3.0
 40
3.0
 40
4.0
 40
4.0
 40
4.0
 40
5.0
 40
5.0
 40
5.0
 40
5.0
 10
465.3778882435654
 20
356.4726909947422
 10
465.3183882450685
 20
356.412090996273
 10
465.3183882450685
 20
356.3144909987386
 10
465.3778882435654
 20
356.2538910002695
 10
465.4394882420092
 20
356.1933910017979
 10
465.5370882395437
 20
356.1933910017979
 10
465.596688238038
 20
356.2538910002695
 10
465.6581882364844
 20
356.3144909987386
 10
465.6581882364844
 20
356.412090996273
 10
465.596688238038
 20
356.4726909947422
 10
465.5370882395437
 20
356.5331909932138
 10
465.4394882420092
 20
356.5331909932138
 10
465.3778882435654
 20
356.4726909947422
 10
465.3778882435654
 20
356.4726909947422
 10
465.3778882435654
 20
356.4726909947422
 10
465.3778882435654
 20
356.4726909947422
 97
        0
 92
        1
 93
        1
 72
     4
 94
        3
 73
     0
 74
     1
 95
       20
 96
       16
 40
0.0
 40
0.0
 40
0.0
 40
0.0
 40
1.0
 40
1.0
 40
1.0
 40
2.0
 40
2.0
 40
2.0
 40
3.0
 40
3.0
 40
3.0
 40
4.0
 40
4.0
 40
4.0
 40
5.0
 40
5.0
 40
5.0
 40
5.0
 10
466.0409999999993
 20
356.0722910048571
 10
466.0409999999993
 20
355.9862910070296
 10
466.1093882250861
 20
355.9179999999997
 10
466.1952882229161
 20
355.9179999999997
 10
466.2812882207436
 20
355.9179999999997
 10
466.3485882190434
 20
355.9862910070296
 10
466.3485882190434
 20
356.0722910048571
 10
466.3485882190434
 20
356.1581910026871
 10
466.2812882207436
 20
356.2265910009592
 10
466.1952882229161
 20
356.2265910009592
 10
466.1093882250861
 20
356.2265910009592
 10
466.0409999999993
 20
356.1581910026871
 10
466.0409999999993
 20
356.0722910048571
 10
466.0409999999993
 20
356.0722910048571
 10
466.0409999999993
 20
356.0722910048571
 10
466.0409999999993
 20
356.0722910048571
 97
        0
 92
        1
 93
        1
 72
     4
 94
        3
 73
     0
 74
     1
 95
       20
 96
       16
 40
0.0
 40
0.0
 40
0.0
 40
0.0
 40
1.0
 40
1.0
 40
1.0
 40
2.0
 40
2.0
 40
2.0
 40
3.0
 40
3.0
 40
3.0
 40
4.0
 40
4.0
 40
4.0
 40
5.0
 40
5.0
 40
5.0
 40
5.0
 10
466.7909999999993
 20
356.257791000171
 10
466.8515882063366
 20
356.1972910016993
 10
466.949188203871
 20
356.1972910016993
 10
467.0097882023401
 20
356.257791000171
 10
467.0702882008118
 20
356.3183909986401
 10
467.0702882008118
 20
356.4159999999993
 10
467.0097882023401
 20
356.4765909946436
 10
466.949188203871
 20
356.5370909931153
 10
466.8515882063366
 20
356.5370909931153
 10
466.7909999999993
 20
356.4765909946436
 10
466.7304882093958
 20
356.4159999999993
 10
466.7304882093958
 20
356.3183909986401
 10
466.7909999999993
 20
356.257791000171
 10
466.7909999999993
 20
356.257791000171
 10
466.7909999999993
 20
356.257791000171
 10
466.7909999999993
 20
356.257791000171
 97
        0
 92
        1
 93
        1
 72
     4
 94
        3
 73
     0
 74
     1
 95
       20
 96
       16
 40
0.0
 40
0.0
 40
0.0
 40
0.0
 40
1.0
 40
1.0
 40
1.0
 40
2.0
 40
2.0
 40
2.0
 40
3.0
 40
3.0
 40
3.0
 40
4.0
 40
4.0
 40
4.0
 40
5.0
 40
5.0
 40
5.0
 40
5.0
 10
467.1903881977778
 20
356.9198909834449
 10
467.1054881999225
 20
356.9198909834449
 10
467.0351882016985
 20
356.988290981717
 10
467.0351882016985
 20
357.074190979547
 10
467.0351882016985
 20
357.158190977425
 10
467.1054881999225
 20
357.228490975649
 10
467.1903881977778
 20
357.228490975649
 10
467.2753881956305
 20
357.228490975649
 10
467.3456881938546
 20
357.158190977425
 10
467.3456881938546
 20
357.074190979547
 10
467.3456881938546
 20
356.988290981717
 10
467.2753881956305
 20
356.9198909834449
 10
467.1903881977778
 20
356.9198909834449
 10
467.1903881977778
 20
356.9198909834449
 10
467.1903881977778
 20
356.9198909834449
 10
467.1903881977778
 20
356.9198909834449
 97
        0
 92
        1
 93
        1
 72
     4
 94
        3
 73
     0
 74
     1
 95
       20
 96
       16
 40
0.0
 40
0.0
 40
0.0
 40
0.0
 40
1.0
 40
1.0
 40
1.0
 40
2.0
 40
2.0
 40
2.0
 40
3.0
 40
3.0
 40
3.0
 40
4.0
 40
4.0
 40
4.0
 40
5.0
 40
5.0
 40
5.0
 40
5.0
 10
467.0058882024387
 20
357.6698909644983
 10
466.9452882039695
 20
357.6093909660267
 10
466.8476882064351
 20
357.6093909660267
 10
466.7860882079913
 20
357.6698909644983
 10
466.7265882094944
 20
357.7304909629675
 10
466.7265882094944
 20
357.8280909605019
 10
466.7860882079913
 20
357.888690958971
 10
466.8476882064351
 20
357.9491909574426
 10
466.9452882039695
 20
357.9491909574426
 10
467.0058882024387
 20
357.888690958971
 10
467.0663882009103
 20
357.8280909605019
 10
467.0663882009103
 20
357.7304909629675
 10
467.0058882024387
 20
357.6698909644983
 10
467.0058882024387
 20
357.6698909644983
 10
467.0058882024387
 20
357.6698909644983
 10
467.0058882024387
 20
357.6698909644983
 97
        0
 92
        1
 93
        1
 72
     4
 94
        3
 73
     0
 74
     1
 95
       20
 96
       16
 40
0.0
 40
0.0
 40
0.0
 40
0.0
 40
1.0
 40
1.0
 40
1.0
 40
2.0
 40
2.0
 40
2.0
 40
3.0
 40
3.0
 40
3.0
 40
4.0
 40
4.0
 40
4.0
 40
5.0
 40
5.0
 40
5.0
 40
5.0
 10
466.3437882191647
 20
358.0702909543834
 10
466.3437882191647
 20
357.9843909565534
 10
466.2733882209432
 20
357.9159999999993
 10
466.1894882230627
 20
357.9159999999993
 10
466.1034882252352
 20
357.9159999999993
 10
466.0351882269606
 20
357.9843909565534
 10
466.0351882269606
 20
358.0702909543834
 10
466.0351882269606
 20
358.1552909522361
 10
466.1034882252352
 20
358.2245909504854
 10
466.1894882230627
 20
358.2245909504854
 10
466.2733882209432
 20
358.2245909504854
 10
466.3437882191647
 20
358.1552909522361
 10
466.3437882191647
 20
358.0702909543834
 10
466.3437882191647
 20
358.0702909543834
 10
466.3437882191647
 20
358.0702909543834
 10
466.3437882191647
 20
358.0702909543834
 97
        0
 92
        1
 93
        1
 72
     4
 94
        3
 73
     0
 74
     1
 95
       20
 96
       16
 40
0.0
 40
0.0
 40
0.0
 40
0.0
 40
1.0
 40
1.0
 40
1.0
 40
2.0
 40
2.0
 40
2.0
 40
3.0
 40
3.0
 40
3.0
 40
4.0
 40
4.0
 40
4.0
 40
5.0
 40
5.0
 40
5.0
 40
5.0
 10
465.5937882381113
 20
357.8847909590695
 10
465.6532882366082
 20
357.8241909606004
 10
465.6532882366082
 20
357.726590963066
 10
465.5937882381113
 20
357.6659999999993
 10
465.5331882396422
 20
357.6054909661252
 10
465.434588242133
 20
357.6054909661252
 10
465.375
 20
357.6659999999993
 10
465.314488245167
 20
357.726590963066
 10
465.314488245167
 20
357.8241909606004
 10
465.375
 20
357.8847909590695
 10
465.434588242133
 20
357.9452909575411
 10
465.5331882396422
 20
357.9452909575411
 10
465.5937882381113
 20
357.8847909590695
 10
465.5937882381113
 20
357.8847909590695
 10
465.5937882381113
 20
357.8847909590695
 10
465.5937882381113
 20
357.8847909590695
 97
        0
 92
        1
 93
        1
 72
     4
 94
        3
 73
     0
 74
     1
 95
       32
 96
       28
 40
0.0
 40
0.0
 40
0.0
 40
0.0
 40
1.0
 40
1.0
 40
1.0
 40
2.0
 40
2.0
 40
2.0
 40
3.0
 40
3.0
 40
3.0
 40
4.0
 40
4.0
 40
4.0
 40
5.0
 40
5.0
 40
5.0
 40
6.0
 40
6.0
 40
6.0
 40
7.0
 40
7.0
 40
7.0
 40
8.0
 40
8.0
 40
8.0
 40
9.0
 40
9.0
 40
9.0
 40
9.0
 10
467.1024881999983
 20
357.9804909566519
 10
467.3349999999991
 20
357.7479999999996
 10
467.4794881904745
 20
357.4276909706168
 10
467.4794881904745
 20
357.0702909796455
 10
467.4794881904745
 20
356.7147909886262
 10
467.3349999999991
 20
356.3944909967176
 10
467.1024881999983
 20
356.1620910025886
 10
466.8690882058945
 20
355.9296910084595
 10
466.546888214034
 20
355.7851910121099
 10
466.1913882230147
 20
355.7851910121099
 10
465.8368882319701
 20
355.7851910121099
 10
465.5155882400868
 20
355.92769100851
 10
465.2812882460057
 20
356.1620910025886
 10
465.0487882518792
 20
356.3944909967176
 10
464.9042882555295
 20
356.7147909886262
 10
464.9042882555295
 20
357.0702909796455
 10
464.9042882555295
 20
357.4276909706168
 10
465.0487882518792
 20
357.7479999999996
 10
465.2812882460057
 20
357.9804909566519
 10
465.5155882400868
 20
358.214790950733
 10
465.8368882319701
 20
358.3573909471306
 10
466.1913882230147
 20
358.3573909471306
 10
466.546888214034
 20
358.3573909471306
 10
466.8690882058945
 20
358.214790950733
 10
467.1024881999983
 20
357.9804909566519
 10
467.1024881999983
 20
357.9804909566519
 10
467.1024881999983
 20
357.9804909566519
 10
467.1024881999983
 20
357.9804909566519
 97
        0
 92
        1
 93
        1
 72
     4
 94
        3
 73
     0
 74
     1
 95
       32
 96
       28
 40
0.0
 40
0.0
 40
0.0
 40
0.0
 40
1.0
 40
1.0
 40
1.0
 40
2.0
 40
2.0
 40
2.0
 40
3.0
 40
3.0
 40
3.0
 40
4.0
 40
4.0
 40
4.0
 40
5.0
 40
5.0
 40
5.0
 40
6.0
 40
6.0
 40
6.0
 40
7.0
 40
7.0
 40
7.0
 40
8.0
 40
8.0
 40
8.0
 40
9.0
 40
9.0
 40
9.0
 40
9.0
 10
473.8573880293552
 20
360.1972909006508
 10
474.7206880075464
 20
360.1972909006508
 10
475.5010000000002
 20
359.8466909095077
 10
476.0673879735259
 20
359.2812909237909
 10
476.6327879592427
 20
358.7157909380767
 10
476.9823879504111
 20
357.9335909578367
 10
476.9823879504111
 20
357.0702909796455
 10
476.9823879504111
 20
356.2070000000003
 10
476.6327879592427
 20
355.4257910211891
 10
476.0673879735259
 20
354.8612910354495
 10
475.5010000000002
 20
354.294891049758
 10
474.7206880075464
 20
353.9452910585896
 10
473.8573880293552
 20
353.9452910585896
 10
472.994088051164
 20
353.9452910585896
 10
472.211888070924
 20
354.294891049758
 10
471.6464880852072
 20
354.8612910354495
 10
471.0800880995157
 20
355.4257910211891
 10
470.7313881083246
 20
356.2070000000003
 10
470.7313881083246
 20
357.0702909796455
 10
470.7313881083246
 20
357.9335909578367
 10
471.0800880995157
 20
358.7157909380767
 10
471.6464880852072
 20
359.2812909237909
 10
472.211888070924
 20
359.8466909095077
 10
472.994088051164
 20
360.1972909006508
 10
473.8573880293552
 20
360.1972909006508
 10
473.8573880293552
 20
360.1972909006508
 10
473.8573880293552
 20
360.1972909006508
 10
473.8573880293552
 20
360.1972909006508
 97
        0
 92
        1
 93
        1
 72
     4
 94
        3
 73
     0
 74
     1
 95
       20
 96
       16
 40
0.0
 40
0.0
 40
0.0
 40
0.0
 40
1.0
 40
1.0
 40
1.0
 40
2.0
 40
2.0
 40
2.0
 40
3.0
 40
3.0
 40
3.0
 40
4.0
 40
4.0
 40
4.0
 40
5.0
 40
5.0
 40
5.0
 40
5.0
 10
472.8573880546173
 20
357.2226909757956
 10
472.9433880524448
 20
357.2226909757956
 10
473.0126880506941
 20
357.1542909775235
 10
473.0126880506941
 20
357.0683909796935
 10
473.0126880506941
 20
356.982390981866
 10
472.9433880524448
 20
356.9140909835914
 10
472.8573880546173
 20
356.9140909835914
 10
472.7724880567621
 20
356.9140909835914
 10
472.7030880585153
 20
356.982390981866
 10
472.7030880585153
 20
357.0683909796935
 10
472.7030880585153
 20
357.1542909775235
 10
472.7724880567621
 20
357.2226909757956
 10
472.8573880546173
 20
357.2226909757956
 10
472.8573880546173
 20
357.2226909757956
 10
472.8573880546173
 20
357.2226909757956
 10
472.8573880546173
 20
357.2226909757956
 97
        0
 92
        1
 93
        1
 72
     4
 94
        3
 73
     0
 74
     1
 95
       20
 96
       16
 40
0.0
 40
0.0
 40
0.0
 40
0.0
 40
1.0
 40
1.0
 40
1.0
 40
2.0
 40
2.0
 40
2.0
 40
3.0
 40
3.0
 40
3.0
 40
4.0
 40
4.0
 40
4.0
 40
5.0
 40
5.0
 40
5.0
 40
5.0
 10
473.0429999999997
 20
356.4726909947422
 10
472.9823880514596
 20
356.412090996273
 10
472.9823880514596
 20
356.3144909987386
 10
473.0429999999997
 20
356.2538910002695
 10
473.1034880484003
 20
356.1933910017979
 10
473.2011880459322
 20
356.1933910017979
 10
473.2616880444039
 20
356.2538910002695
 10
473.322288042873
 20
356.3144909987386
 10
473.322288042873
 20
356.412090996273
 10
473.2616880444039
 20
356.4726909947422
 10
473.2011880459322
 20
356.5331909932138
 10
473.1034880484003
 20
356.5331909932138
 10
473.0429999999997
 20
356.4726909947422
 10
473.0429999999997
 20
356.4726909947422
 10
473.0429999999997
 20
356.4726909947422
 10
473.0429999999997
 20
356.4726909947422
 97
        0
 92
        1
 93
        1
 72
     4
 94
        3
 73
     0
 74
     1
 95
       20
 96
       16
 40
0.0
 40
0.0
 40
0.0
 40
0.0
 40
1.0
 40
1.0
 40
1.0
 40
2.0
 40
2.0
 40
2.0
 40
3.0
 40
3.0
 40
3.0
 40
4.0
 40
4.0
 40
4.0
 40
5.0
 40
5.0
 40
5.0
 40
5.0
 10
473.7050880332026
 20
356.0722910048571
 10
473.7050880332026
 20
355.9862910070296
 10
473.7733880314772
 20
355.9179999999997
 10
473.8593880293047
 20
355.9179999999997
 10
473.9442880271599
 20
355.9179999999997
 10
474.0136880254067
 20
355.9862910070296
 10
474.0136880254067
 20
356.0722910048571
 10
474.0136880254067
 20
356.1581910026871
 10
473.9442880271599
 20
356.2265910009592
 10
473.8593880293047
 20
356.2265910009592
 10
473.7733880314772
 20
356.2265910009592
 10
473.7050880332026
 20
356.1581910026871
 10
473.7050880332026
 20
356.0722910048571
 10
473.7050880332026
 20
356.0722910048571
 10
473.7050880332026
 20
356.0722910048571
 10
473.7050880332026
 20
356.0722910048571
 97
        0
 92
        1
 93
        1
 72
     4
 94
        3
 73
     0
 74
     1
 95
       20
 96
       16
 40
0.0
 40
0.0
 40
0.0
 40
0.0
 40
1.0
 40
1.0
 40
1.0
 40
2.0
 40
2.0
 40
2.0
 40
3.0
 40
3.0
 40
3.0
 40
4.0
 40
4.0
 40
4.0
 40
5.0
 40
5.0
 40
5.0
 40
5.0
 10
474.4560880142308
 20
356.257791000171
 10
474.5155880127277
 20
356.1972910016993
 10
474.6132880102596
 20
356.1972910016993
 10
474.6737880087312
 20
356.257791000171
 10
474.7343880072003
 20
356.3183909986401
 10
474.7343880072003
 20
356.4159999999993
 10
474.6737880087312
 20
356.4765909946436
 10
474.6132880102596
 20
356.5370909931153
 10
474.5155880127277
 20
356.5370909931153
 10
474.4560880142308
 20
356.4765909946436
 10
474.3944880157869
 20
356.4159999999993
 10
474.3944880157869
 20
356.3183909986401
 10
474.4560880142308
 20
356.257791000171
 10
474.4560880142308
 20
356.257791000171
 10
474.4560880142308
 20
356.257791000171
 10
474.4560880142308
 20
356.257791000171
 97
        0
 92
        1
 93
        1
 72
     4
 94
        3
 73
     0
 74
     1
 95
       20
 96
       16
 40
0.0
 40
0.0
 40
0.0
 40
0.0
 40
1.0
 40
1.0
 40
1.0
 40
2.0
 40
2.0
 40
2.0
 40
3.0
 40
3.0
 40
3.0
 40
4.0
 40
4.0
 40
4.0
 40
5.0
 40
5.0
 40
5.0
 40
5.0
 10
474.8554880041411
 20
356.9198909834449
 10
474.7694880063136
 20
356.9198909834449
 10
474.7001880080643
 20
356.988290981717
 10
474.7001880080643
 20
357.074190979547
 10
474.7001880080643
 20
357.158190977425
 10
474.7694880063136
 20
357.228490975649
 10
474.8554880041411
 20
357.228490975649
 10
474.9403880019963
 20
357.228490975649
 10
475.0097880002431
 20
357.158190977425
 10
475.0097880002431
 20
357.074190979547
 10
475.0097880002431
 20
356.988290981717
 10
474.9403880019963
 20
356.9198909834449
 10
474.8554880041411
 20
356.9198909834449
 10
474.8554880041411
 20
356.9198909834449
 10
474.8554880041411
 20
356.9198909834449
 10
474.8554880041411
 20
356.9198909834449
 97
        0
 92
        1
 93
        1
 72
     4
 94
        3
 73
     0
 74
     1
 95
       20
 96
       16
 40
0.0
 40
0.0
 40
0.0
 40
0.0
 40
1.0
 40
1.0
 40
1.0
 40
2.0
 40
2.0
 40
2.0
 40
3.0
 40
3.0
 40
3.0
 40
4.0
 40
4.0
 40
4.0
 40
5.0
 40
5.0
 40
5.0
 40
5.0
 10
474.6698880088297
 20
357.6698909644983
 10
474.6093880103581
 20
357.6093909660267
 10
474.5126880128009
 20
357.6093909660267
 10
474.4511880143546
 20
357.6698909644983
 10
474.3905880158854
 20
357.7304909629675
 10
474.3905880158854
 20
357.8280909605019
 10
474.4511880143546
 20
357.888690958971
 10
474.5126880128009
 20
357.9491909574426
 10
474.6093880103581
 20
357.9491909574426
 10
474.6698880088297
 20
357.888690958971
 10
474.7304880072988
 20
357.8280909605019
 10
474.7304880072988
 20
357.7304909629675
 10
474.6698880088297
 20
357.6698909644983
 10
474.6698880088297
 20
357.6698909644983
 10
474.6698880088297
 20
357.6698909644983
 10
474.6698880088297
 20
357.6698909644983
 97
        0
 92
        1
 93
        1
 72
     4
 94
        3
 73
     0
 74
     1
 95
       20
 96
       16
 40
0.0
 40
0.0
 40
0.0
 40
0.0
 40
1.0
 40
1.0
 40
1.0
 40
2.0
 40
2.0
 40
2.0
 40
3.0
 40
3.0
 40
3.0
 40
4.0
 40
4.0
 40
4.0
 40
5.0
 40
5.0
 40
5.0
 40
5.0
 10
474.0087880255305
 20
358.0702909543834
 10
474.0087880255305
 20
357.9843909565534
 10
473.9394880272812
 20
357.9159999999993
 10
473.8534880294537
 20
357.9159999999993
 10
473.7675880316237
 20
357.9159999999993
 10
473.6991880333517
 20
357.9843909565534
 10
473.6991880333517
 20
358.0702909543834
 10
473.6991880333517
 20
358.1552909522361
 10
473.7675880316237
 20
358.2245909504854
 10
473.8534880294537
 20
358.2245909504854
 10
473.9394880272812
 20
358.2245909504854
 10
474.0087880255305
 20
358.1552909522361
 10
474.0087880255305
 20
358.0702909543834
 10
474.0087880255305
 20
358.0702909543834
 10
474.0087880255305
 20
358.0702909543834
 10
474.0087880255305
 20
358.0702909543834
 97
        0
 92
        1
 93
        1
 72
     4
 94
        3
 73
     0
 74
     1
 95
       20
 96
       16
 40
0.0
 40
0.0
 40
0.0
 40
0.0
 40
1.0
 40
1.0
 40
1.0
 40
2.0
 40
2.0
 40
2.0
 40
3.0
 40
3.0
 40
3.0
 40
4.0
 40
4.0
 40
4.0
 40
5.0
 40
5.0
 40
5.0
 40
5.0
 10
473.2577880445024
 20
357.8847909590695
 10
473.3183880429715
 20
357.8241909606004
 10
473.3183880429715
 20
357.726590963066
 10
473.2577880445024
 20
357.6659999999993
 10
473.1972880460307
 20
357.6054909661252
 10
473.0995880484988
 20
357.6054909661252
 10
473.0390880500272
 20
357.6659999999993
 10
472.9784880515581
 20
357.726590963066
 10
472.9784880515581
 20
357.8241909606004
 10
473.0390880500272
 20
357.8847909590695
 10
473.0995880484988
 20
357.9452909575411
 10
473.1972880460307
 20
357.9452909575411
 10
473.2577880445024
 20
357.8847909590695
 10
473.2577880445024
 20
357.8847909590695
 10
473.2577880445024
 20
357.8847909590695
 10
473.2577880445024
 20
357.8847909590695
 97
        0
 92
        1
 93
        1
 72
     4
 94
        3
 73
     0
 74
     1
 95
       32
 96
       28
 40
0.0
 40
0.0
 40
0.0
 40
0.0
 40
1.0
 40
1.0
 40
1.0
 40
2.0
 40
2.0
 40
2.0
 40
3.0
 40
3.0
 40
3.0
 40
4.0
 40
4.0
 40
4.0
 40
5.0
 40
5.0
 40
5.0
 40
6.0
 40
6.0
 40
6.0
 40
7.0
 40
7.0
 40
7.0
 40
8.0
 40
8.0
 40
8.0
 40
9.0
 40
9.0
 40
9.0
 40
9.0
 10
474.7655880064121
 20
357.9804909566519
 10
475.0
 20
357.7479999999996
 10
475.1435879968631
 20
357.4276909706168
 10
475.1435879968631
 20
357.0702909796455
 10
475.1435879968631
 20
356.7147909886262
 10
475.0
 20
356.3944909967176
 10
474.7655880064121
 20
356.1620910025886
 10
474.5341880122578
 20
355.9296910084595
 10
474.2128880203745
 20
355.7851910121099
 10
473.8573880293552
 20
355.7851910121099
 10
473.5020000000004
 20
355.7851910121099
 10
473.1796880464753
 20
355.92769100851
 10
472.9472880523463
 20
356.1620910025886
 10
472.7138880582424
 20
356.3944909967176
 10
472.5702880618701
 20
356.7147909886262
 10
472.5702880618701
 20
357.0702909796455
 10
472.5702880618701
 20
357.4276909706168
 10
472.7138880582424
 20
357.7479999999996
 10
472.9472880523463
 20
357.9804909566519
 10
473.1796880464753
 20
358.214790950733
 10
473.5020000000004
 20
358.3573909471306
 10
473.8573880293552
 20
358.3573909471306
 10
474.2128880203745
 20
358.3573909471306
 10
474.5341880122578
 20
358.214790950733
 10
474.7655880064121
 20
357.9804909566519
 10
474.7655880064121
 20
357.9804909566519
 10
474.7655880064121
 20
357.9804909566519
 10
474.7655880064121
 20
357.9804909566519
 97
        0
 92
        1
 93
        1
 72
     4
 94
        3
 73
     0
 74
     1
 95
       32
 96
       28
 40
0.0
 40
0.0
 40
0.0
 40
0.0
 40
1.0
 40
1.0
 40
1.0
 40
2.0
 40
2.0
 40
2.0
 40
3.0
 40
3.0
 40
3.0
 40
4.0
 40
4.0
 40
4.0
 40
5.0
 40
5.0
 40
5.0
 40
6.0
 40
6.0
 40
6.0
 40
7.0
 40
7.0
 40
7.0
 40
8.0
 40
8.0
 40
8.0
 40
9.0
 40
9.0
 40
9.0
 40
9.0
 10
490.9423875977518
 20
360.1972909006508
 10
490.0780876195859
 20
360.1972909006508
 10
489.2978876392954
 20
359.8466909095077
 10
488.7323876535811
 20
359.2812909237909
 10
488.1659999999993
 20
358.7157909380767
 10
487.8163876767212
 20
357.9335909578367
 10
487.8163876767212
 20
357.0702909796455
 10
487.8163876767212
 20
356.2070000000003
 10
488.1659999999993
 20
355.4257910211891
 10
488.7323876535811
 20
354.8612910354495
 10
489.2978876392954
 20
354.294891049758
 10
490.0780876195859
 20
353.9452910585896
 10
490.9423875977518
 20
353.9452910585896
 10
491.8046875759683
 20
353.9452910585896
 10
492.5868875562082
 20
354.294891049758
 10
493.152287541925
 20
354.8612910354495
 10
493.718787527614
 20
355.4257910211891
 10
494.0673875188077
 20
356.2070000000003
 10
494.0673875188077
 20
357.0702909796455
 10
494.0673875188077
 20
357.9335909578367
 10
493.718787527614
 20
358.7157909380767
 10
493.152287541925
 20
359.2812909237909
 10
492.5868875562082
 20
359.8466909095077
 10
491.8046875759683
 20
360.1972909006508
 10
490.9423875977518
 20
360.1972909006508
 10
490.9423875977518
 20
360.1972909006508
 10
490.9423875977518
 20
360.1972909006508
 10
490.9423875977518
 20
360.1972909006508
 97
        0
 92
        1
 93
        1
 72
     4
 94
        3
 73
     0
 74
     1
 95
       20
 96
       16
 40
0.0
 40
0.0
 40
0.0
 40
0.0
 40
1.0
 40
1.0
 40
1.0
 40
2.0
 40
2.0
 40
2.0
 40
3.0
 40
3.0
 40
3.0
 40
4.0
 40
4.0
 40
4.0
 40
5.0
 40
5.0
 40
5.0
 40
5.0
 10
489.9433876229887
 20
357.2226909757956
 10
489.8583876251359
 20
357.2226909757956
 10
489.7890876268866
 20
357.1542909775235
 10
489.7890876268866
 20
357.0683909796935
 10
489.7890876268866
 20
356.982390981866
 10
489.8583876251359
 20
356.9140909835914
 10
489.9433876229887
 20
356.9140909835914
 10
490.0292876208186
 20
356.9140909835914
 10
490.0976876190907
 20
356.982390981866
 10
490.0976876190907
 20
357.0683909796935
 10
490.0976876190907
 20
357.1542909775235
 10
490.0292876208186
 20
357.2226909757956
 10
489.9433876229887
 20
357.2226909757956
 10
489.9433876229887
 20
357.2226909757956
 10
489.9433876229887
 20
357.2226909757956
 10
489.9433876229887
 20
357.2226909757956
 97
        0
 92
        1
 93
        1
 72
     4
 94
        3
 73
     0
 74
     1
 95
       20
 96
       16
 40
0.0
 40
0.0
 40
0.0
 40
0.0
 40
1.0
 40
1.0
 40
1.0
 40
2.0
 40
2.0
 40
2.0
 40
3.0
 40
3.0
 40
3.0
 40
4.0
 40
4.0
 40
4.0
 40
5.0
 40
5.0
 40
5.0
 40
5.0
 10
490.1288876183025
 20
356.4726909947422
 10
490.1894876167717
 20
356.5331909932138
 10
490.2870876143061
 20
356.5331909932138
 10
490.3476876127752
 20
356.4726909947422
 10
490.4081876112468
 20
356.412090996273
 10
490.4081876112468
 20
356.3144909987386
 10
490.3476876127752
 20
356.2538910002695
 10
490.2870876143061
 20
356.1933910017979
 10
490.1894876167717
 20
356.1933910017979
 10
490.1288876183025
 20
356.2538910002695
 10
490.0683876198309
 20
356.3144909987386
 10
490.0683876198309
 20
356.412090996273
 10
490.1288876183025
 20
356.4726909947422
 10
490.1288876183025
 20
356.4726909947422
 10
490.1288876183025
 20
356.4726909947422
 10
490.1288876183025
 20
356.4726909947422
 97
        0
 92
        1
 93
        1
 72
     4
 94
        3
 73
     0
 74
     1
 95
       20
 96
       16
 40
0.0
 40
0.0
 40
0.0
 40
0.0
 40
1.0
 40
1.0
 40
1.0
 40
2.0
 40
2.0
 40
2.0
 40
3.0
 40
3.0
 40
3.0
 40
4.0
 40
4.0
 40
4.0
 40
5.0
 40
5.0
 40
5.0
 40
5.0
 10
490.7909999999993
 20
356.0722910048571
 10
490.7909999999993
 20
356.1581910026871
 10
490.8593875998486
 20
356.2265910009592
 10
490.9452875976785
 20
356.2265910009592
 10
491.0302875955313
 20
356.2265910009592
 10
491.0995875937806
 20
356.1581910026871
 10
491.0995875937806
 20
356.0722910048571
 10
491.0995875937806
 20
355.9862910070296
 10
491.0302875955313
 20
355.9179999999997
 10
490.9452875976785
 20
355.9179999999997
 10
490.8593875998486
 20
355.9179999999997
 10
490.7909999999993
 20
355.9862910070296
 10
490.7909999999993
 20
356.0722910048571
 10
490.7909999999993
 20
356.0722910048571
 10
490.7909999999993
 20
356.0722910048571
 10
490.7909999999993
 20
356.0722910048571
 97
        0
 92
        1
 93
        1
 72
     4
 94
        3
 73
     0
 74
     1
 95
       20
 96
       16
 40
0.0
 40
0.0
 40
0.0
 40
0.0
 40
1.0
 40
1.0
 40
1.0
 40
2.0
 40
2.0
 40
2.0
 40
3.0
 40
3.0
 40
3.0
 40
4.0
 40
4.0
 40
4.0
 40
5.0
 40
5.0
 40
5.0
 40
5.0
 10
491.5409999999993
 20
356.257791000171
 10
491.4804875841583
 20
356.3183909986401
 10
491.4804875841583
 20
356.4159999999993
 10
491.5409999999993
 20
356.4765909946436
 10
491.6005875811243
 20
356.5370909931153
 10
491.6991875786334
 20
356.5370909931153
 10
491.7597875771025
 20
356.4765909946436
 10
491.8192875755994
 20
356.4159999999993
 10
491.8192875755994
 20
356.3183909986401
 10
491.7597875771025
 20
356.257791000171
 10
491.6991875786334
 20
356.1972910016993
 10
491.6005875811243
 20
356.1972910016993
 10
491.5409999999993
 20
356.257791000171
 10
491.5409999999993
 20
356.257791000171
 10
491.5409999999993
 20
356.257791000171
 10
491.5409999999993
 20
356.257791000171
 97
        0
 92
        1
 93
        1
 72
     4
 94
        3
 73
     0
 74
     1
 95
       20
 96
       16
 40
0.0
 40
0.0
 40
0.0
 40
0.0
 40
1.0
 40
1.0
 40
1.0
 40
2.0
 40
2.0
 40
2.0
 40
3.0
 40
3.0
 40
3.0
 40
4.0
 40
4.0
 40
4.0
 40
5.0
 40
5.0
 40
5.0
 40
5.0
 10
491.9413875725149
 20
356.9198909834449
 10
492.0263875703677
 20
356.9198909834449
 10
492.095687568617
 20
356.988290981717
 10
492.095687568617
 20
357.074190979547
 10
492.095687568617
 20
357.158190977425
 10
492.0263875703677
 20
357.228490975649
 10
491.9413875725149
 20
357.228490975649
 10
491.855487574685
 20
357.228490975649
 10
491.7870875764129
 20
357.158190977425
 10
491.7870875764129
 20
357.074190979547
 10
491.7870875764129
 20
356.988290981717
 10
491.855487574685
 20
356.9198909834449
 10
491.9413875725149
 20
356.9198909834449
 10
491.9413875725149
 20
356.9198909834449
 10
491.9413875725149
 20
356.9198909834449
 10
491.9413875725149
 20
356.9198909834449
 97
        0
 92
        1
 93
        1
 72
     4
 94
        3
 73
     0
 74
     1
 95
       20
 96
       16
 40
0.0
 40
0.0
 40
0.0
 40
0.0
 40
1.0
 40
1.0
 40
1.0
 40
2.0
 40
2.0
 40
2.0
 40
3.0
 40
3.0
 40
3.0
 40
4.0
 40
4.0
 40
4.0
 40
5.0
 40
5.0
 40
5.0
 40
5.0
 10
491.7558875772011
 20
357.6698909644983
 10
491.8163875756727
 20
357.7304909629675
 10
491.8163875756727
 20
357.8280909605019
 10
491.7558875772011
 20
357.888690958971
 10
491.6952875787319
 20
357.9491909574426
 10
491.5976875811975
 20
357.9491909574426
 10
491.5370875827284
 20
357.888690958971
 10
491.4765875842568
 20
357.8280909605019
 10
491.4765875842568
 20
357.7304909629675
 10
491.5370875827284
 20
357.6698909644983
 10
491.5976875811975
 20
357.6093909660267
 10
491.6952875787319
 20
357.6093909660267
 10
491.7558875772011
 20
357.6698909644983
 10
491.7558875772011
 20
357.6698909644983
 10
491.7558875772011
 20
357.6698909644983
 10
491.7558875772011
 20
357.6698909644983
 97
        0
 92
        1
 93
        1
 72
     4
 94
        3
 73
     0
 74
     1
 95
       20
 96
       16
 40
0.0
 40
0.0
 40
0.0
 40
0.0
 40
1.0
 40
1.0
 40
1.0
 40
2.0
 40
2.0
 40
2.0
 40
3.0
 40
3.0
 40
3.0
 40
4.0
 40
4.0
 40
4.0
 40
5.0
 40
5.0
 40
5.0
 40
5.0
 10
491.0937875939271
 20
358.0702909543834
 10
491.0937875939271
 20
358.1552909522361
 10
491.025387595655
 20
358.2245909504854
 10
490.9394875978251
 20
358.2245909504854
 10
490.8544875999723
 20
358.2245909504854
 10
490.785187601723
 20
358.1552909522361
 10
490.785187601723
 20
358.0702909543834
 10
490.785187601723
 20
357.9843909565534
 10
490.8544875999723
 20
357.9159999999993
 10
490.9394875978251
 20
357.9159999999993
 10
491.025387595655
 20
357.9159999999993
 10
491.0937875939271
 20
357.9843909565534
 10
491.0937875939271
 20
358.0702909543834
 10
491.0937875939271
 20
358.0702909543834
 10
491.0937875939271
 20
358.0702909543834
 10
491.0937875939271
 20
358.0702909543834
 97
        0
 92
        1
 93
        1
 72
     4
 94
        3
 73
     0
 74
     1
 95
       20
 96
       16
 40
0.0
 40
0.0
 40
0.0
 40
0.0
 40
1.0
 40
1.0
 40
1.0
 40
2.0
 40
2.0
 40
2.0
 40
3.0
 40
3.0
 40
3.0
 40
4.0
 40
4.0
 40
4.0
 40
5.0
 40
5.0
 40
5.0
 40
5.0
 10
490.3437876128737
 20
357.8847909590695
 10
490.2831876144046
 20
357.9452909575411
 10
490.1854876168727
 20
357.9452909575411
 10
490.125
 20
357.8847909590695
 10
490.0644876199294
 20
357.8241909606004
 10
490.0644876199294
 20
357.726590963066
 10
490.125
 20
357.6659999999993
 10
490.1854876168727
 20
357.6054909661252
 10
490.2831876144046
 20
357.6054909661252
 10
490.3437876128737
 20
357.6659999999993
 10
490.4042876113454
 20
357.726590963066
 10
490.4042876113454
 20
357.8241909606004
 10
490.3437876128737
 20
357.8847909590695
 10
490.3437876128737
 20
357.8847909590695
 10
490.3437876128737
 20
357.8847909590695
 10
490.3437876128737
 20
357.8847909590695
 97
        0
 92
        1
 93
        1
 72
     4
 94
        3
 73
     0
 74
     1
 95
       32
 96
       28
 40
0.0
 40
0.0
 40
0.0
 40
0.0
 40
1.0
 40
1.0
 40
1.0
 40
2.0
 40
2.0
 40
2.0
 40
3.0
 40
3.0
 40
3.0
 40
4.0
 40
4.0
 40
4.0
 40
5.0
 40
5.0
 40
5.0
 40
6.0
 40
6.0
 40
6.0
 40
7.0
 40
7.0
 40
7.0
 40
8.0
 40
8.0
 40
8.0
 40
9.0
 40
9.0
 40
9.0
 40
9.0
 10
491.8515875747835
 20
357.9804909566519
 10
491.6190875806569
 20
358.214790950733
 10
491.2968875887964
 20
358.3573909471306
 10
490.9423875977518
 20
358.3573909471306
 10
490.5858876067578
 20
358.3573909471306
 10
490.2655876148492
 20
358.214790950733
 10
490.0321876207454
 20
357.9804909566519
 10
489.7987876266416
 20
357.7479999999996
 10
489.6552876302667
 20
357.4276909706168
 10
489.6552876302667
 20
357.0702909796455
 10
489.6552876302667
 20
356.7147909886262
 10
489.7987876266416
 20
356.3944909967176
 10
490.0321876207454
 20
356.1620910025886
 10
490.2655876148492
 20
355.92769100851
 10
490.5858876067578
 20
355.7851910121099
 10
490.9423875977518
 20
355.7851910121099
 10
491.2968875887964
 20
355.7851910121099
 10
491.6190875806569
 20
355.9296910084595
 10
491.8515875747835
 20
356.1620910025886
 10
492.0840000000007
 20
356.3944909967176
 10
492.2284875652622
 20
356.7147909886262
 10
492.2284875652622
 20
357.0702909796455
 10
492.2284875652622
 20
357.4276909706168
 10
492.0840000000007
 20
357.7479999999996
 10
491.8515875747835
 20
357.9804909566519
 10
491.8515875747835
 20
357.9804909566519
 10
491.8515875747835
 20
357.9804909566519
 10
491.8515875747835
 20
357.9804909566519
 97
        0
 92
        1
 93
        4
 72
     1
 10
453.3456885475243
 20
372.9433905786573
 11
453.9628885319325
 21
372.9433905786573
 72
     1
 10
453.9628885319325
 20
372.9433905786573
 11
453.9628885319325
 21
362.9081908321677
 72
     1
 10
453.9628885319325
 20
362.9081908321677
 11
453.3456885475243
 21
362.9081908321677
 72
     1
 10
453.3456885475243
 20
362.9081908321677
 11
453.3456885475243
 21
372.9433905786573
 97
        0
 92
        1
 93
        4
 72
     1
 10
448.9462886586625
 20
372.9433905786573
 11
449.5634886430707
 21
372.9433905786573
 72
     1
 10
449.5634886430707
 20
372.9433905786573
 11
449.5634886430707
 21
362.9081908321677
 72
     1
 10
449.5634886430707
 20
362.9081908321677
 11
448.9462886586625
 21
362.9081908321677
 72
     1
 10
448.9462886586625
 20
362.9081908321677
 11
448.9462886586625
 21
372.9433905786573
 97
        0
 92
        1
 93
        4
 72
     1
 10
444.5351887700963
 20
372.9433905786573
 11
445.150388754555
 21
372.9433905786573
 72
     1
 10
445.150388754555
 20
372.9433905786573
 11
445.150388754555
 21
362.9081908321677
 72
     1
 10
445.150388754555
 20
362.9081908321677
 11
444.5351887700963
 21
362.9081908321677
 72
     1
 10
444.5351887700963
 20
362.9081908321677
 11
444.5351887700963
 21
372.9433905786573
 97
        0
 92
        1
 93
        4
 72
     1
 10
439.9784888852082
 20
372.9433905786573
 11
440.5956888696164
 21
372.9433905786573
 72
     1
 10
440.5956888696164
 20
372.9433905786573
 11
440.5956888696164
 21
362.9081908321677
 72
     1
 10
440.5956888696164
 20
362.9081908321677
 11
439.9784888852082
 21
362.9081908321677
 72
     1
 10
439.9784888852082
 20
362.9081908321677
 11
439.9784888852082
 21
372.9433905786573
 97
        0
 92
        1
 93
        4
 72
     1
 10
435.1317890076461
 20
372.9433905786573
 11
435.7479999999996
 21
372.9433905786573
 72
     1
 10
435.7479999999996
 20
372.9433905786573
 11
435.7479999999996
 21
362.9081908321677
 72
     1
 10
435.7479999999996
 20
362.9081908321677
 11
435.1317890076461
 21
362.9081908321677
 72
     1
 10
435.1317890076461
 20
362.9081908321677
 11
435.1317890076461
 21
372.9433905786573
 97
        0
 92
        1
 93
        4
 72
     1
 10
430.5761891227303
 20
372.9433905786573
 11
431.1933891071385
 21
372.9433905786573
 72
     1
 10
431.1933891071385
 20
372.9433905786573
 11
431.1933891071385
 21
362.9081908321677
 72
     1
 10
431.1933891071385
 20
362.9081908321677
 11
430.5761891227303
 21
362.9081908321677
 72
     1
 10
430.5761891227303
 20
362.9081908321677
 11
430.5761891227303
 21
372.9433905786573
 97
        0
 92
        1
 93
        1
 72
     4
 94
        3
 73
     0
 74
     1
 95
       32
 96
       28
 40
0.0
 40
0.0
 40
0.0
 40
0.0
 40
1.0
 40
1.0
 40
1.0
 40
2.0
 40
2.0
 40
2.0
 40
3.0
 40
3.0
 40
3.0
 40
4.0
 40
4.0
 40
4.0
 40
5.0
 40
5.0
 40
5.0
 40
6.0
 40
6.0
 40
6.0
 40
7.0
 40
7.0
 40
7.0
 40
8.0
 40
8.0
 40
8.0
 40
9.0
 40
9.0
 40
9.0
 40
9.0
 10
454.0302885302299
 20
360.1972909006508
 10
454.8925885084464
 20
360.1972909006508
 10
455.6747884886863
 20
359.8466909095077
 10
456.2401884744031
 20
359.2812909237909
 10
456.8065884600946
 20
358.7157909380767
 10
457.1552884512857
 20
357.9335909578367
 10
457.1552884512857
 20
357.0702909796455
 10
457.1552884512857
 20
356.2070000000003
 10
456.8065884600946
 20
355.4257910211891
 10
456.2401884744031
 20
354.8612910354495
 10
455.6747884886863
 20
354.294891049758
 10
454.8925885084464
 20
353.9452910585896
 10
454.0302885302299
 20
353.9452910585896
 10
453.1659999999993
 20
353.9452910585896
 10
452.385688571776
 20
354.294891049758
 10
451.8202885860592
 20
354.8612910354495
 10
451.2538886003676
 20
355.4257910211891
 10
450.9042886091993
 20
356.2070000000003
 10
450.9042886091993
 20
357.0702909796455
 10
450.9042886091993
 20
357.9335909578367
 10
451.2538886003676
 20
358.7157909380767
 10
451.8202885860592
 20
359.2812909237909
 10
452.385688571776
 20
359.8466909095077
 10
453.1659999999993
 20
360.1972909006508
 10
454.0302885302299
 20
360.1972909006508
 10
454.0302885302299
 20
360.1972909006508
 10
454.0302885302299
 20
360.1972909006508
 10
454.0302885302299
 20
360.1972909006508
 97
        0
 92
        1
 93
        1
 72
     4
 94
        3
 73
     0
 74
     1
 95
       20
 96
       16
 40
0.0
 40
0.0
 40
0.0
 40
0.0
 40
1.0
 40
1.0
 40
1.0
 40
2.0
 40
2.0
 40
2.0
 40
3.0
 40
3.0
 40
3.0
 40
4.0
 40
4.0
 40
4.0
 40
5.0
 40
5.0
 40
5.0
 40
5.0
 10
455.029288504993
 20
357.2226909757956
 10
455.1142885028457
 20
357.2226909757956
 10
455.1835885010951
 20
357.1542909775235
 10
455.1835885010951
 20
357.0683909796935
 10
455.1835885010951
 20
356.982390981866
 10
455.1142885028457
 20
356.9140909835914
 10
455.029288504993
 20
356.9140909835914
 10
454.943388507163
 20
356.9140909835914
 10
454.8739999999998
 20
356.982390981866
 10
454.8739999999998
 20
357.0683909796935
 10
454.8739999999998
 20
357.1542909775235
 10
454.943388507163
 20
357.2226909757956
 10
455.029288504993
 20
357.2226909757956
 10
455.029288504993
 20
357.2226909757956
 10
455.029288504993
 20
357.2226909757956
 10
455.029288504993
 20
357.2226909757956
 97
        0
 92
        1
 93
        1
 72
     4
 94
        3
 73
     0
 74
     1
 95
       20
 96
       16
 40
0.0
 40
0.0
 40
0.0
 40
0.0
 40
1.0
 40
1.0
 40
1.0
 40
2.0
 40
2.0
 40
2.0
 40
3.0
 40
3.0
 40
3.0
 40
4.0
 40
4.0
 40
4.0
 40
5.0
 40
5.0
 40
5.0
 40
5.0
 10
454.8437885096791
 20
356.4726909947422
 10
454.78318851121
 20
356.5331909932138
 10
454.6854885136781
 20
356.5331909932138
 10
454.625
 20
356.4726909947422
 10
454.5644885167349
 20
356.412090996273
 10
454.5644885167349
 20
356.3144909987386
 10
454.625
 20
356.2538910002695
 10
454.6854885136781
 20
356.1933910017979
 10
454.78318851121
 20
356.1933910017979
 10
454.8437885096791
 20
356.2538910002695
 10
454.9042885081508
 20
356.3144909987386
 10
454.9042885081508
 20
356.412090996273
 10
454.8437885096791
 20
356.4726909947422
 10
454.8437885096791
 20
356.4726909947422
 10
454.8437885096791
 20
356.4726909947422
 10
454.8437885096791
 20
356.4726909947422
 97
        0
 92
        1
 93
        1
 72
     4
 94
        3
 73
     0
 74
     1
 95
       20
 96
       16
 40
0.0
 40
0.0
 40
0.0
 40
0.0
 40
1.0
 40
1.0
 40
1.0
 40
2.0
 40
2.0
 40
2.0
 40
3.0
 40
3.0
 40
3.0
 40
4.0
 40
4.0
 40
4.0
 40
5.0
 40
5.0
 40
5.0
 40
5.0
 10
454.1815885264077
 20
356.0722910048571
 10
454.1815885264077
 20
356.1581910026871
 10
454.1132885281331
 20
356.2265910009592
 10
454.0272885303057
 20
356.2265910009592
 10
453.9413885324757
 20
356.2265910009592
 10
453.8729999999996
 20
356.1581910026871
 10
453.8729999999996
 20
356.0722910048571
 10
453.8729999999996
 20
355.9862910070296
 10
453.9413885324757
 20
355.9179999999997
 10
454.0272885303057
 20
355.9179999999997
 10
454.1132885281331
 20
355.9179999999997
 10
454.1815885264077
 20
355.9862910070296
 10
454.1815885264077
 20
356.0722910048571
 10
454.1815885264077
 20
356.0722910048571
 10
454.1815885264077
 20
356.0722910048571
 10
454.1815885264077
 20
356.0722910048571
 97
        0
 92
        1
 93
        1
 72
     4
 94
        3
 73
     0
 74
     1
 95
       20
 96
       16
 40
0.0
 40
0.0
 40
0.0
 40
0.0
 40
1.0
 40
1.0
 40
1.0
 40
2.0
 40
2.0
 40
2.0
 40
3.0
 40
3.0
 40
3.0
 40
4.0
 40
4.0
 40
4.0
 40
5.0
 40
5.0
 40
5.0
 40
5.0
 10
453.4306885453771
 20
356.257791000171
 10
453.490188543874
 20
356.3183909986401
 10
453.490188543874
 20
356.4159999999993
 10
453.4306885453771
 20
356.4765909946436
 10
453.3710885468827
 20
356.5370909931153
 10
453.2724885493735
 20
356.5370909931153
 10
453.2118885509044
 20
356.4765909946436
 10
453.15228855241
 20
356.4159999999993
 10
453.15228855241
 20
356.3183909986401
 10
453.2118885509044
 20
356.257791000171
 10
453.2724885493735
 20
356.1972910016993
 10
453.3710885468827
 20
356.1972910016993
 10
453.4306885453771
 20
356.257791000171
 10
453.4306885453771
 20
356.257791000171
 10
453.4306885453771
 20
356.257791000171
 10
453.4306885453771
 20
356.257791000171
 97
        0
 92
        1
 93
        1
 72
     4
 94
        3
 73
     0
 74
     1
 95
       20
 96
       16
 40
0.0
 40
0.0
 40
0.0
 40
0.0
 40
1.0
 40
1.0
 40
1.0
 40
2.0
 40
2.0
 40
2.0
 40
3.0
 40
3.0
 40
3.0
 40
4.0
 40
4.0
 40
4.0
 40
5.0
 40
5.0
 40
5.0
 40
5.0
 10
453.0312885554667
 20
356.9198909834449
 10
452.946288557614
 20
356.9198909834449
 10
452.8770000000004
 20
356.988290981717
 10
452.8770000000004
 20
357.074190979547
 10
452.8770000000004
 20
357.158190977425
 10
452.946288557614
 20
357.228490975649
 10
453.0312885554667
 20
357.228490975649
 10
453.1171885532967
 20
357.228490975649
 10
453.1854885515713
 20
357.158190977425
 10
453.1854885515713
 20
357.074190979547
 10
453.1854885515713
 20
356.988290981717
 10
453.1171885532967
 20
356.9198909834449
 10
453.0312885554667
 20
356.9198909834449
 10
453.0312885554667
 20
356.9198909834449
 10
453.0312885554667
 20
356.9198909834449
 10
453.0312885554667
 20
356.9198909834449
 97
        0
 92
        1
 93
        1
 72
     4
 94
        3
 73
     0
 74
     1
 95
       20
 96
       16
 40
0.0
 40
0.0
 40
0.0
 40
0.0
 40
1.0
 40
1.0
 40
1.0
 40
2.0
 40
2.0
 40
2.0
 40
3.0
 40
3.0
 40
3.0
 40
4.0
 40
4.0
 40
4.0
 40
5.0
 40
5.0
 40
5.0
 40
5.0
 10
453.2167885507806
 20
357.6698909644983
 10
453.156288552309
 20
357.7304909629675
 10
453.156288552309
 20
357.8280909605019
 10
453.2167885507806
 20
357.888690958971
 10
453.2772885492523
 20
357.9491909574426
 10
453.3739999999998
 20
357.9491909574426
 10
453.4354885452558
 20
357.888690958971
 10
453.4960885437249
 20
357.8280909605019
 10
453.4960885437249
 20
357.7304909629675
 10
453.4354885452558
 20
357.6698909644983
 10
453.3739999999998
 20
357.6093909660267
 10
453.2772885492523
 20
357.6093909660267
 10
453.2167885507806
 20
357.6698909644983
 10
453.2167885507806
 20
357.6698909644983
 10
453.2167885507806
 20
357.6698909644983
 10
453.2167885507806
 20
357.6698909644983
 97
        0
 92
        1
 93
        1
 72
     4
 94
        3
 73
     0
 74
     1
 95
       20
 96
       16
 40
0.0
 40
0.0
 40
0.0
 40
0.0
 40
1.0
 40
1.0
 40
1.0
 40
2.0
 40
2.0
 40
2.0
 40
3.0
 40
3.0
 40
3.0
 40
4.0
 40
4.0
 40
4.0
 40
5.0
 40
5.0
 40
5.0
 40
5.0
 10
453.8778885340798
 20
358.0702909543834
 10
453.8778885340798
 20
358.1552909522361
 10
453.9472885323266
 20
358.2245909504854
 10
454.0331885301566
 20
358.2245909504854
 10
454.1181885280093
 20
358.2245909504854
 10
454.1874885262587
 20
358.1552909522361
 10
454.1874885262587
 20
358.0702909543834
 10
454.1874885262587
 20
357.9843909565534
 10
454.1181885280093
 20
357.9159999999993
 10
454.0331885301566
 20
357.9159999999993
 10
453.9472885323266
 20
357.9159999999993
 10
453.8778885340798
 20
357.9843909565534
 10
453.8778885340798
 20
358.0702909543834
 10
453.8778885340798
 20
358.0702909543834
 10
453.8778885340798
 20
358.0702909543834
 10
453.8778885340798
 20
358.0702909543834
 97
        0
 92
        1
 93
        1
 72
     4
 94
        3
 73
     0
 74
     1
 95
       20
 96
       16
 40
0.0
 40
0.0
 40
0.0
 40
0.0
 40
1.0
 40
1.0
 40
1.0
 40
2.0
 40
2.0
 40
2.0
 40
3.0
 40
3.0
 40
3.0
 40
4.0
 40
4.0
 40
4.0
 40
5.0
 40
5.0
 40
5.0
 40
5.0
 10
454.628888515108
 20
357.8847909590695
 10
454.6894885135771
 20
357.9452909575411
 10
454.7870885111115
 20
357.9452909575411
 10
454.8476885095806
 20
357.8847909590695
 10
454.9081885080523
 20
357.8241909606004
 10
454.9081885080523
 20
357.726590963066
 10
454.8476885095806
 20
357.6659999999993
 10
454.7870885111115
 20
357.6054909661252
 10
454.6894885135771
 20
357.6054909661252
 10
454.628888515108
 20
357.6659999999993
 10
454.5683885166363
 20
357.726590963066
 10
454.5683885166363
 20
357.8241909606004
 10
454.628888515108
 20
357.8847909590695
 10
454.628888515108
 20
357.8847909590695
 10
454.628888515108
 20
357.8847909590695
 10
454.628888515108
 20
357.8847909590695
 97
        0
 92
        1
 93
        1
 72
     4
 94
        3
 73
     0
 74
     1
 95
       32
 96
       28
 40
0.0
 40
0.0
 40
0.0
 40
0.0
 40
1.0
 40
1.0
 40
1.0
 40
2.0
 40
2.0
 40
2.0
 40
3.0
 40
3.0
 40
3.0
 40
4.0
 40
4.0
 40
4.0
 40
5.0
 40
5.0
 40
5.0
 40
6.0
 40
6.0
 40
6.0
 40
7.0
 40
7.0
 40
7.0
 40
8.0
 40
8.0
 40
8.0
 40
9.0
 40
9.0
 40
9.0
 40
9.0
 10
453.1190885532487
 20
357.9804909566519
 10
453.3534885473273
 20
358.214790950733
 10
453.6737885392358
 20
358.3573909471306
 10
454.0302885302299
 20
358.3573909471306
 10
454.3847885212745
 20
358.3573909471306
 10
454.7070000000003
 20
358.214790950733
 10
454.9394885072616
 20
357.9804909566519
 10
455.1718885013906
 20
357.7479999999996
 10
455.3163884977403
 20
357.4276909706168
 10
455.3163884977403
 20
357.0702909796455
 10
455.3163884977403
 20
356.7147909886262
 10
455.1718885013906
 20
356.3944909967176
 10
454.9394885072616
 20
356.1620910025886
 10
454.7070000000003
 20
355.92769100851
 10
454.3847885212745
 20
355.7851910121099
 10
454.0302885302299
 20
355.7851910121099
 10
453.6737885392358
 20
355.7851910121099
 10
453.3534885473273
 20
355.9296910084595
 10
453.1190885532487
 20
356.1620910025886
 10
452.8866885591196
 20
356.3944909967176
 10
452.744088562722
 20
356.7147909886262
 10
452.744088562722
 20
357.0702909796455
 10
452.744088562722
 20
357.4276909706168
 10
452.8866885591196
 20
357.7479999999996
 10
453.1190885532487
 20
357.9804909566519
 10
453.1190885532487
 20
357.9804909566519
 10
453.1190885532487
 20
357.9804909566519
 10
453.1190885532487
 20
357.9804909566519
 97
        0
 92
        1
 93
        1
 72
     4
 94
        3
 73
     0
 74
     1
 95
       32
 96
       28
 40
0.0
 40
0.0
 40
0.0
 40
0.0
 40
1.0
 40
1.0
 40
1.0
 40
2.0
 40
2.0
 40
2.0
 40
3.0
 40
3.0
 40
3.0
 40
4.0
 40
4.0
 40
4.0
 40
5.0
 40
5.0
 40
5.0
 40
6.0
 40
6.0
 40
6.0
 40
7.0
 40
7.0
 40
7.0
 40
8.0
 40
8.0
 40
8.0
 40
9.0
 40
9.0
 40
9.0
 40
9.0
 10
430.4804891251479
 20
360.1972909006508
 10
431.3437891033391
 20
360.1972909006508
 10
432.125
 20
359.8466909095077
 10
432.6913890692958
 20
359.2812909237909
 10
433.2558890550354
 20
358.7157909380767
 10
433.606389046181
 20
357.9335909578367
 10
433.606389046181
 20
357.0702909796455
 10
433.606389046181
 20
356.2070000000003
 10
433.2558890550354
 20
355.4257910211891
 10
432.6913890692958
 20
354.8612910354495
 10
432.125
 20
354.294891049758
 10
431.3437891033391
 20
353.9452910585896
 10
430.4804891251479
 20
353.9452910585896
 10
429.6171891469567
 20
353.9452910585896
 10
428.835889166694
 20
354.294891049758
 10
428.2704891809772
 20
354.8612910354495
 10
427.7050891952604
 20
355.4257910211891
 10
427.355489204092
 20
356.2070000000003
 10
427.355489204092
 20
357.0702909796455
 10
427.355489204092
 20
357.9335909578367
 10
427.7050891952604
 20
358.7157909380767
 10
428.2704891809772
 20
359.2812909237909
 10
428.835889166694
 20
359.8466909095077
 10
429.6171891469567
 20
360.1972909006508
 10
430.4804891251479
 20
360.1972909006508
 10
430.4804891251479
 20
360.1972909006508
 10
430.4804891251479
 20
360.1972909006508
 10
430.4804891251479
 20
360.1972909006508
 97
        0
 92
        1
 93
        1
 72
     4
 94
        3
 73
     0
 74
     1
 95
       20
 96
       16
 40
0.0
 40
0.0
 40
0.0
 40
0.0
 40
1.0
 40
1.0
 40
1.0
 40
2.0
 40
2.0
 40
2.0
 40
3.0
 40
3.0
 40
3.0
 40
4.0
 40
4.0
 40
4.0
 40
5.0
 40
5.0
 40
5.0
 40
5.0
 10
429.4813891503873
 20
357.2226909757956
 10
429.56638914824
 20
357.2226909757956
 10
429.6366891464641
 20
357.1542909775235
 10
429.6366891464641
 20
357.0683909796935
 10
429.6366891464641
 20
356.982390981866
 10
429.56638914824
 20
356.9140909835914
 10
429.4813891503873
 20
356.9140909835914
 10
429.396489152532
 20
356.9140909835914
 10
429.3261891543079
 20
356.982390981866
 10
429.3261891543079
 20
357.0683909796935
 10
429.3261891543079
 20
357.1542909775235
 10
429.396489152532
 20
357.2226909757956
 10
429.4813891503873
 20
357.2226909757956
 10
429.4813891503873
 20
357.2226909757956
 10
429.4813891503873
 20
357.2226909757956
 10
429.4813891503873
 20
357.2226909757956
 97
        0
 92
        1
 93
        1
 72
     4
 94
        3
 73
     0
 74
     1
 95
       20
 96
       16
 40
0.0
 40
0.0
 40
0.0
 40
0.0
 40
1.0
 40
1.0
 40
1.0
 40
2.0
 40
2.0
 40
2.0
 40
3.0
 40
3.0
 40
3.0
 40
4.0
 40
4.0
 40
4.0
 40
5.0
 40
5.0
 40
5.0
 40
5.0
 10
429.6669999999995
 20
356.4726909947422
 10
429.6063891472295
 20
356.412090996273
 10
429.6063891472295
 20
356.3144909987386
 10
429.6669999999995
 20
356.2538910002695
 10
429.726589144193
 20
356.1933910017979
 10
429.8251891417021
 20
356.1933910017979
 10
429.8847891401965
 20
356.2538910002695
 10
429.9452891386682
 20
356.3144909987386
 10
429.9452891386682
 20
356.412090996273
 10
429.8847891401965
 20
356.4726909947422
 10
429.8251891417021
 20
356.5331909932138
 10
429.726589144193
 20
356.5331909932138
 10
429.6669999999995
 20
356.4726909947422
 10
429.6669999999995
 20
356.4726909947422
 10
429.6669999999995
 20
356.4726909947422
 10
429.6669999999995
 20
356.4726909947422
 97
        0
 92
        1
 93
        1
 72
     4
 94
        3
 73
     0
 74
     1
 95
       20
 96
       16
 40
0.0
 40
0.0
 40
0.0
 40
0.0
 40
1.0
 40
1.0
 40
1.0
 40
2.0
 40
2.0
 40
2.0
 40
3.0
 40
3.0
 40
3.0
 40
4.0
 40
4.0
 40
4.0
 40
5.0
 40
5.0
 40
5.0
 40
5.0
 10
430.3280891289978
 20
356.0722910048571
 10
430.3280891289978
 20
355.9862910070296
 10
430.3983891272219
 20
355.9179999999997
 10
430.4823891250999
 20
355.9179999999997
 10
430.5683891229273
 20
355.9179999999997
 10
430.6376891211767
 20
355.9862910070296
 10
430.6376891211767
 20
356.0722910048571
 10
430.6376891211767
 20
356.1581910026871
 10
430.5683891229273
 20
356.2265910009592
 10
430.4823891250999
 20
356.2265910009592
 10
430.3983891272219
 20
356.2265910009592
 10
430.3280891289978
 20
356.1581910026871
 10
430.3280891289978
 20
356.0722910048571
 10
430.3280891289978
 20
356.0722910048571
 10
430.3280891289978
 20
356.0722910048571
 10
430.3280891289978
 20
356.0722910048571
 97
        0
 92
        1
 93
        1
 72
     4
 94
        3
 73
     0
 74
     1
 95
       20
 96
       16
 40
0.0
 40
0.0
 40
0.0
 40
0.0
 40
1.0
 40
1.0
 40
1.0
 40
2.0
 40
2.0
 40
2.0
 40
3.0
 40
3.0
 40
3.0
 40
4.0
 40
4.0
 40
4.0
 40
5.0
 40
5.0
 40
5.0
 40
5.0
 10
431.0800891100007
 20
356.257791000171
 10
431.1405891084723
 20
356.1972910016993
 10
431.2372891060295
 20
356.1972910016993
 10
431.2968891045239
 20
356.257791000171
 10
431.3573891029955
 20
356.3183909986401
 10
431.3583891029702
 20
356.4159999999993
 10
431.2968891045239
 20
356.4765909946436
 10
431.2372891060295
 20
356.5370909931153
 10
431.1405891084723
 20
356.5370909931153
 10
431.0800891100007
 20
356.4765909946436
 10
431.0185891115543
 20
356.4159999999993
 10
431.0185891115543
 20
356.3183909986401
 10
431.0800891100007
 20
356.257791000171
 10
431.0800891100007
 20
356.257791000171
 10
431.0800891100007
 20
356.257791000171
 10
431.0800891100007
 20
356.257791000171
 97
        0
 92
        1
 93
        1
 72
     4
 94
        3
 73
     0
 74
     1
 95
       20
 96
       16
 40
0.0
 40
0.0
 40
0.0
 40
0.0
 40
1.0
 40
1.0
 40
1.0
 40
2.0
 40
2.0
 40
2.0
 40
3.0
 40
3.0
 40
3.0
 40
4.0
 40
4.0
 40
4.0
 40
5.0
 40
5.0
 40
5.0
 40
5.0
 10
431.4784890999363
 20
356.9198909834449
 10
431.3944891020583
 20
356.9198909834449
 10
431.3241891038342
 20
356.988290981717
 10
431.3241891038342
 20
357.074190979547
 10
431.3241891038342
 20
357.158190977425
 10
431.3944891020583
 20
357.228490975649
 10
431.4784890999363
 20
357.228490975649
 10
431.5644890977637
 20
357.228490975649
 10
431.6337890960131
 20
357.158190977425
 10
431.6337890960131
 20
357.074190979547
 10
431.6337890960131
 20
356.988290981717
 10
431.5644890977637
 20
356.9198909834449
 10
431.4784890999363
 20
356.9198909834449
 10
431.4784890999363
 20
356.9198909834449
 10
431.4784890999363
 20
356.9198909834449
 10
431.4784890999363
 20
356.9198909834449
 97
        0
 92
        1
 93
        1
 72
     4
 94
        3
 73
     0
 74
     1
 95
       20
 96
       16
 40
0.0
 40
0.0
 40
0.0
 40
0.0
 40
1.0
 40
1.0
 40
1.0
 40
2.0
 40
2.0
 40
2.0
 40
3.0
 40
3.0
 40
3.0
 40
4.0
 40
4.0
 40
4.0
 40
5.0
 40
5.0
 40
5.0
 40
5.0
 10
431.2929999999997
 20
357.6698909644983
 10
431.233389106128
 20
357.6093909660267
 10
431.1347891086189
 20
357.6093909660267
 10
431.0751891101245
 20
357.6698909644983
 10
431.0155891116301
 20
357.7304909629675
 10
431.0155891116301
 20
357.8280909605019
 10
431.0751891101245
 20
357.888690958971
 10
431.1347891086189
 20
357.9491909574426
 10
431.233389106128
 20
357.9491909574426
 10
431.2929999999997
 20
357.888690958971
 10
431.353489103094
 20
357.8280909605019
 10
431.353489103094
 20
357.7304909629675
 10
431.2929999999997
 20
357.6698909644983
 10
431.2929999999997
 20
357.6698909644983
 10
431.2929999999997
 20
357.6698909644983
 10
431.2929999999997
 20
357.6698909644983
 97
        0
 92
        1
 93
        1
 72
     4
 94
        3
 73
     0
 74
     1
 95
       20
 96
       16
 40
0.0
 40
0.0
 40
0.0
 40
0.0
 40
1.0
 40
1.0
 40
1.0
 40
2.0
 40
2.0
 40
2.0
 40
3.0
 40
3.0
 40
3.0
 40
4.0
 40
4.0
 40
4.0
 40
5.0
 40
5.0
 40
5.0
 40
5.0
 10
430.6327891213004
 20
358.0702909543834
 10
430.6327891213004
 20
357.9843909565534
 10
430.5624891230764
 20
357.9159999999993
 10
430.4774891252237
 20
357.9159999999993
 10
430.3925891273684
 20
357.9159999999993
 10
430.3222891291443
 20
357.9843909565534
 10
430.3222891291443
 20
358.0702909543834
 10
430.3222891291443
 20
358.1552909522361
 10
430.3925891273684
 20
358.2245909504854
 10
430.4774891252237
 20
358.2245909504854
 10
430.5624891230764
 20
358.2245909504854
 10
430.6327891213004
 20
358.1552909522361
 10
430.6327891213004
 20
358.0702909543834
 10
430.6327891213004
 20
358.0702909543834
 10
430.6327891213004
 20
358.0702909543834
 10
430.6327891213004
 20
358.0702909543834
 97
        0
 92
        1
 93
        1
 72
     4
 94
        3
 73
     0
 74
     1
 95
       20
 96
       16
 40
0.0
 40
0.0
 40
0.0
 40
0.0
 40
1.0
 40
1.0
 40
1.0
 40
2.0
 40
2.0
 40
2.0
 40
3.0
 40
3.0
 40
3.0
 40
4.0
 40
4.0
 40
4.0
 40
5.0
 40
5.0
 40
5.0
 40
5.0
 10
429.8817891402723
 20
357.8847909590695
 10
429.9413891387667
 20
357.8241909606004
 10
429.9413891387667
 20
357.726590963066
 10
429.8817891402723
 20
357.6659999999993
 10
429.8222891417754
 20
357.6054909661252
 10
429.7226891442915
 20
357.6054909661252
 10
429.6630891457971
 20
357.6659999999993
 10
429.6034891473028
 20
357.726590963066
 10
429.6034891473028
 20
357.8241909606004
 10
429.6630891457971
 20
357.8847909590695
 10
429.7226891442915
 20
357.9452909575411
 10
429.8222891417754
 20
357.9452909575411
 10
429.8817891402723
 20
357.8847909590695
 10
429.8817891402723
 20
357.8847909590695
 10
429.8817891402723
 20
357.8847909590695
 10
429.8817891402723
 20
357.8847909590695
 97
        0
 92
        1
 93
        1
 72
     4
 94
        3
 73
     0
 74
     1
 95
       32
 96
       28
 40
0.0
 40
0.0
 40
0.0
 40
0.0
 40
1.0
 40
1.0
 40
1.0
 40
2.0
 40
2.0
 40
2.0
 40
3.0
 40
3.0
 40
3.0
 40
4.0
 40
4.0
 40
4.0
 40
5.0
 40
5.0
 40
5.0
 40
6.0
 40
6.0
 40
6.0
 40
7.0
 40
7.0
 40
7.0
 40
8.0
 40
8.0
 40
8.0
 40
9.0
 40
9.0
 40
9.0
 40
9.0
 10
431.3905891021568
 20
357.9804909566519
 10
431.6229999999996
 20
357.7479999999996
 10
431.767589092633
 20
357.4276909706168
 10
431.767589092633
 20
357.0702909796455
 10
431.767589092633
 20
356.7147909886262
 10
431.6229999999996
 20
356.3944909967176
 10
431.3905891021568
 20
356.1620910025886
 10
431.157189108053
 20
355.9296910084595
 10
430.8358891161697
 20
355.7851910121099
 10
430.4804891251479
 20
355.7851910121099
 10
430.125
 20
355.7851910121099
 10
429.8026891422705
 20
355.92769100851
 10
429.5702891481415
 20
356.1620910025886
 10
429.3378891540124
 20
356.3944909967176
 10
429.1933891576628
 20
356.7147909886262
 10
429.1933891576628
 20
357.0702909796455
 10
429.1933891576628
 20
357.4276909706168
 10
429.3378891540124
 20
357.7479999999996
 10
429.5702891481415
 20
357.9804909566519
 10
429.8026891422705
 20
358.214790950733
 10
430.125
 20
358.3573909471306
 10
430.4804891251479
 20
358.3573909471306
 10
430.8358891161697
 20
358.3573909471306
 10
431.157189108053
 20
358.214790950733
 10
431.3905891021568
 20
357.9804909566519
 10
431.3905891021568
 20
357.9804909566519
 10
431.3905891021568
 20
357.9804909566519
 10
431.3905891021568
 20
357.9804909566519
 97
        0
 92
        1
 93
        1
 72
     4
 94
        3
 73
     0
 74
     1
 95
       32
 96
       28
 40
0.0
 40
0.0
 40
0.0
 40
0.0
 40
1.0
 40
1.0
 40
1.0
 40
2.0
 40
2.0
 40
2.0
 40
3.0
 40
3.0
 40
3.0
 40
4.0
 40
4.0
 40
4.0
 40
5.0
 40
5.0
 40
5.0
 40
6.0
 40
6.0
 40
6.0
 40
7.0
 40
7.0
 40
7.0
 40
8.0
 40
8.0
 40
8.0
 40
9.0
 40
9.0
 40
9.0
 40
9.0
 10
438.1444889315389
 20
360.1972909006508
 10
439.0077889097302
 20
360.1972909006508
 10
439.7900000000009
 20
359.8466909095077
 10
440.3554888756844
 20
359.2812909237909
 10
440.9208888614012
 20
358.7157909380767
 10
441.2714888525443
 20
357.9335909578367
 10
441.2714888525443
 20
357.0702909796455
 10
441.2714888525443
 20
356.2070000000003
 10
440.9208888614012
 20
355.4257910211891
 10
440.3554888756844
 20
354.8612910354495
 10
439.7900000000009
 20
354.294891049758
 10
439.0077889097302
 20
353.9452910585896
 10
438.1444889315389
 20
353.9452910585896
 10
437.2812889533452
 20
353.9452910585896
 10
436.5
 20
354.294891049758
 10
435.935488987343
 20
354.8612910354495
 10
435.3690890016514
 20
355.4257910211891
 10
435.0194890104831
 20
356.2070000000003
 10
435.0194890104831
 20
357.0702909796455
 10
435.0194890104831
 20
357.9335909578367
 10
435.3690890016514
 20
358.7157909380767
 10
435.935488987343
 20
359.2812909237909
 10
436.5
 20
359.8466909095077
 10
437.2812889533452
 20
360.1972909006508
 10
438.1444889315389
 20
360.1972909006508
 10
438.1444889315389
 20
360.1972909006508
 10
438.1444889315389
 20
360.1972909006508
 10
438.1444889315389
 20
360.1972909006508
 97
        0
 92
        1
 93
        1
 72
     4
 94
        3
 73
     0
 74
     1
 95
       20
 96
       16
 40
0.0
 40
0.0
 40
0.0
 40
0.0
 40
1.0
 40
1.0
 40
1.0
 40
2.0
 40
2.0
 40
2.0
 40
3.0
 40
3.0
 40
3.0
 40
4.0
 40
4.0
 40
4.0
 40
5.0
 40
5.0
 40
5.0
 40
5.0
 10
437.1464889567505
 20
357.2226909757956
 10
437.2313889546058
 20
357.2226909757956
 10
437.3007889528526
 20
357.1542909775235
 10
437.3007889528526
 20
357.0683909796935
 10
437.3007889528526
 20
356.982390981866
 10
437.2313889546058
 20
356.9140909835914
 10
437.1464889567505
 20
356.9140909835914
 10
437.0614889588978
 20
356.9140909835914
 10
436.9921889606485
 20
356.982390981866
 10
436.9921889606485
 20
357.0683909796935
 10
436.9921889606485
 20
357.1542909775235
 10
437.0614889588978
 20
357.2226909757956
 10
437.1464889567505
 20
357.2226909757956
 10
437.1464889567505
 20
357.2226909757956
 10
437.1464889567505
 20
357.2226909757956
 10
437.1464889567505
 20
357.2226909757956
 97
        0
 92
        1
 93
        1
 72
     4
 94
        3
 73
     0
 74
     1
 95
       20
 96
       16
 40
0.0
 40
0.0
 40
0.0
 40
0.0
 40
1.0
 40
1.0
 40
1.0
 40
2.0
 40
2.0
 40
2.0
 40
3.0
 40
3.0
 40
3.0
 40
4.0
 40
4.0
 40
4.0
 40
5.0
 40
5.0
 40
5.0
 40
5.0
 10
437.3320000000003
 20
356.4726909947422
 10
437.2714889535928
 20
356.412090996273
 10
437.2714889535928
 20
356.3144909987386
 10
437.3320000000003
 20
356.2538910002695
 10
437.3925889505335
 20
356.1933910017979
 10
437.490188948068
 20
356.1933910017979
 10
437.5507889465371
 20
356.2538910002695
 10
437.6112889450087
 20
356.3144909987386
 10
437.6112889450087
 20
356.412090996273
 10
437.5507889465371
 20
356.4726909947422
 10
437.490188948068
 20
356.5331909932138
 10
437.3925889505335
 20
356.5331909932138
 10
437.3320000000003
 20
356.4726909947422
 10
437.3320000000003
 20
356.4726909947422
 10
437.3320000000003
 20
356.4726909947422
 10
437.3320000000003
 20
356.4726909947422
 97
        0
 92
        1
 93
        1
 72
     4
 94
        3
 73
     0
 74
     1
 95
       20
 96
       16
 40
0.0
 40
0.0
 40
0.0
 40
0.0
 40
1.0
 40
1.0
 40
1.0
 40
2.0
 40
2.0
 40
2.0
 40
3.0
 40
3.0
 40
3.0
 40
4.0
 40
4.0
 40
4.0
 40
5.0
 40
5.0
 40
5.0
 40
5.0
 10
437.9931889353611
 20
356.0722910048571
 10
437.9931889353611
 20
355.9862910070296
 10
438.0624889336104
 20
355.9179999999997
 10
438.1483889314404
 20
355.9179999999997
 10
438.2333889292931
 20
355.9179999999997
 10
438.3026889275425
 20
355.9862910070296
 10
438.3026889275425
 20
356.0722910048571
 10
438.3026889275425
 20
356.1581910026871
 10
438.2333889292931
 20
356.2265910009592
 10
438.1483889314404
 20
356.2265910009592
 10
438.0624889336104
 20
356.2265910009592
 10
437.9931889353611
 20
356.1581910026871
 10
437.9931889353611
 20
356.0722910048571
 10
437.9931889353611
 20
356.0722910048571
 10
437.9931889353611
 20
356.0722910048571
 10
437.9931889353611
 20
356.0722910048571
 97
        0
 92
        1
 93
        1
 72
     4
 94
        3
 73
     0
 74
     1
 95
       20
 96
       16
 40
0.0
 40
0.0
 40
0.0
 40
0.0
 40
1.0
 40
1.0
 40
1.0
 40
2.0
 40
2.0
 40
2.0
 40
3.0
 40
3.0
 40
3.0
 40
4.0
 40
4.0
 40
4.0
 40
5.0
 40
5.0
 40
5.0
 40
5.0
 10
438.7440889163918
 20
356.257791000171
 10
438.8046889148609
 20
356.1972910016993
 10
438.9022889123953
 20
356.1972910016993
 10
438.9628889108644
 20
356.257791000171
 10
439.0224889093588
 20
356.3183909986401
 10
439.0224889093588
 20
356.4159999999993
 10
438.9628889108644
 20
356.4765909946436
 10
438.9022889123953
 20
356.5370909931153
 10
438.8046889148609
 20
356.5370909931153
 10
438.7440889163918
 20
356.4765909946436
 10
438.6835889179201
 20
356.4159999999993
 10
438.6835889179201
 20
356.3183909986401
 10
438.7440889163918
 20
356.257791000171
 10
438.7440889163918
 20
356.257791000171
 10
438.7440889163918
 20
356.257791000171
 10
438.7440889163918
 20
356.257791000171
 97
        0
 92
        1
 93
        1
 72
     4
 94
        3
 73
     0
 74
     1
 95
       20
 96
       16
 40
0.0
 40
0.0
 40
0.0
 40
0.0
 40
1.0
 40
1.0
 40
1.0
 40
2.0
 40
2.0
 40
2.0
 40
3.0
 40
3.0
 40
3.0
 40
4.0
 40
4.0
 40
4.0
 40
5.0
 40
5.0
 40
5.0
 40
5.0
 10
439.1444889062768
 20
356.9198909834449
 10
439.0585889084468
 20
356.9198909834449
 10
438.9892889101975
 20
356.988290981717
 10
438.9892889101975
 20
357.074190979547
 10
438.9892889101975
 20
357.158190977425
 10
439.0585889084468
 20
357.228490975649
 10
439.1444889062768
 20
357.228490975649
 10
439.2294889041295
 20
357.228490975649
 10
439.2987889023789
 20
357.158190977425
 10
439.2987889023789
 20
357.074190979547
 10
439.2987889023789
 20
356.988290981717
 10
439.2294889041295
 20
356.9198909834449
 10
439.1444889062768
 20
356.9198909834449
 10
439.1444889062768
 20
356.9198909834449
 10
439.1444889062768
 20
356.9198909834449
 10
439.1444889062768
 20
356.9198909834449
 97
        0
 92
        1
 93
        1
 72
     4
 94
        3
 73
     0
 74
     1
 95
       20
 96
       16
 40
0.0
 40
0.0
 40
0.0
 40
0.0
 40
1.0
 40
1.0
 40
1.0
 40
2.0
 40
2.0
 40
2.0
 40
3.0
 40
3.0
 40
3.0
 40
4.0
 40
4.0
 40
4.0
 40
5.0
 40
5.0
 40
5.0
 40
5.0
 10
438.9590000000007
 20
357.6698909644983
 10
438.8983889124938
 20
357.6093909660267
 10
438.8007889149594
 20
357.6093909660267
 10
438.7401889164903
 20
357.6698909644983
 10
438.6796889180187
 20
357.7304909629675
 10
438.6796889180187
 20
357.8280909605019
 10
438.7401889164903
 20
357.888690958971
 10
438.8007889149594
 20
357.9491909574426
 10
438.8983889124938
 20
357.9491909574426
 10
438.9590000000007
 20
357.888690958971
 10
439.0194889094346
 20
357.8280909605019
 10
439.0194889094346
 20
357.7304909629675
 10
438.9590000000007
 20
357.6698909644983
 10
438.9590000000007
 20
357.6698909644983
 10
438.9590000000007
 20
357.6698909644983
 10
438.9590000000007
 20
357.6698909644983
 97
        0
 92
        1
 93
        1
 72
     4
 94
        3
 73
     0
 74
     1
 95
       20
 96
       16
 40
0.0
 40
0.0
 40
0.0
 40
0.0
 40
1.0
 40
1.0
 40
1.0
 40
2.0
 40
2.0
 40
2.0
 40
3.0
 40
3.0
 40
3.0
 40
4.0
 40
4.0
 40
4.0
 40
5.0
 40
5.0
 40
5.0
 40
5.0
 10
438.296888927689
 20
358.0702909543834
 10
438.296888927689
 20
357.9843909565534
 10
438.2274889294422
 20
357.9159999999993
 10
438.1425889315869
 20
357.9159999999993
 10
438.0565889337595
 20
357.9159999999993
 10
437.9882889354849
 20
357.9843909565534
 10
437.9882889354849
 20
358.0702909543834
 10
437.9882889354849
 20
358.1552909522361
 10
438.0565889337595
 20
358.2245909504854
 10
438.1425889315869
 20
358.2245909504854
 10
438.2274889294422
 20
358.2245909504854
 10
438.296888927689
 20
358.1552909522361
 10
438.296888927689
 20
358.0702909543834
 10
438.296888927689
 20
358.0702909543834
 10
438.296888927689
 20
358.0702909543834
 10
438.296888927689
 20
358.0702909543834
 97
        0
 92
        1
 93
        1
 72
     4
 94
        3
 73
     0
 74
     1
 95
       20
 96
       16
 40
0.0
 40
0.0
 40
0.0
 40
0.0
 40
1.0
 40
1.0
 40
1.0
 40
2.0
 40
2.0
 40
2.0
 40
3.0
 40
3.0
 40
3.0
 40
4.0
 40
4.0
 40
4.0
 40
5.0
 40
5.0
 40
5.0
 40
5.0
 10
437.5468889466356
 20
357.8847909590695
 10
437.6073889451072
 20
357.8241909606004
 10
437.6073889451072
 20
357.726590963066
 10
437.5468889466356
 20
357.6659999999993
 10
437.4862889481665
 20
357.6054909661252
 10
437.3886889506321
 20
357.6054909661252
 10
437.3280889521629
 20
357.6659999999993
 10
437.2675889536913
 20
357.726590963066
 10
437.2675889536913
 20
357.8241909606004
 10
437.3280889521629
 20
357.8847909590695
 10
437.3886889506321
 20
357.9452909575411
 10
437.4862889481665
 20
357.9452909575411
 10
437.5468889466356
 20
357.8847909590695
 10
437.5468889466356
 20
357.8847909590695
 10
437.5468889466356
 20
357.8847909590695
 10
437.5468889466356
 20
357.8847909590695
 97
        0
 92
        1
 93
        1
 72
     4
 94
        3
 73
     0
 74
     1
 95
       29
 96
       25
 40
0.0
 40
0.0
 40
0.0
 40
0.0
 40
1.0
 40
1.0
 40
1.0
 40
2.0
 40
2.0
 40
2.0
 40
3.0
 40
3.0
 40
3.0
 40
4.0
 40
4.0
 40
4.0
 40
5.0
 40
5.0
 40
5.0
 40
6.0
 40
6.0
 40
6.0
 40
7.0
 40
7.0
 40
7.0
 40
8.0
 40
8.0
 40
8.0
 40
8.0
 10
439.0546889085454
 20
357.9804909566519
 10
439.2870889026744
 20
357.7479999999996
 10
439.4315888990241
 20
357.4276909706168
 10
439.4315888990241
 20
357.0702909796455
 10
439.4315888990241
 20
356.7147909886262
 10
439.2870889026744
 20
356.3944909967176
 10
439.0546889085454
 20
356.1620910025886
 10
438.8222889144163
 20
355.9296910084595
 10
438.5010000000002
 20
355.7851910121099
 10
438.1444889315389
 20
355.7851910121099
 10
437.7890889405171
 20
355.7851910121099
 10
437.4687889486086
 20
355.92769100851
 10
437.2353889545047
 20
356.1620910025886
 10
437.0020000000004
 20
356.3944909967176
 10
436.8583889640286
 20
356.7147909886262
 10
436.8583889640286
 20
357.0702909796455
 10
436.8583889640286
 20
357.4276909706168
 10
437.0020000000004
 20
357.7479999999996
 10
437.2353889545047
 20
357.9804909566519
 10
437.4687889486086
 20
358.214790950733
 10
437.7890889405171
 20
358.3573909471306
 10
438.1444889315389
 20
358.3573909471306
 10
438.5010000000002
 20
358.3573909471306
 10
438.8222889144163
 20
358.214790950733
 10
439.0546889085454
 20
357.9804909566519
 97
        0
 75
     0
 76
     1
 98
        0
  0
SPLINE
  5
101
330
14
100
AcDbEntity
  8
Layer 1
370
     0
100
AcDbSpline
210
0.0
220
0.0
230
1.0
 70
    11
 71
     3
 72
    32
 73
    28
 74
     0
 42
0.000000001
 43
0.0000000001
 40
0.0
 40
0.0
 40
0.0
 40
0.0
 40
1.0
 40
1.0
 40
1.0
 40
2.0
 40
2.0
 40
2.0
 40
3.0
 40
3.0
 40
3.0
 40
4.0
 40
4.0
 40
4.0
 40
5.0
 40
5.0
 40
5.0
 40
6.0
 40
6.0
 40
6.0
 40
7.0
 40
7.0
 40
7.0
 40
8.0
 40
8.0
 40
8.0
 40
9.0
 40
9.0
 40
9.0
 40
9.0
 10
453.1190885532487
 20
357.9804909566519
 30
0.0
 10
453.3534885473273
 20
358.214790950733
 30
0.0
 10
453.6737885392358
 20
358.3573909471306
 30
0.0
 10
454.0302885302299
 20
358.3573909471306
 30
0.0
 10
454.3847885212745
 20
358.3573909471306
 30
0.0
 10
454.7070000000003
 20
358.214790950733
 30
0.0
 10
454.9394885072616
 20
357.9804909566519
 30
0.0
 10
455.1718885013906
 20
357.7479999999996
 30
0.0
 10
455.3163884977403
 20
357.4276909706168
 30
0.0
 10
455.3163884977403
 20
357.0702909796455
 30
0.0
 10
455.3163884977403
 20
356.7147909886262
 30
0.0
 10
455.1718885013906
 20
356.3944909967176
 30
0.0
 10
454.9394885072616
 20
356.1620910025886
 30
0.0
 10
454.7070000000003
 20
355.92769100851
 30
0.0
 10
454.3847885212745
 20
355.7851910121099
 30
0.0
 10
454.0302885302299
 20
355.7851910121099
 30
0.0
 10
453.6737885392358
 20
355.7851910121099
 30
0.0
 10
453.3534885473273
 20
355.9296910084595
 30
0.0
 10
453.1190885532487
 20
356.1620910025886
 30
0.0
 10
452.8866885591196
 20
356.3944909967176
 30
0.0
 10
452.744088562722
 20
356.7147909886262
 30
0.0
 10
452.744088562722
 20
357.0702909796455
 30
0.0
 10
452.744088562722
 20
357.4276909706168
 30
0.0
 10
452.8866885591196
 20
357.7479999999996
 30
0.0
 10
453.1190885532487
 20
357.9804909566519
 30
0.0
 10
453.1190885532487
 20
357.9804909566519
 30
0.0
 10
453.1190885532487
 20
357.9804909566519
 30
0.0
 10
453.1190885532487
 20
357.9804909566519
 30
0.0
  0
SPLINE
  5
102
330
14
100
AcDbEntity
  8
Layer 1
370
     0
100
AcDbSpline
210
0.0
220
0.0
230
1.0
 70
    11
 71
     3
 72
    20
 73
    16
 74
     0
 42
0.000000001
 43
0.0000000001
 40
0.0
 40
0.0
 40
0.0
 40
0.0
 40
1.0
 40
1.0
 40
1.0
 40
2.0
 40
2.0
 40
2.0
 40
3.0
 40
3.0
 40
3.0
 40
4.0
 40
4.0
 40
4.0
 40
5.0
 40
5.0
 40
5.0
 40
5.0
 10
453.8778885340798
 20
358.0702909543834
 30
0.0
 10
453.8778885340798
 20
358.1552909522361
 30
0.0
 10
453.9472885323266
 20
358.2245909504854
 30
0.0
 10
454.0331885301566
 20
358.2245909504854
 30
0.0
 10
454.1181885280093
 20
358.2245909504854
 30
0.0
 10
454.1874885262587
 20
358.1552909522361
 30
0.0
 10
454.1874885262587
 20
358.0702909543834
 30
0.0
 10
454.1874885262587
 20
357.9843909565534
 30
0.0
 10
454.1181885280093
 20
357.9159999999993
 30
0.0
 10
454.0331885301566
 20
357.9159999999993
 30
0.0
 10
453.9472885323266
 20
357.9159999999993
 30
0.0
 10
453.8778885340798
 20
357.9843909565534
 30
0.0
 10
453.8778885340798
 20
358.0702909543834
 30
0.0
 10
453.8778885340798
 20
358.0702909543834
 30
0.0
 10
453.8778885340798
 20
358.0702909543834
 30
0.0
 10
453.8778885340798
 20
358.0702909543834
 30
0.0
  0
SPLINE
  5
103
330
14
100
AcDbEntity
  8
Layer 1
370
     0
100
AcDbSpline
210
0.0
220
0.0
230
1.0
 70
    11
 71
     3
 72
    20
 73
    16
 74
     0
 42
0.000000001
 43
0.0000000001
 40
0.0
 40
0.0
 40
0.0
 40
0.0
 40
1.0
 40
1.0
 40
1.0
 40
2.0
 40
2.0
 40
2.0
 40
3.0
 40
3.0
 40
3.0
 40
4.0
 40
4.0
 40
4.0
 40
5.0
 40
5.0
 40
5.0
 40
5.0
 10
454.1815885264077
 20
356.0722910048571
 30
0.0
 10
454.1815885264077
 20
356.1581910026871
 30
0.0
 10
454.1132885281331
 20
356.2265910009592
 30
0.0
 10
454.0272885303057
 20
356.2265910009592
 30
0.0
 10
453.9413885324757
 20
356.2265910009592
 30
0.0
 10
453.8729999999996
 20
356.1581910026871
 30
0.0
 10
453.8729999999996
 20
356.0722910048571
 30
0.0
 10
453.8729999999996
 20
355.9862910070296
 30
0.0
 10
453.9413885324757
 20
355.9179999999997
 30
0.0
 10
454.0272885303057
 20
355.9179999999997
 30
0.0
 10
454.1132885281331
 20
355.9179999999997
 30
0.0
 10
454.1815885264077
 20
355.9862910070296
 30
0.0
 10
454.1815885264077
 20
356.0722910048571
 30
0.0
 10
454.1815885264077
 20
356.0722910048571
 30
0.0
 10
454.1815885264077
 20
356.0722910048571
 30
0.0
 10
454.1815885264077
 20
356.0722910048571
 30
0.0
  0
SPLINE
  5
104
330
14
100
AcDbEntity
  8
Layer 1
370
     0
100
AcDbSpline
210
0.0
220
0.0
230
1.0
 70
    11
 71
     3
 72
    32
 73
    28
 74
     0
 42
0.000000001
 43
0.0000000001
 40
0.0
 40
0.0
 40
0.0
 40
0.0
 40
1.0
 40
1.0
 40
1.0
 40
2.0
 40
2.0
 40
2.0
 40
3.0
 40
3.0
 40
3.0
 40
4.0
 40
4.0
 40
4.0
 40
5.0
 40
5.0
 40
5.0
 40
6.0
 40
6.0
 40
6.0
 40
7.0
 40
7.0
 40
7.0
 40
8.0
 40
8.0
 40
8.0
 40
9.0
 40
9.0
 40
9.0
 40
9.0
 10
454.0302885302299
 20
360.1972909006508
 30
0.0
 10
454.8925885084464
 20
360.1972909006508
 30
0.0
 10
455.6747884886863
 20
359.8466909095077
 30
0.0
 10
456.2401884744031
 20
359.2812909237909
 30
0.0
 10
456.8065884600946
 20
358.7157909380767
 30
0.0
 10
457.1552884512857
 20
357.9335909578367
 30
0.0
 10
457.1552884512857
 20
357.0702909796455
 30
0.0
 10
457.1552884512857
 20
356.2070000000003
 30
0.0
 10
456.8065884600946
 20
355.4257910211891
 30
0.0
 10
456.2401884744031
 20
354.8612910354495
 30
0.0
 10
455.6747884886863
 20
354.294891049758
 30
0.0
 10
454.8925885084464
 20
353.9452910585896
 30
0.0
 10
454.0302885302299
 20
353.9452910585896
 30
0.0
 10
453.1659999999993
 20
353.9452910585896
 30
0.0
 10
452.385688571776
 20
354.294891049758
 30
0.0
 10
451.8202885860592
 20
354.8612910354495
 30
0.0
 10
451.2538886003676
 20
355.4257910211891
 30
0.0
 10
450.9042886091993
 20
356.2070000000003
 30
0.0
 10
450.9042886091993
 20
357.0702909796455
 30
0.0
 10
450.9042886091993
 20
357.9335909578367
 30
0.0
 10
451.2538886003676
 20
358.7157909380767
 30
0.0
 10
451.8202885860592
 20
359.2812909237909
 30
0.0
 10
452.385688571776
 20
359.8466909095077
 30
0.0
 10
453.1659999999993
 20
360.1972909006508
 30
0.0
 10
454.0302885302299
 20
360.1972909006508
 30
0.0
 10
454.0302885302299
 20
360.1972909006508
 30
0.0
 10
454.0302885302299
 20
360.1972909006508
 30
0.0
 10
454.0302885302299
 20
360.1972909006508
 30
0.0
  0
SPLINE
  5
105
330
14
100
AcDbEntity
  8
Layer 1
370
     0
100
AcDbSpline
210
0.0
220
0.0
230
1.0
 70
    11
 71
     3
 72
   236
 73
   232
 74
     0
 42
0.000000001
 43
0.0000000001
 40
0.0
 40
0.0
 40
0.0
 40
0.0
 40
1.0
 40
1.0
 40
1.0
 40
2.0
 40
2.0
 40
2.0
 40
3.0
 40
3.0
 40
3.0
 40
4.0
 40
4.0
 40
4.0
 40
5.0
 40
5.0
 40
5.0
 40
6.0
 40
6.0
 40
6.0
 40
7.0
 40
7.0
 40
7.0
 40
8.0
 40
8.0
 40
8.0
 40
9.0
 40
9.0
 40
9.0
 40
10.0
 40
10.0
 40
10.0
 40
11.0
 40
11.0
 40
11.0
 40
12.0
 40
12.0
 40
12.0
 40
13.0
 40
13.0
 40
13.0
 40
14.0
 40
14.0
 40
14.0
 40
15.0
 40
15.0
 40
15.0
 40
16.0
 40
16.0
 40
16.0
 40
17.0
 40
17.0
 40
17.0
 40
18.0
 40
18.0
 40
18.0
 40
19.0
 40
19.0
 40
19.0
 40
20.0
 40
20.0
 40
20.0
 40
21.0
 40
21.0
 40
21.0
 40
22.0
 40
22.0
 40
22.0
 40
23.0
 40
23.0
 40
23.0
 40
24.0
 40
24.0
 40
24.0
 40
25.0
 40
25.0
 40
25.0
 40
26.0
 40
26.0
 40
26.0
 40
27.0
 40
27.0
 40
27.0
 40
28.0
 40
28.0
 40
28.0
 40
29.0
 40
29.0
 40
29.0
 40
30.0
 40
30.0
 40
30.0
 40
31.0
 40
31.0
 40
31.0
 40
32.0
 40
32.0
 40
32.0
 40
33.0
 40
33.0
 40
33.0
 40
34.0
 40
34.0
 40
34.0
 40
35.0
 40
35.0
 40
35.0
 40
36.0
 40
36.0
 40
36.0
 40
37.0
 40
37.0
 40
37.0
 40
38.0
 40
38.0
 40
38.0
 40
39.0
 40
39.0
 40
39.0
 40
40.0
 40
40.0
 40
40.0
 40
41.0
 40
41.0
 40
41.0
 40
42.0
 40
42.0
 40
42.0
 40
43.0
 40
43.0
 40
43.0
 40
44.0
 40
44.0
 40
44.0
 40
45.0
 40
45.0
 40
45.0
 40
46.0
 40
46.0
 40
46.0
 40
47.0
 40
47.0
 40
47.0
 40
48.0
 40
48.0
 40
48.0
 40
49.0
 40
49.0
 40
49.0
 40
50.0
 40
50.0
 40
50.0
 40
51.0
 40
51.0
 40
51.0
 40
52.0
 40
52.0
 40
52.0
 40
53.0
 40
53.0
 40
53.0
 40
54.0
 40
54.0
 40
54.0
 40
55.0
 40
55.0
 40
55.0
 40
56.0
 40
56.0
 40
56.0
 40
57.0
 40
57.0
 40
57.0
 40
58.0
 40
58.0
 40
58.0
 40
59.0
 40
59.0
 40
59.0
 40
60.0
 40
60.0
 40
60.0
 40
61.0
 40
61.0
 40
61.0
 40
62.0
 40
62.0
 40
62.0
 40
63.0
 40
63.0
 40
63.0
 40
64.0
 40
64.0
 40
64.0
 40
65.0
 40
65.0
 40
65.0
 40
66.0
 40
66.0
 40
66.0
 40
67.0
 40
67.0
 40
67.0
 40
68.0
 40
68.0
 40
68.0
 40
69.0
 40
69.0
 40
69.0
 40
70.0
 40
70.0
 40
70.0
 40
71.0
 40
71.0
 40
71.0
 40
72.0
 40
72.0
 40
72.0
 40
73.0
 40
73.0
 40
73.0
 40
74.0
 40
74.0
 40
74.0
 40
75.0
 40
75.0
 40
75.0
 40
76.0
 40
76.0
 40
76.0
 40
77.0
 40
77.0
 40
77.0
 40
77.0
 10
462.5478883150572
 20
359.895490908275
 30
0.0
 10
462.5478883150572
 20
359.895490908275
 30
0.0
 10
461.4530883427142
 20
359.895490908275
 30
0.0
 10
461.4530883427142
 20
359.895490908275
 30
0.0
 10
461.4530883427142
 20
359.895490908275
 30
0.0
 10
461.4530883427142
 20
359.6270000000004
 30
0.0
 10
461.4530883427142
 20
359.6270000000004
 30
0.0
 10
461.4530883427142
 20
359.6270000000004
 30
0.0
 10
458.2401884238789
 20
359.6270000000004
 30
0.0
 10
458.2401884238789
 20
359.6270000000004
 30
0.0
 10
458.2401884238789
 20
359.6270000000004
 30
0.0
 10
458.2401884238789
 20
361.4590000000007
 30
0.0
 10
458.2401884238789
 20
361.4590000000007
 30
0.0
 10
458.2401884238789
 20
361.4590000000007
 30
0.0
 10
447.3407886992209
 20
361.4590000000007
 30
0.0
 10
447.3407886992209
 20
361.4590000000007
 30
0.0
 10
447.3407886992209
 20
361.4590000000007
 30
0.0
 10
444.8340000000007
 20
361.4590000000007
 30
0.0
 10
444.8340000000007
 20
361.4590000000007
 30
0.0
 10
444.8340000000007
 20
361.4590000000007
 30
0.0
 10
426.8358892172182
 20
361.4590000000007
 30
0.0
 10
426.8358892172182
 20
361.4590000000007
 30
0.0
 10
426.8358892172182
 20
361.4590000000007
 30
0.0
 10
426.8358892172182
 20
359.895490908275
 30
0.0
 10
426.8358892172182
 20
359.895490908275
 30
0.0
 10
426.8358892172182
 20
359.895490908275
 30
0.0
 10
425.7421892448474
 20
359.895490908275
 30
0.0
 10
425.7421892448474
 20
359.895490908275
 30
0.0
 10
425.7421892448474
 20
359.895490908275
 30
0.0
 10
425.7421892448474
 20
357.5097909685428
 30
0.0
 10
425.7421892448474
 20
357.5097909685428
 30
0.0
 10
425.7421892448474
 20
357.5097909685428
 30
0.0
 10
426.5341892248398
 20
357.5097909685428
 30
0.0
 10
426.5341892248398
 20
357.5097909685428
 30
0.0
 10
426.5194892252111
 20
357.3026909737746
 30
0.0
 10
426.5145892253349
 20
357.0897909791529
 30
0.0
 10
426.5185892252339
 20
356.8671909847762
 30
0.0
 10
426.5185892252339
 20
356.8671909847762
 30
0.0
 10
426.7929999999997
 20
356.8671909847762
 30
0.0
 10
426.7929999999997
 20
356.8671909847762
 30
0.0
 10
426.7929999999997
 20
356.8671909847762
 30
0.0
 10
427.0644892114433
 20
356.8378909855164
 30
0.0
 10
427.0644892114433
 20
356.8378909855164
 30
0.0
 10
427.1444892094223
 20
357.5897909665218
 30
0.0
 10
427.313489205153
 20
358.2792909491036
 30
0.0
 10
427.5360891995297
 20
358.8866909337594
 30
0.0
 10
427.7665891937067
 20
359.5175909178215
 30
0.0
 10
428.053689186454
 20
360.0565909042052
 30
0.0
 10
428.3563891788071
 20
360.4853908933728
 30
0.0
 10
428.3563891788071
 20
360.4853908933728
 30
0.0
 10
432.8534890652008
 20
360.4853908933728
 30
0.0
 10
432.8534890652008
 20
360.4853908933728
 30
0.0
 10
433.112289058663
 20
359.9862909059811
 30
0.0
 10
433.32418905331
 20
359.4491909195494
 30
0.0
 10
433.4911890490912
 20
358.8729999999996
 30
0.0
 10
433.6737890444783
 20
358.2411909500661
 30
0.0
 10
433.80078904127
 20
357.5624909672115
 30
0.0
 10
433.8760000000002
 20
356.8397909854684
 30
0.0
 10
433.8760000000002
 20
356.8397909854684
 30
0.0
 10
434.3144890282929
 20
356.8827909843822
 30
0.0
 10
434.3144890282929
 20
356.8827909843822
 30
0.0
 10
434.3144890282929
 20
356.8827909843822
 30
0.0
 10
434.7479999999996
 20
356.8378909855164
 30
0.0
 10
434.7479999999996
 20
356.8378909855164
 30
0.0
 10
434.8270890153435
 20
357.5897909665218
 30
0.0
 10
434.997089011049
 20
358.2792909491036
 30
0.0
 10
435.2206890054003
 20
358.8866909337594
 30
0.0
 10
435.4511889995774
 20
359.5175909178215
 30
0.0
 10
435.7382889923247
 20
360.0565909042052
 30
0.0
 10
436.0409999999993
 20
360.4853908933728
 30
0.0
 10
436.0409999999993
 20
360.4853908933728
 30
0.0
 10
440.5370888710968
 20
360.4853908933728
 30
0.0
 10
440.5370888710968
 20
360.4853908933728
 30
0.0
 10
440.7968888645337
 20
359.9862909059811
 30
0.0
 10
441.0097888591554
 20
359.4491909195494
 30
0.0
 10
441.1747888549871
 20
358.8729999999996
 30
0.0
 10
441.358388850349
 20
358.2411909500661
 30
0.0
 10
441.4853888471407
 20
357.5624909672115
 30
0.0
 10
441.5595888452663
 20
356.8397909854684
 30
0.0
 10
441.5595888452663
 20
356.8397909854684
 30
0.0
 10
442.0995888316247
 20
356.8944909840866
 30
0.0
 10
442.0995888316247
 20
356.8944909840866
 30
0.0
 10
442.0858888319708
 20
357.0136909810753
 30
0.0
 10
442.0741888322664
 20
357.1327909780666
 30
0.0
 10
442.0585888326605
 20
357.25
 30
0.0
 10
442.0585888326605
 20
357.3358909729359
 30
0.0
 10
442.0585888326605
 20
357.4237909707153
 30
0.0
 10
442.0585888326605
 20
357.5097909685428
 30
0.0
 10
442.0585888326605
 20
357.5097909685428
 30
0.0
 10
444.8340000000007
 20
357.5097909685428
 30
0.0
 10
444.8340000000007
 20
357.5097909685428
 30
0.0
 10
444.8340000000007
 20
357.5097909685428
 30
0.0
 10
447.3407886992209
 20
357.5097909685428
 30
0.0
 10
447.3407886992209
 20
357.5097909685428
 30
0.0
 10
447.3407886992209
 20
357.5097909685428
 30
0.0
 10
450.1171886290831
 20
357.5097909685428
 30
0.0
 10
450.1171886290831
 20
357.5097909685428
 30
0.0
 10
450.1171886290831
 20
357.4237909707153
 30
0.0
 10
450.1171886290831
 20
357.3358909729359
 30
0.0
 10
450.1171886290831
 20
357.25
 30
0.0
 10
450.1015886294772
 20
357.1327909780666
 30
0.0
 10
450.0878886298233
 20
357.0136909810753
 30
0.0
 10
450.0761886301188
 20
356.8944909840866
 30
0.0
 10
450.0761886301188
 20
356.8944909840866
 30
0.0
 10
450.6151886165026
 20
356.8397909854684
 30
0.0
 10
450.6151886165026
 20
356.8397909854684
 30
0.0
 10
450.6894886146256
 20
357.5624909672115
 30
0.0
 10
450.8163886114198
 20
358.2411909500661
 30
0.0
 10
451.0
 20
358.8729999999996
 30
0.0
 10
451.1659999999993
 20
359.4491909195494
 30
0.0
 10
451.3788885972099
 20
359.9862909059811
 30
0.0
 10
451.6386885906468
 20
360.4853908933728
 30
0.0
 10
451.6386885906468
 20
360.4853908933728
 30
0.0
 10
456.1347884770657
 20
360.4853908933728
 30
0.0
 10
456.1347884770657
 20
360.4853908933728
 30
0.0
 10
456.4374884694189
 20
360.0565909042052
 30
0.0
 10
456.7245884621661
 20
359.5175909178215
 30
0.0
 10
456.9550884563432
 20
358.8866909337594
 30
0.0
 10
457.1776884507199
 20
358.2792909491036
 30
0.0
 10
457.3476884464253
 20
357.5897909665218
 30
0.0
 10
457.4267884444271
 20
356.8378909855164
 30
0.0
 10
457.4267884444271
 20
356.8378909855164
 30
0.0
 10
457.8603884334734
 20
356.8827909843822
 30
0.0
 10
457.8603884334734
 20
356.8827909843822
 30
0.0
 10
457.8603884334734
 20
356.8827909843822
 30
0.0
 10
458.2401884238789
 20
356.8456909853194
 30
0.0
 10
458.2401884238789
 20
356.8456909853194
 30
0.0
 10
458.2401884238789
 20
356.8456909853194
 30
0.0
 10
458.2401884238789
 20
357.5097909685428
 30
0.0
 10
458.2401884238789
 20
357.5097909685428
 30
0.0
 10
458.2401884238789
 20
357.5097909685428
 30
0.0
 10
461.4530883427142
 20
357.5097909685428
 30
0.0
 10
461.4530883427142
 20
357.5097909685428
 30
0.0
 10
461.4530883427142
 20
357.5097909685428
 30
0.0
 10
462.2460883226813
 20
357.5097909685428
 30
0.0
 10
462.2460883226813
 20
357.5097909685428
 30
0.0
 10
462.2313883230527
 20
357.3026909737746
 30
0.0
 10
462.2265883231739
 20
357.0897909791529
 30
0.0
 10
462.2304883230754
 20
356.8671909847762
 30
0.0
 10
462.2304883230754
 20
356.8671909847762
 30
0.0
 10
462.5058883161182
 20
356.8671909847762
 30
0.0
 10
462.5058883161182
 20
356.8671909847762
 30
0.0
 10
462.5058883161182
 20
356.8671909847762
 30
0.0
 10
462.7753883093101
 20
356.8378909855164
 30
0.0
 10
462.7753883093101
 20
356.8378909855164
 30
0.0
 10
462.8554883072866
 20
357.5897909665218
 30
0.0
 10
463.0253883029945
 20
358.2792909491036
 30
0.0
 10
463.2470882973939
 20
358.8866909337594
 30
0.0
 10
463.4784882915483
 20
359.5175909178215
 30
0.0
 10
463.7655882842955
 20
360.0565909042052
 30
0.0
 10
464.0683882766461
 20
360.4853908933728
 30
0.0
 10
464.0683882766461
 20
360.4853908933728
 30
0.0
 10
468.5644881630651
 20
360.4853908933728
 30
0.0
 10
468.5644881630651
 20
360.4853908933728
 30
0.0
 10
468.8241881565045
 20
359.9862909059811
 30
0.0
 10
469.0370881511262
 20
359.4491909195494
 30
0.0
 10
469.2030881469327
 20
358.8729999999996
 30
0.0
 10
469.3847881423426
 20
358.2411909500661
 30
0.0
 10
469.5136881390863
 20
357.5624909672115
 30
0.0
 10
469.5878881372118
 20
356.8397909854684
 30
0.0
 10
469.5878881372118
 20
356.8397909854684
 30
0.0
 10
470.0263881261344
 20
356.8827909843822
 30
0.0
 10
470.0263881261344
 20
356.8827909843822
 30
0.0
 10
470.0263881261344
 20
356.8827909843822
 30
0.0
 10
470.4599999999991
 20
356.8378909855164
 30
0.0
 10
470.4599999999991
 20
356.8378909855164
 30
0.0
 10
470.5390881131825
 20
357.5897909665218
 30
0.0
 10
470.7090000000007
 20
358.2792909491036
 30
0.0
 10
470.9315881032671
 20
358.8866909337594
 30
0.0
 10
471.1620880974442
 20
359.5175909178215
 30
0.0
 10
471.4491880901915
 20
360.0565909042052
 30
0.0
 10
471.7520000000004
 20
360.4853908933728
 30
0.0
 10
471.7520000000004
 20
360.4853908933728
 30
0.0
 10
476.2489999999998
 20
360.4853908933728
 30
0.0
 10
476.2489999999998
 20
360.4853908933728
 30
0.0
 10
476.5077879624005
 20
359.9862909059811
 30
0.0
 10
476.7206879570222
 20
359.4491909195494
 30
0.0
 10
476.8866879528287
 20
358.8729999999996
 30
0.0
 10
477.0702879481905
 20
358.2411909500661
 30
0.0
 10
477.1972879449822
 20
357.5624909672115
 30
0.0
 10
477.2714879431078
 20
356.8397909854684
 30
0.0
 10
477.2714879431078
 20
356.8397909854684
 30
0.0
 10
477.8104879294915
 20
356.8944909840866
 30
0.0
 10
477.8104879294915
 20
356.8944909840866
 30
0.0
 10
477.7987879297871
 20
357.0136909810753
 30
0.0
 10
477.7851879301306
 20
357.1327909780666
 30
0.0
 10
477.7694879305272
 20
357.25
 30
0.0
 10
477.7694879305272
 20
357.3358909729359
 30
0.0
 10
477.7694879305272
 20
357.4237909707153
 30
0.0
 10
477.7694879305272
 20
357.5097909685428
 30
0.0
 10
477.7694879305272
 20
357.5097909685428
 30
0.0
 10
486.8017877023522
 20
357.5097909685428
 30
0.0
 10
486.8017877023522
 20
357.5097909685428
 30
0.0
 10
486.789087702673
 20
357.3026909737746
 30
0.0
 10
486.783187702822
 20
357.0878909792009
 30
0.0
 10
486.7870877027235
 20
356.8671909847762
 30
0.0
 10
486.9804876978378
 20
356.8671909847762
 30
0.0
 10
487.1737876929546
 20
356.8671909847762
 30
0.0
 10
487.367187688069
 20
356.8671909847762
 30
0.0
 10
487.3026876896984
 20
358.7987909359799
 30
0.0
 10
487.9882876723786
 20
360.2030909005043
 30
0.0
 10
489.8358876257043
 20
360.7909999999993
 30
0.0
 10
489.8358876257043
 20
360.9696908811384
 30
0.0
 10
489.8358876257043
 20
361.148390876624
 30
0.0
 10
489.8358876257043
 20
361.3261908721324
 30
0.0
 10
489.4647876350791
 20
361.2313908745273
 30
0.0
 10
489.1288876435647
 20
361.1073908776598
 30
0.0
 10
488.8261876512115
 20
360.9511908816057
 30
0.0
 10
488.8261876512115
 20
360.9511908816057
 30
0.0
 10
488.8261876512115
 20
361.4335908694193
 30
0.0
 10
488.8261876512115
 20
361.4335908694193
 30
0.0
 10
488.0956876696655
 20
361.4335908694193
 30
0.0
 10
487.4345876863663
 20
361.4590000000007
 30
0.0
 10
486.7187877044489
 20
361.4590000000007
 30
0.0
 10
486.7187877044489
 20
361.4590000000007
 30
0.0
 10
486.7187877044489
 20
359.895490908275
 30
0.0
 10
486.7187877044489
 20
359.895490908275
 30
0.0
 10
486.7187877044489
 20
359.895490908275
 30
0.0
 10
484.3397877645475
 20
359.895490908275
 30
0.0
 10
484.3397877645475
 20
359.895490908275
 30
0.0
 10
484.3397877645475
 20
359.895490908275
 30
0.0
 10
483.771487778904
 20
361.4590000000007
 30
0.0
 10
483.771487778904
 20
361.4590000000007
 30
0.0
 10
476.8388879540362
 20
361.4590000000007
 30
0.0
 10
472.3163880682841
 20
361.4590000000007
 30
0.0
 10
462.5478883150572
 20
361.4590000000007
 30
0.0
 10
462.5478883150572
 20
361.4590000000007
 30
0.0
 10
462.5478883150572
 20
359.895490908275
 30
0.0
 10
462.5478883150572
 20
359.895490908275
 30
0.0
 10
462.5478883150572
 20
359.895490908275
 30
0.0
 10
462.5478883150572
 20
359.895490908275
 30
0.0
 10
462.5478883150572
 20
359.895490908275
 30
0.0
  0
POLYLINE
  5
106
330
14
100
AcDbEntity
  8
Layer 1
370
     0
100
AcDb2dPolyline
 66
     1
 10
0.0
 20
0.0
 30
0.0
  0
VERTEX
  5
107
330
106
100
AcDbEntity
  8
Layer 1
370
     0
100
AcDbVertex
100
AcDb2dVertex
 10
425.8495892421342
 20
362.2577908485982
 30
0.0
  0
VERTEX
  5
108
330
106
100
AcDbEntity
  8
Layer 1
370
     0
100
AcDbVertex
100
AcDb2dVertex
 10
458.2841884227673
 20
362.2577908485982
 30
0.0
  0
VERTEX
  5
109
330
106
100
AcDbEntity
  8
Layer 1
370
     0
100
AcDbVertex
100
AcDb2dVertex
 10
458.2841884227673
 20
373.9042905543829
 30
0.0
  0
VERTEX
  5
10A
330
106
100
AcDbEntity
  8
Layer 1
370
     0
100
AcDbVertex
100
AcDb2dVertex
 10
425.8495892421342
 20
373.9042905543829
 30
0.0
  0
VERTEX
  5
10B
330
106
100
AcDbEntity
  8
Layer 1
370
     0
100
AcDbVertex
100
AcDb2dVertex
 10
425.8495892421342
 20
362.2577908485982
 30
0.0
  0
VERTEX
  5
10C
330
106
100
AcDbEntity
  8
Layer 1
370
     0
100
AcDbVertex
100
AcDb2dVertex
 10
425.8495892421342
 20
362.2577908485982
 30
0.0
  0
SEQEND
  5
10D
330
106
100
AcDbEntity
  8
Layer 1
370
     0
  0
ENDSEC
  0
SECTION
  2
OBJECTS
  0
DICTIONARY
  5
5
330
0
100
AcDbDictionary
281
     1
  3
ACAD_GROUP
350
21
  3
ACAD_LAYOUT
350
18
  3
ACAD_MATERIAL
350
7
  3
ACAD_MLEADERSTYLE
350
111
  3
ACAD_MLINESTYLE
350
12
  3
ACAD_PLOTSETTINGS
350
22
  3
ACAD_PLOTSTYLENAME
350
4
  3
ACAD_SCALELIST
350
29
  3
ACAD_TABLESTYLE
350
110
  3
ACAD_VISUALSTYLE
350
23
  3
AcDbVariableDictionary
350
10E
  0
DICTIONARY
  5
131
330
1F
100
AcDbDictionary
280
     1
281
     1
  3
ACAD_XREC_ROUNDTRIP
360
132
  0
DICTIONARY
  5
21
102
{ACAD_REACTORS
330
5
102
}
330
5
100
AcDbDictionary
281
     1
  0
DICTIONARY
  5
18
102
{ACAD_REACTORS
330
5
102
}
330
5
100
AcDbDictionary
281
     1
  3
Layout1
350
1C
  3
Model
350
17
  0
DICTIONARY
  5
7
102
{ACAD_REACTORS
330
5
102
}
330
5
100
AcDbDictionary
281
     1
  3
ByBlock
350
4C
  3
ByLayer
350
E
  3
Global
350
6
  0
DICTIONARY
  5
111
102
{ACAD_REACTORS
330
5
102
}
330
5
100
AcDbDictionary
281
     1
  3
Standard
350
114
  0
DICTIONARY
  5
12
102
{ACAD_REACTORS
330
5
102
}
330
5
100
AcDbDictionary
281
     1
  3
Standard
350
11
  0
DICTIONARY
  5
22
102
{ACAD_REACTORS
330
5
102
}
330
5
100
AcDbDictionary
281
     1
  0
ACDBDICTIONARYWDFLT
  5
4
102
{ACAD_REACTORS
330
5
102
}
330
5
100
AcDbDictionary
281
     1
  3
Normal
350
3
100
AcDbDictionaryWithDefault
340
3
  0
DICTIONARY
  5
29
102
{ACAD_REACTORS
330
5
102
}
330
5
100
AcDbDictionary
281
     1
  3
*A1
350
4B
  0
DICTIONARY
  5
110
102
{ACAD_REACTORS
330
5
102
}
330
5
100
AcDbDictionary
281
     1
  3
Standard
350
12C
  0
DICTIONARY
  5
23
102
{ACAD_REACTORS
330
5
102
}
330
5
100
AcDbDictionary
281
     1
  3
2dWireframe
350
26
  3
Basic
350
11B
  3
Brighten
350
11F
  3
ColorChange
350
123
  3
Conceptual
350
11D
  3
Dim
350
11E
  3
EdgeColorOff
350
126
  3
Facepattern
350
122
  3
Flat
350
115
  3
FlatWithEdges
350
116
  3
Gouraud
350
117
  3
GouraudWithEdges
350
118
  3
Hidden
350
11A
  3
JitterOff
350
124
  3
Linepattern
350
121
  3
OverhangOff
350
125
  3
Realistic
350
11C
  3
Shaded
350
12B
  3
Shaded with edges
350
12A
  3
Shades of Gray
350
127
  3
Sketchy
350
128
  3
Thicken
350
120
  3
Wireframe
350
119
  3
X-Ray
350
129
  0
DICTIONARY
  5
10E
102
{ACAD_REACTORS
330
5
102
}
330
5
100
AcDbDictionary
281
     1
  3
CANNOSCALE
350
10F
  3
CMLEADERSTYLE
350
12E
  3
CTABLESTYLE
350
12D
  3
DIMASSOC
350
12F
  3
HIDETEXT
350
130
  3
MSLTSCALE
350
133
  0
XRECORD
  5
132
102
{ACAD_REACTORS
330
131
102
}
330
131
100
AcDbXrecord
280
     1
102
VTR_0.000_0.000_1.000_1.000_VISUALSTYLE
340
26
102
VTR_0.000_0.000_1.000_1.000_GRIDDISPLAY
 70
     3
102
VTR_0.000_0.000_1.000_1.000_GRIDMAJOR
 70
     5
102
VTR_0.000_0.000_1.000_1.000_DEFAULTLIGHTING
280
     1
102
VTR_0.000_0.000_1.000_1.000_DEFAULTLIGHTINGTYPE
 70
     1
102
VTR_0.000_0.000_1.000_1.000_BRIGHTNESS
141
0.0
102
VTR_0.000_0.000_1.000_1.000_CONTRAST
142
0.0
  0
LAYOUT
  5
1C
102
{ACAD_REACTORS
330
18
102
}
330
18
100
AcDbPlotSettings
  1

  2
none_device
  4
Letter_(8.50_x_11.00_Inches)
  6

 40
6.35
 41
6.35
 42
6.35001
 43
6.35001
 44
215.9
 45
279.4
 46
0.0
 47
0.0
 48
0.0
 49
0.0
140
0.0
141
0.0
142
1.0
143
1.0
 70
   688
 72
     0
 73
     1
 74
     5
  7

 75
    16
147
1.0
148
0.0
149
0.0
100
AcDbLayout
  1
Layout1
 70
     1
 71
     1
 10
0.0
 20
0.0
 11
12.0
 21
9.0
 12
0.0
 22
0.0
 32
0.0
 14
1.000000000000000E+20
 24
1.000000000000000E+20
 34
1.000000000000000E+20
 15
-1.000000000000000E+20
 25
-1.000000000000000E+20
 35
-1.000000000000000E+20
146
0.0
 13
0.0
 23
0.0
 33
0.0
 16
1.0
 26
0.0
 36
0.0
 17
0.0
 27
1.0
 37
0.0
 76
     0
330
19
  0
LAYOUT
  5
17
102
{ACAD_REACTORS
330
18
102
}
330
18
100
AcDbPlotSettings
  1

  2
none_device
  4

  6

 40
0.0
 41
0.0
 42
0.0
 43
0.0
 44
0.0
 45
0.0
 46
0.0
 47
0.0
 48
0.0
 49
0.0
140
0.0
141
0.0
142
1.0
143
1.0
 70
  1712
 72
     0
 73
     0
 74
     0
  7

 75
     0
147
1.0
148
0.0
149
0.0
100
AcDbLayout
  1
Model
 70
     1
 71
     0
 10
0.0
 20
0.0
 11
12.0
 21
9.0
 12
0.0
 22
0.0
 32
0.0
 14
425.7421892448474
 24
353.949355511612
 34
0.0
 15
498.1522874156145
 25
373.9042905543829
 35
0.0
146
0.0
 13
0.0
 23
0.0
 33
0.0
 16
1.0
 26
0.0
 36
0.0
 17
0.0
 27
1.0
 37
0.0
 76
     0
330
14
331
25
  0
MATERIAL
  5
4C
102
{ACAD_REACTORS
330
7
102
}
102
{ACAD_XDICTIONARY
360
138
102
}
330
7
100
AcDbMaterial
  1
ByBlock
  0
MATERIAL
  5
E
102
{ACAD_REACTORS
330
7
102
}
102
{ACAD_XDICTIONARY
360
134
102
}
330
7
100
AcDbMaterial
  1
ByLayer
  0
MATERIAL
  5
6
102
{ACAD_REACTORS
330
7
102
}
102
{ACAD_XDICTIONARY
360
136
102
}
330
7
100
AcDbMaterial
  1
Global
  0
MLEADERSTYLE
  5
114
102
{ACAD_REACTORS
330
111
102
}
102
{ACAD_XDICTIONARY
360
16B
102
}
330
111
100
AcDbMLeaderStyle
170
     2
171
     1
172
     0
 90
        2
 40
0.0
 41
0.0
173
     1
 91
-1056964608
340
A
 92
       -2
290
     1
 42
0.09
291
     1
 43
0.36
  3
Standard
341
0
 44
0.18
300

342
C
174
     1
178
     6
175
     1
176
     0
 93
-1056964608
 45
0.18
292
     0
297
     0
 46
0.18
343
0
 94
-1056964608
 47
1.0
 49
1.0
140
1.0
293
     1
141
0.0
294
     1
177
     0
142
1.0
295
     0
296
     0
143
0.125
1001
ACAD_MLEADERVER
1070
     2
  0
MLINESTYLE
  5
11
102
{ACAD_REACTORS
330
12
102
}
330
12
100
AcDbMlineStyle
  2
Standard
 70
     0
  3

 62
   256
 51
90.0
 52
90.0
 71
     2
 49
0.5
 62
   256
  6
BYLAYER
 49
-0.5
 62
   256
  6
BYLAYER
  0
ACDBPLACEHOLDER
  5
3
102
{ACAD_REACTORS
330
4
102
}
330
4
  0
SCALE
  5
4B
102
{ACAD_REACTORS
330
29
102
}
330
29
100
AcDbScale
 70
     0
300
1:1
140
1.0
141
1.0
290
     1
  0
TABLESTYLE
  5
12C
102
{ACAD_REACTORS
330
110
102
}
330
110
100
AcDbTableStyle
  3
Standard
 70
     0
 71
     0
 40
0.06
 41
0.06
280
     0
281
     0
  7
Standard
140
0.18
170
     2
 62
     0
 63
   257
283
     0
274
    -2
284
     1
 64
     0
275
    -2
285
     1
 65
     0
276
    -2
286
     1
 66
     0
277
    -2
287
     1
 67
     0
278
    -2
288
     1
 68
     0
279
    -2
289
     1
 69
     0
  7
Standard
140
0.25
170
     5
 62
     0
 63
   257
283
     0
274
    -2
284
     1
 64
     0
275
    -2
285
     1
 65
     0
276
    -2
286
     1
 66
     0
277
    -2
287
     1
 67
     0
278
    -2
288
     1
 68
     0
279
    -2
289
     1
 69
     0
  7
Standard
140
0.18
170
     5
 62
     0
 63
   257
283
     0
274
    -2
284
     1
 64
     0
275
    -2
285
     1
 65
     0
276
    -2
286
     1
 66
     0
277
    -2
287
     1
 67
     0
278
    -2
288
     1
 68
     0
279
    -2
289
     1
 69
     0
  0
VISUALSTYLE
  5
26
102
{ACAD_REACTORS
330
23
102
}
102
{ACAD_XDICTIONARY
360
13A
102
}
330
23
100
AcDbVisualStyle
  2
2dWireframe
 70
     4
 71
     0
 72
     2
 73
     0
 90
        0
 40
-0.6
 41
-30.0
 62
     5
 63
     7
 74
     1
 91
        4
 64
     7
 65
   257
 75
     1
175
     1
 42
1.0
 92
        0
 66
   257
 43
1.0
 76
     1
 77
     6
 78
     2
 67
     7
 79
     5
170
     0
171
     0
290
     0
174
     0
 93
        1
 44
0.0
173
     0
291
     0
 45
0.0
1001
ACAD
1000
AcDbSavedByObjectVersion
1070
     0
  0
VISUALSTYLE
  5
11B
102
{ACAD_REACTORS
330
23
102
}
102
{ACAD_XDICTIONARY
360
148
102
}
330
23
100
AcDbVisualStyle
  2
Basic
 70
     7
 71
     1
 72
     0
 73
     1
 90
        0
 40
0.6
 41
30.0
 62
     5
 63
     7
 74
     0
 91
        4
 64
     7
 65
   257
 75
     1
175
     1
 42
1.0
 92
        8
 66
     7
 43
1.0
 76
     1
 77
     6
 78
     2
 67
     7
 79
     5
170
     0
171
     0
290
     0
174
     0
 93
        1
 44
0.0
173
     0
291
     1
 45
0.0
1001
ACAD
1000
AcDbSavedByObjectVersion
1070
     0
  0
VISUALSTYLE
  5
11F
102
{ACAD_REACTORS
330
23
102
}
102
{ACAD_XDICTIONARY
360
150
102
}
330
23
100
AcDbVisualStyle
  2
Brighten
 70
    12
 71
     2
 72
     2
 73
     0
 90
        0
 40
0.6
 41
30.0
 62
     5
 63
     7
 74
     1
 91
        4
 64
     7
 65
   257
 75
     1
175
     1
 42
1.0
 92
        8
 66
     7
 43
1.0
 76
     1
 77
     6
 78
     2
 67
     7
 79
     5
170
     0
171
     0
290
     0
174
     0
 93
        1
 44
50.0
173
     0
291
     1
 45
0.0
1001
ACAD
1000
AcDbSavedByObjectVersion
1070
     0
  0
VISUALSTYLE
  5
123
102
{ACAD_REACTORS
330
23
102
}
102
{ACAD_XDICTIONARY
360
158
102
}
330
23
100
AcDbVisualStyle
  2
ColorChange
 70
    16
 71
     2
 72
     2
 73
     3
 90
        0
 40
0.6
 41
30.0
 62
     5
 63
     8
 74
     1
 91
        4
 64
     7
 65
   257
 75
     1
175
     1
 42
1.0
 92
        8
 66
     8
 43
1.0
 76
     1
 77
     6
 78
     2
 67
     7
 79
     5
170
     0
171
     0
290
     0
174
     0
 93
        1
 44
0.0
173
     0
291
     1
 45
0.0
1001
ACAD
1000
AcDbSavedByObjectVersion
1070
     0
  0
VISUALSTYLE
  5
11D
102
{ACAD_REACTORS
330
23
102
}
102
{ACAD_XDICTIONARY
360
14C
102
}
330
23
100
AcDbVisualStyle
  2
Conceptual
 70
     9
 71
     3
 72
     2
 73
     0
 90
        0
 40
0.6
 41
30.0
 62
     5
 63
     7
 74
     2
 91
        2
 64
     7
 65
   257
 75
     1
175
     1
 42
179.0
 92
        8
 66
     7
 43
1.0
 76
     1
 77
     6
 78
     2
 67
     7
 79
     3
170
     0
171
     0
290
     0
174
     0
 93
        1
 44
0.0
173
     0
291
     0
 45
0.0
1001
ACAD
1000
AcDbSavedByObjectVersion
1070
     0
  0
VISUALSTYLE
  5
11E
102
{ACAD_REACTORS
330
23
102
}
102
{ACAD_XDICTIONARY
360
14E
102
}
330
23
100
AcDbVisualStyle
  2
Dim
 70
    11
 71
     2
 72
     2
 73
     0
 90
        0
 40
0.6
 41
30.0
 62
     5
 63
     7
 74
     1
 91
        4
 64
     7
 65
   257
 75
     1
175
     1
 42
1.0
 92
        8
 66
     7
 43
1.0
 76
     1
 77
     6
 78
     2
 67
     7
 79
     5
170
     0
171
     0
290
     0
174
     0
 93
        1
 44
-50.0
173
     0
291
     1
 45
0.0
1001
ACAD
1000
AcDbSavedByObjectVersion
1070
     0
  0
VISUALSTYLE
  5
126
102
{ACAD_REACTORS
330
23
102
}
102
{ACAD_XDICTIONARY
360
15E
102
}
330
23
100
AcDbVisualStyle
  2
EdgeColorOff
 70
    22
 71
     2
 72
     2
 73
     0
 90
        0
 40
0.6
 41
30.0
 62
     5
 63
     7
 74
     1
 91
        4
 64
     7
 65
   257
 75
     1
175
     1
 42
1.0
 92
        8
 66
     7
 43
1.0
 76
     1
 77
     6
 78
     2
 67
     7
 79
     5
170
     0
171
     0
290
     0
174
     0
 93
        1
 44
0.0
173
     0
291
     1
 45
0.0
1001
ACAD
1000
AcDbSavedByObjectVersion
1070
     0
  0
VISUALSTYLE
  5
122
102
{ACAD_REACTORS
330
23
102
}
102
{ACAD_XDICTIONARY
360
156
102
}
330
23
100
AcDbVisualStyle
  2
Facepattern
 70
    15
 71
     2
 72
     2
 73
     0
 90
        0
 40
0.6
 41
30.0
 62
     5
 63
     7
 74
     1
 91
        4
 64
     7
 65
   257
 75
     1
175
     1
 42
1.0
 92
        8
 66
     7
 43
1.0
 76
     1
 77
     6
 78
     2
 67
     7
 79
     5
170
     0
171
     0
290
     0
174
     0
 93
        1
 44
0.0
173
     0
291
     1
 45
0.0
1001
ACAD
1000
AcDbSavedByObjectVersion
1070
     0
  0
VISUALSTYLE
  5
115
102
{ACAD_REACTORS
330
23
102
}
102
{ACAD_XDICTIONARY
360
13C
102
}
330
23
100
AcDbVisualStyle
  2
Flat
 70
     0
 71
     2
 72
     1
 73
     1
 90
        2
 40
0.6
 41
30.0
 62
     5
 63
     7
 74
     0
 91
        0
 64
     7
 65
   257
 75
     1
175
     1
 42
1.0
 92
        8
 66
     7
 43
1.0
 76
     1
 77
     6
 78
     2
 67
     7
 79
     5
170
     0
171
     0
290
     0
174
     0
 93
       13
 44
0.0
173
     0
291
     1
 45
0.0
1001
ACAD
1000
AcDbSavedByObjectVersion
1070
     0
  0
VISUALSTYLE
  5
116
102
{ACAD_REACTORS
330
23
102
}
102
{ACAD_XDICTIONARY
360
13E
102
}
330
23
100
AcDbVisualStyle
  2
FlatWithEdges
 70
     1
 71
     2
 72
     1
 73
     1
 90
        2
 40
0.6
 41
30.0
 62
     5
 63
     7
 74
     1
 91
        0
 64
     7
 65
   257
 75
     1
175
     1
 42
1.0
 92
        0
 66
   257
 43
1.0
 76
     1
 77
     6
 78
     2
 67
     7
 79
     5
170
     0
171
     0
290
     0
174
     0
 93
       13
 44
0.0
173
     0
291
     1
 45
0.0
1001
ACAD
1000
AcDbSavedByObjectVersion
1070
     0
  0
VISUALSTYLE
  5
117
102
{ACAD_REACTORS
330
23
102
}
102
{ACAD_XDICTIONARY
360
140
102
}
330
23
100
AcDbVisualStyle
  2
Gouraud
 70
     2
 71
     2
 72
     2
 73
     1
 90
        2
 40
0.6
 41
30.0
 62
     5
 63
     7
 74
     0
 91
        0
 64
     7
 65
   257
 75
     1
175
     1
 42
1.0
 92
        0
 66
     7
 43
1.0
 76
     1
 77
     6
 78
     2
 67
     7
 79
     5
170
     0
171
     0
290
     0
174
     0
 93
       13
 44
0.0
173
     0
291
     1
 45
0.0
1001
ACAD
1000
AcDbSavedByObjectVersion
1070
     0
  0
VISUALSTYLE
  5
118
102
{ACAD_REACTORS
330
23
102
}
102
{ACAD_XDICTIONARY
360
142
102
}
330
23
100
AcDbVisualStyle
  2
GouraudWithEdges
 70
     3
 71
     2
 72
     2
 73
     1
 90
        2
 40
0.6
 41
30.0
 62
     5
 63
     7
 74
     1
 91
        0
 64
     7
 65
   257
 75
     1
175
     1
 42
1.0
 92
        0
 66
   257
 43
1.0
 76
     1
 77
     6
 78
     2
 67
     7
 79
     5
170
     0
171
     0
290
     0
174
     0
 93
       13
 44
0.0
173
     0
291
     1
 45
0.0
1001
ACAD
1000
AcDbSavedByObjectVersion
1070
     0
  0
VISUALSTYLE
  5
11A
102
{ACAD_REACTORS
330
23
102
}
102
{ACAD_XDICTIONARY
360
146
102
}
330
23
100
AcDbVisualStyle
  2
Hidden
 70
     6
 71
     1
 72
     2
 73
     2
 90
        0
 40
0.6
 41
30.0
 62
     5
 63
     7
 74
     2
 91
        2
 64
     7
 65
   257
 75
     2
175
     1
 42
40.0
 92
        0
 66
   257
 43
1.0
 76
     1
 77
     6
 78
     2
 67
     7
 79
     3
170
     0
171
     0
290
     0
174
     0
 93
        1
 44
0.0
173
     0
291
     0
 45
0.0
1001
ACAD
1000
AcDbSavedByObjectVersion
1070
     0
  0
VISUALSTYLE
  5
124
102
{ACAD_REACTORS
330
23
102
}
102
{ACAD_XDICTIONARY
360
15A
102
}
330
23
100
AcDbVisualStyle
  2
JitterOff
 70
    20
 71
     2
 72
     2
 73
     0
 90
        0
 40
0.6
 41
30.0
 62
     5
 63
     7
 74
     1
 91
        4
 64
     7
 65
   257
 75
     1
175
     1
 42
1.0
 92
       10
 66
     7
 43
1.0
 76
     1
 77
     6
 78
     2
 67
     7
 79
     5
170
     0
171
     0
290
     0
174
     0
 93
        1
 44
0.0
173
     0
291
     1
 45
0.0
1001
ACAD
1000
AcDbSavedByObjectVersion
1070
     0
  0
VISUALSTYLE
  5
121
102
{ACAD_REACTORS
330
23
102
}
102
{ACAD_XDICTIONARY
360
154
102
}
330
23
100
AcDbVisualStyle
  2
Linepattern
 70
    14
 71
     2
 72
     2
 73
     0
 90
        0
 40
0.6
 41
30.0
 62
     5
 63
     7
 74
     1
 91
        4
 64
     7
 65
   257
 75
     7
175
     7
 42
1.0
 92
        8
 66
     7
 43
1.0
 76
     1
 77
     6
 78
     2
 67
     7
 79
     5
170
     0
171
     0
290
     0
174
     0
 93
        1
 44
0.0
173
     0
291
     1
 45
0.0
1001
ACAD
1000
AcDbSavedByObjectVersion
1070
     0
  0
VISUALSTYLE
  5
125
102
{ACAD_REACTORS
330
23
102
}
102
{ACAD_XDICTIONARY
360
15C
102
}
330
23
100
AcDbVisualStyle
  2
OverhangOff
 70
    21
 71
     2
 72
     2
 73
     0
 90
        0
 40
0.6
 41
30.0
 62
     5
 63
     7
 74
     1
 91
        4
 64
     7
 65
   257
 75
     1
175
     1
 42
1.0
 92
        9
 66
     7
 43
1.0
 76
     1
 77
     6
 78
     2
 67
     7
 79
     5
170
     0
171
     0
290
     0
174
     0
 93
        1
 44
0.0
173
     0
291
     1
 45
0.0
1001
ACAD
1000
AcDbSavedByObjectVersion
1070
     0
  0
VISUALSTYLE
  5
11C
102
{ACAD_REACTORS
330
23
102
}
102
{ACAD_XDICTIONARY
360
14A
102
}
330
23
100
AcDbVisualStyle
  2
Realistic
 70
     8
 71
     2
 72
     3
 73
     0
 90
        2
 40
0.6
 41
30.0
 62
     5
 63
     7
 74
     0
 91
        0
 64
     7
 65
   257
 75
     1
175
     1
 42
1.0
 92
        8
 66
   257
 43
1.0
 76
     1
 77
     6
 78
     2
 67
     7
 79
     3
170
     0
171
     0
290
     0
174
     0
 93
       13
 44
0.0
173
     0
291
     0
 45
0.0
1001
ACAD
1000
AcDbSavedByObjectVersion
1070
     0
  0
VISUALSTYLE
  5
12B
102
{ACAD_REACTORS
330
23
102
}
102
{ACAD_XDICTIONARY
360
168
102
}
330
23
100
AcDbVisualStyle
  2
Shaded
 70
    27
 71
     2
 72
     2
 73
     1
 90
        2
 40
0.6
 41
30.0
 62
     5
 63
     7
 74
     0
 91
        4
 64
     7
 65
   257
 75
     1
175
     1
 42
1.0
 92
        8
 66
   257
 43
1.0
 76
     1
 77
     6
 78
     2
 67
     8
 79
     3
170
     0
171
     0
290
     0
174
     0
 93
        5
 44
0.0
173
     0
291
     0
 45
0.0
1001
ACAD
1000
AcDbSavedByObjectVersion
1070
     0
  0
VISUALSTYLE
  5
12A
102
{ACAD_REACTORS
330
23
102
}
102
{ACAD_XDICTIONARY
360
166
102
}
330
23
100
AcDbVisualStyle
  2
Shaded with edges
 70
    26
 71
     2
 72
     2
 73
     1
 90
        2
 40
0.6
 41
30.0
 62
     5
 63
     7
 74
     1
 91
       10
 64
     7
 65
   257
 75
     2
175
     1
 42
1.0
 92
        8
 66
   257
 43
1.0
 76
     1
 77
     6
 78
     2
 67
     7
 79
     3
170
     0
171
     0
290
     0
174
     0
 93
        5
 44
0.0
173
     0
291
     0
 45
0.0
1001
ACAD
1000
AcDbSavedByObjectVersion
1070
     0
  0
VISUALSTYLE
  5
127
102
{ACAD_REACTORS
330
23
102
}
102
{ACAD_XDICTIONARY
360
160
102
}
330
23
100
AcDbVisualStyle
  2
Shades of Gray
 70
    23
 71
     2
 72
     2
 73
     3
 90
        0
 40
0.6
 41
30.0
 62
     5
 63
     7
 74
     2
 91
        2
 64
     7
 65
     7
 75
     1
175
     1
 42
40.0
 92
        8
 66
     7
 43
1.0
 76
     1
 77
     6
 78
     2
 67
     7
 79
     3
170
     0
171
     0
290
     0
174
     0
 93
        1
 44
0.0
173
     0
291
     0
 45
0.0
1001
ACAD
1000
AcDbSavedByObjectVersion
1070
     0
  0
VISUALSTYLE
  5
128
102
{ACAD_REACTORS
330
23
102
}
102
{ACAD_XDICTIONARY
360
162
102
}
330
23
100
AcDbVisualStyle
  2
Sketchy
 70
    24
 71
     1
 72
     2
 73
     2
 90
        0
 40
0.6
 41
30.0
 62
     5
 63
     7
 74
     2
 91
        2
 64
     7
 65
     7
 75
     1
175
     1
 42
40.0
 92
       11
 66
     7
 43
1.0
 76
     1
 77
     6
 78
     2
 67
     7
 79
     6
170
     0
171
     0
290
     0
174
     0
 93
        1
 44
0.0
173
     0
291
     0
 45
0.0
1001
ACAD
1000
AcDbSavedByObjectVersion
1070
     0
  0
VISUALSTYLE
  5
120
102
{ACAD_REACTORS
330
23
102
}
102
{ACAD_XDICTIONARY
360
152
102
}
330
23
100
AcDbVisualStyle
  2
Thicken
 70
    13
 71
     2
 72
     2
 73
     0
 90
        0
 40
0.6
 41
30.0
 62
     5
 63
     7
 74
     1
 91
        4
 64
     7
 65
   257
 75
     1
175
     1
 42
1.0
 92
       12
 66
     7
 43
1.0
 76
     1
 77
     6
 78
     2
 67
     7
 79
     5
170
     0
171
     0
290
     0
174
     0
 93
        1
 44
0.0
173
     0
291
     1
 45
0.0
1001
ACAD
1000
AcDbSavedByObjectVersion
1070
     0
  0
VISUALSTYLE
  5
119
102
{ACAD_REACTORS
330
23
102
}
102
{ACAD_XDICTIONARY
360
144
102
}
330
23
100
AcDbVisualStyle
  2
Wireframe
 70
     5
 71
     0
 72
     2
 73
     0
 90
        0
 40
0.6
 41
30.0
 62
     5
 63
     7
 74
     1
 91
        4
 64
     7
 65
   257
 75
     1
175
     1
 42
1.0
 92
        0
 66
   257
 43
1.0
 76
     1
 77
     6
 78
     2
 67
     7
 79
     3
170
     0
171
     0
290
     0
174
     0
 93
        1
 44
0.0
173
     0
291
     0
 45
0.0
1001
ACAD
1000
AcDbSavedByObjectVersion
1070
     0
  0
VISUALSTYLE
  5
129
102
{ACAD_REACTORS
330
23
102
}
102
{ACAD_XDICTIONARY
360
164
102
}
330
23
100
AcDbVisualStyle
  2
X-Ray
 70
    25
 71
     2
 72
     2
 73
     1
 90
        1
 40
0.5
 41
30.0
 62
     5
 63
     7
 74
     1
 91
        0
 64
     7
 65
   257
 75
     1
175
     1
 42
1.0
 92
        8
 66
     7
 43
1.0
 76
     1
 77
     6
 78
     2
 67
     7
 79
     3
170
     0
171
     0
290
     0
174
     0
 93
       13
 44
0.0
173
     0
291
     0
 45
0.0
1001
ACAD
1000
AcDbSavedByObjectVersion
1070
     0
  0
DICTIONARYVAR
  5
10F
102
{ACAD_REACTORS
330
10E
102
}
330
10E
100
DictionaryVariables
280
     0
  1
1:1
  0
DICTIONARYVAR
  5
12E
102
{ACAD_REACTORS
330
10E
102
}
330
10E
100
DictionaryVariables
280
     0
  1
Standard
  0
DICTIONARYVAR
  5
12D
102
{ACAD_REACTORS
330
10E
102
}
330
10E
100
DictionaryVariables
280
     0
  1
Standard
  0
DICTIONARYVAR
  5
12F
102
{ACAD_REACTORS
330
10E
102
}
330
10E
100
DictionaryVariables
280
     0
  1
2
  0
DICTIONARYVAR
  5
130
102
{ACAD_REACTORS
330
10E
102
}
330
10E
100
DictionaryVariables
280
     0
  1
1
  0
DICTIONARYVAR
  5
133
102
{ACAD_REACTORS
330
10E
102
}
330
10E
100
DictionaryVariables
280
     0
  1
1
  0
DICTIONARY
  5
138
330
4C
100
AcDbDictionary
280
     1
281
     1
  3
ACAD_XREC_ROUNDTRIP
360
139
  0
DICTIONARY
  5
134
330
E
100
AcDbDictionary
280
     1
281
     1
  3
ACAD_XREC_ROUNDTRIP
360
135
  0
DICTIONARY
  5
136
330
6
100
AcDbDictionary
280
     1
281
     1
  3
ACAD_XREC_ROUNDTRIP
360
137
  0
DICTIONARY
  5
16B
330
114
100
AcDbDictionary
280
     1
281
     1
  3
ACAD_XREC_ROUNDTRIP
360
16C
  0
DICTIONARY
  5
13A
330
26
100
AcDbDictionary
280
     1
281
     1
  3
ACAD_XREC_ROUNDTRIP
360
13B
  0
DICTIONARY
  5
148
330
11B
100
AcDbDictionary
280
     1
281
     1
  3
ACAD_XREC_ROUNDTRIP
360
149
  0
DICTIONARY
  5
150
330
11F
100
AcDbDictionary
280
     1
281
     1
  3
ACAD_XREC_ROUNDTRIP
360
151
  0
DICTIONARY
  5
158
330
123
100
AcDbDictionary
280
     1
281
     1
  3
ACAD_XREC_ROUNDTRIP
360
159
  0
DICTIONARY
  5
14C
330
11D
100
AcDbDictionary
280
     1
281
     1
  3
ACAD_XREC_ROUNDTRIP
360
14D
  0
DICTIONARY
  5
14E
330
11E
100
AcDbDictionary
280
     1
281
     1
  3
ACAD_XREC_ROUNDTRIP
360
14F
  0
DICTIONARY
  5
15E
330
126
100
AcDbDictionary
280
     1
281
     1
  3
ACAD_XREC_ROUNDTRIP
360
15F
  0
DICTIONARY
  5
156
330
122
100
AcDbDictionary
280
     1
281
     1
  3
ACAD_XREC_ROUNDTRIP
360
157
  0
DICTIONARY
  5
13C
330
115
100
AcDbDictionary
280
     1
281
     1
  3
ACAD_XREC_ROUNDTRIP
360
13D
  0
DICTIONARY
  5
13E
330
116
100
AcDbDictionary
280
     1
281
     1
  3
ACAD_XREC_ROUNDTRIP
360
13F
  0
DICTIONARY
  5
140
330
117
100
AcDbDictionary
280
     1
281
     1
  3
ACAD_XREC_ROUNDTRIP
360
141
  0
DICTIONARY
  5
142
330
118
100
AcDbDictionary
280
     1
281
     1
  3
ACAD_XREC_ROUNDTRIP
360
143
  0
DICTIONARY
  5
146
330
11A
100
AcDbDictionary
280
     1
281
     1
  3
ACAD_XREC_ROUNDTRIP
360
147
  0
DICTIONARY
  5
15A
330
124
100
AcDbDictionary
280
     1
281
     1
  3
ACAD_XREC_ROUNDTRIP
360
15B
  0
DICTIONARY
  5
154
330
121
100
AcDbDictionary
280
     1
281
     1
  3
ACAD_XREC_ROUNDTRIP
360
155
  0
DICTIONARY
  5
15C
330
125
100
AcDbDictionary
280
     1
281
     1
  3
ACAD_XREC_ROUNDTRIP
360
15D
  0
DICTIONARY
  5
14A
330
11C
100
AcDbDictionary
280
     1
281
     1
  3
ACAD_XREC_ROUNDTRIP
360
14B
  0
DICTIONARY
  5
168
330
12B
100
AcDbDictionary
280
     1
281
     1
  3
ACAD_XREC_ROUNDTRIP
360
169
  0
DICTIONARY
  5
166
330
12A
100
AcDbDictionary
280
     1
281
     1
  3
ACAD_XREC_ROUNDTRIP
360
167
  0
DICTIONARY
  5
160
330
127
100
AcDbDictionary
280
     1
281
     1
  3
ACAD_XREC_ROUNDTRIP
360
161
  0
DICTIONARY
  5
162
330
128
100
AcDbDictionary
280
     1
281
     1
  3
ACAD_XREC_ROUNDTRIP
360
163
  0
DICTIONARY
  5
152
330
120
100
AcDbDictionary
280
     1
281
     1
  3
ACAD_XREC_ROUNDTRIP
360
153
  0
DICTIONARY
  5
144
330
119
100
AcDbDictionary
280
     1
281
     1
  3
ACAD_XREC_ROUNDTRIP
360
145
  0
DICTIONARY
  5
164
330
129
100
AcDbDictionary
280
     1
281
     1
  3
ACAD_XREC_ROUNDTRIP
360
165
  0
XRECORD
  5
139
102
{ACAD_REACTORS
330
138
102
}
330
138
100
AcDbXrecord
280
     1
102
MATERIAL
148
0.0
149
0.0
149
0.0
 93
        0
 94
      127
282
     0
 72
     1
 77
     1
171
     1
175
     1
179
     1
273
     0
  0
XRECORD
  5
135
102
{ACAD_REACTORS
330
134
102
}
330
134
100
AcDbXrecord
280
     1
102
MATERIAL
148
0.0
149
0.0
149
0.0
 93
        0
 94
      127
282
     0
 72
     1
 77
     1
171
     1
175
     1
179
     1
273
     0
  0
XRECORD
  5
137
102
{ACAD_REACTORS
330
136
102
}
330
136
100
AcDbXrecord
280
     1
102
MATERIAL
148
0.0
149
0.0
149
0.0
 93
        0
 94
      127
282
     0
 72
     1
 77
     1
171
     1
175
     1
179
     1
273
     0
  0
XRECORD
  5
16C
102
{ACAD_REACTORS
330
16B
102
}
330
16B
100
AcDbXrecord
280
     1
102
ACAD_ROUNDTRIP_2010_MLEADER_STYLE
  0
XRECORD
  5
13B
102
{ACAD_REACTORS
330
13A
102
}
330
13A
100
AcDbXrecord
280
     1
102
RTVSPropertyOp0
 70
     1
102
RTVSPropertyOp1
 70
     1
102
RTVSPropertyOp2
 70
     1
102
RTVSPropertyOp3
 70
     1
102
RTVSPropertyOp4
 70
     1
102
RTVSPropertyOp5
 70
     1
102
RTVSPropertyOp6
 70
     1
102
RTVSPropertyOp7
 70
     1
102
RTVSPropertyOp8
 70
     1
102
RTVSPropertyOp9
 70
     1
102
RTVSPropertyOp10
 70
     1
102
RTVSPropertyOp11
 70
     1
102
RTVSPropertyOp12
 70
     1
102
RTVSPropertyOp13
 70
     1
102
RTVSPropertyOp14
 70
     1
102
RTVSPropertyOp15
 70
     1
102
RTVSPropertyOp16
 70
     1
102
RTVSPropertyOp17
 70
     1
102
RTVSPropertyOp18
 70
     1
102
RTVSPropertyOp19
 70
     1
102
RTVSPropertyOp20
 70
     1
102
RTVSPropertyOp21
 70
     1
102
RTVSPropertyOp22
 70
     1
102
RTVSPropertyOp23
 70
     1
102
RTVSPropertyOp24
 70
     1
102
RTVSPropertyOp25
 70
     1
102
RTVSPropertyOp26
 70
     1
102
RTVSPropertyOp27
 70
     1
102
RTVSPropertyOp28
 70
     1
102
RTVSPropertyOp29
 70
     1
102
RTVSPropertyOp30
 70
     1
102
RTVSPropertyOp31
 70
     1
102
RTVSPropertyOp32
 70
     1
102
RTVSPropertyOp33
 70
     1
102
RTVSPropertyOp34
 70
     1
102
RTVSPropertyOp35
 70
     1
102
RTVSPropertyOp36
 70
     1
102
RTVSPropertyOp37
 70
     1
102
RTVSPropertyOp38
 70
     1
102
RTVSPropertyOp39
 70
     1
102
RTVSPropertyOp40
 70
     1
102
RTVSPropertyOp41
 70
     1
102
RTVSPropertyOp42
 70
     1
102
RTVSPropertyOp43
 70
     1
102
RTVSPropertyOp44
 70
     1
102
RTVSPropertyOp45
 70
     1
102
RTVSPropertyOp46
 70
     1
102
RTVSPropertyOp47
 70
     1
102
RTVSPropertyOp48
 70
     1
102
RTVSPropertyOp49
 70
     1
102
RTVSPropertyOp50
 70
     1
102
RTVSPropertyOp51
 70
     0
102
RTVSPropertyOp52
 70
     0
102
RTVSPropertyOp53
 70
     1
102
RTVSPropertyOp54
 70
     1
102
RTVSPropertyOp55
 70
     1
102
RTVSPropertyOp56
 70
     1
102
RTVSPropertyOp57
 70
     1
102
RTVSPost2010Prop28
280
     1
102
RTVSPost2010PropOp28
 70
     1
102
RTVSPost2010Prop29
280
     1
102
RTVSPost2010PropOp29
 70
     1
102
RTVSPost2010Prop30
280
     0
102
RTVSPost2010PropOp30
 70
     1
102
RTVSPost2010Prop31
280
     0
102
RTVSPost2010PropOp31
 70
     1
102
RTVSPost2010Prop32
280
     0
102
RTVSPost2010PropOp32
 70
     1
102
RTVSPost2010Prop33
280
     0
102
RTVSPost2010PropOp33
 70
     1
102
RTVSPost2010Prop34
280
     0
102
RTVSPost2010PropOp34
 70
     1
102
RTVSPost2010Prop35
280
     0
102
RTVSPost2010PropOp35
 70
     1
102
RTVSPost2010Prop36
280
     0
102
RTVSPost2010PropOp36
 70
     1
102
RTVSPost2010Prop37
 90
       50
102
RTVSPost2010PropOp37
 70
     1
102
RTVSPost2010Prop38
140
0.0
102
RTVSPost2010PropOp38
 70
     1
102
RTVSPost2010Prop39
140
1.0
102
RTVSPost2010PropOp39
 70
     1
102
RTVSPost2010Prop40
 90
        0
102
RTVSPost2010PropOp40
 70
     1
102
RTVSPost2010Prop41ColorIndex
 90
       18
102
RTVSPost2010Prop41ColorRGB
 90
        0
102
RTVSPost2010PropOp41
 70
     1
102
RTVSPost2010Prop42
 90
       50
102
RTVSPost2010PropOp42
 70
     1
102
RTVSPost2010Prop43
 90
        3
102
RTVSPost2010PropOp43
 70
     1
102
RTVSPost2010Prop44ColorIndex
 90
        5
102
RTVSPost2010Prop44ColorRGB
 90
      255
102
RTVSPost2010PropOp44
 70
     1
102
RTVSPost2010Prop45
280
     0
102
RTVSPost2010PropOp45
 70
     1
102
RTVSPost2010Prop46
 90
       50
102
RTVSPost2010PropOp46
 70
     1
102
RTVSPost2010Prop47
 90
       50
102
RTVSPost2010PropOp47
 70
     1
102
RTVSPost2010Prop48
 90
       50
102
RTVSPost2010PropOp48
 70
     1
102
RTVSPost2010Prop49
280
     0
102
RTVSPost2010PropOp49
 70
     1
102
RTVSPost2010Prop50
 90
       50
102
RTVSPost2010PropOp50
 70
     1
102
RTVSPost2010Prop51ColorIndex
 90
      256
102
RTVSPost2010Prop51ColorRGB
 90
-16777216
102
RTVSPost2010PropOp51
 70
     0
102
RTVSPost2010Prop52
140
1.0
102
RTVSPost2010PropOp52
 70
     0
102
RTVSPost2010Prop53
 90
        2
102
RTVSPost2010PropOp53
 70
     1
102
RTVSPost2010Prop54
  1
strokes_ogs.tif
102
RTVSPost2010PropOp54
 70
     1
102
RTVSPost2010Prop55
280
     0
102
RTVSPost2010PropOp55
 70
     1
102
RTVSPost2010Prop56
140
1.0
102
RTVSPost2010PropOp56
 70
     1
102
RTVSPost2010Prop57
140
1.0
102
RTVSPost2010PropOp57
 70
     1
  0
XRECORD
  5
149
102
{ACAD_REACTORS
330
148
102
}
330
148
100
AcDbXrecord
280
     1
102
RTVSPropertyOp0
 70
     1
102
RTVSPropertyOp1
 70
     1
102
RTVSPropertyOp2
 70
     1
102
RTVSPropertyOp3
 70
     1
102
RTVSPropertyOp4
 70
     1
102
RTVSPropertyOp5
 70
     1
102
RTVSPropertyOp6
 70
     1
102
RTVSPropertyOp7
 70
     1
102
RTVSPropertyOp8
 70
     1
102
RTVSPropertyOp9
 70
     1
102
RTVSPropertyOp10
 70
     1
102
RTVSPropertyOp11
 70
     1
102
RTVSPropertyOp12
 70
     1
102
RTVSPropertyOp13
 70
     1
102
RTVSPropertyOp14
 70
     1
102
RTVSPropertyOp15
 70
     1
102
RTVSPropertyOp16
 70
     1
102
RTVSPropertyOp17
 70
     1
102
RTVSPropertyOp18
 70
     1
102
RTVSPropertyOp19
 70
     1
102
RTVSPropertyOp20
 70
     1
102
RTVSPropertyOp21
 70
     1
102
RTVSPropertyOp22
 70
     1
102
RTVSPropertyOp23
 70
     1
102
RTVSPropertyOp24
 70
     1
102
RTVSPropertyOp25
 70
     1
102
RTVSPropertyOp26
 70
     1
102
RTVSPropertyOp27
 70
     1
102
RTVSPropertyOp28
 70
     1
102
RTVSPropertyOp29
 70
     1
102
RTVSPropertyOp30
 70
     1
102
RTVSPropertyOp31
 70
     1
102
RTVSPropertyOp32
 70
     1
102
RTVSPropertyOp33
 70
     1
102
RTVSPropertyOp34
 70
     1
102
RTVSPropertyOp35
 70
     1
102
RTVSPropertyOp36
 70
     1
102
RTVSPropertyOp37
 70
     1
102
RTVSPropertyOp38
 70
     1
102
RTVSPropertyOp39
 70
     1
102
RTVSPropertyOp40
 70
     1
102
RTVSPropertyOp41
 70
     1
102
RTVSPropertyOp42
 70
     1
102
RTVSPropertyOp43
 70
     1
102
RTVSPropertyOp44
 70
     1
102
RTVSPropertyOp45
 70
     1
102
RTVSPropertyOp46
 70
     1
102
RTVSPropertyOp47
 70
     1
102
RTVSPropertyOp48
 70
     1
102
RTVSPropertyOp49
 70
     1
102
RTVSPropertyOp50
 70
     1
102
RTVSPropertyOp51
 70
     0
102
RTVSPropertyOp52
 70
     0
102
RTVSPropertyOp53
 70
     1
102
RTVSPropertyOp54
 70
     1
102
RTVSPropertyOp55
 70
     1
102
RTVSPropertyOp56
 70
     1
102
RTVSPropertyOp57
 70
     1
102
RTVSPost2010Prop28
280
     0
102
RTVSPost2010PropOp28
 70
     1
102
RTVSPost2010Prop29
280
     1
102
RTVSPost2010PropOp29
 70
     1
102
RTVSPost2010Prop30
280
     1
102
RTVSPost2010PropOp30
 70
     1
102
RTVSPost2010Prop31
280
     0
102
RTVSPost2010PropOp31
 70
     1
102
RTVSPost2010Prop32
280
     0
102
RTVSPost2010PropOp32
 70
     1
102
RTVSPost2010Prop33
280
     0
102
RTVSPost2010PropOp33
 70
     1
102
RTVSPost2010Prop34
280
     0
102
RTVSPost2010PropOp34
 70
     1
102
RTVSPost2010Prop35
280
     0
102
RTVSPost2010PropOp35
 70
     1
102
RTVSPost2010Prop36
280
     0
102
RTVSPost2010PropOp36
 70
     1
102
RTVSPost2010Prop37
 90
       50
102
RTVSPost2010PropOp37
 70
     1
102
RTVSPost2010Prop38
140
0.0
102
RTVSPost2010PropOp38
 70
     1
102
RTVSPost2010Prop39
140
1.0
102
RTVSPost2010PropOp39
 70
     1
102
RTVSPost2010Prop40
 90
        0
102
RTVSPost2010PropOp40
 70
     1
102
RTVSPost2010Prop41ColorIndex
 90
       18
102
RTVSPost2010Prop41ColorRGB
 90
        0
102
RTVSPost2010PropOp41
 70
     1
102
RTVSPost2010Prop42
 90
       50
102
RTVSPost2010PropOp42
 70
     1
102
RTVSPost2010Prop43
 90
        3
102
RTVSPost2010PropOp43
 70
     1
102
RTVSPost2010Prop44ColorIndex
 90
        5
102
RTVSPost2010Prop44ColorRGB
 90
      255
102
RTVSPost2010PropOp44
 70
     1
102
RTVSPost2010Prop45
280
     0
102
RTVSPost2010PropOp45
 70
     1
102
RTVSPost2010Prop46
 90
       50
102
RTVSPost2010PropOp46
 70
     1
102
RTVSPost2010Prop47
 90
       50
102
RTVSPost2010PropOp47
 70
     1
102
RTVSPost2010Prop48
 90
       50
102
RTVSPost2010PropOp48
 70
     1
102
RTVSPost2010Prop49
280
     0
102
RTVSPost2010PropOp49
 70
     1
102
RTVSPost2010Prop50
 90
       50
102
RTVSPost2010PropOp50
 70
     1
102
RTVSPost2010Prop51ColorIndex
 90
      256
102
RTVSPost2010Prop51ColorRGB
 90
-16777216
102
RTVSPost2010PropOp51
 70
     0
102
RTVSPost2010Prop52
140
1.0
102
RTVSPost2010PropOp52
 70
     0
102
RTVSPost2010Prop53
 90
        2
102
RTVSPost2010PropOp53
 70
     1
102
RTVSPost2010Prop54
  1
strokes_ogs.tif
102
RTVSPost2010PropOp54
 70
     1
102
RTVSPost2010Prop55
280
     0
102
RTVSPost2010PropOp55
 70
     1
102
RTVSPost2010Prop56
140
1.0
102
RTVSPost2010PropOp56
 70
     1
102
RTVSPost2010Prop57
140
1.0
102
RTVSPost2010PropOp57
 70
     1
  0
XRECORD
  5
151
102
{ACAD_REACTORS
330
150
102
}
330
150
100
AcDbXrecord
280
     1
102
RTVSPropertyOp0
 70
     1
102
RTVSPropertyOp1
 70
     1
102
RTVSPropertyOp2
 70
     1
102
RTVSPropertyOp3
 70
     1
102
RTVSPropertyOp4
 70
     1
102
RTVSPropertyOp5
 70
     1
102
RTVSPropertyOp6
 70
     1
102
RTVSPropertyOp7
 70
     1
102
RTVSPropertyOp8
 70
     1
102
RTVSPropertyOp9
 70
     1
102
RTVSPropertyOp10
 70
     1
102
RTVSPropertyOp11
 70
     1
102
RTVSPropertyOp12
 70
     1
102
RTVSPropertyOp13
 70
     1
102
RTVSPropertyOp14
 70
     1
102
RTVSPropertyOp15
 70
     1
102
RTVSPropertyOp16
 70
     1
102
RTVSPropertyOp17
 70
     1
102
RTVSPropertyOp18
 70
     1
102
RTVSPropertyOp19
 70
     1
102
RTVSPropertyOp20
 70
     1
102
RTVSPropertyOp21
 70
     1
102
RTVSPropertyOp22
 70
     1
102
RTVSPropertyOp23
 70
     1
102
RTVSPropertyOp24
 70
     1
102
RTVSPropertyOp25
 70
     1
102
RTVSPropertyOp26
 70
     1
102
RTVSPropertyOp27
 70
     1
102
RTVSPropertyOp28
 70
     1
102
RTVSPropertyOp29
 70
     1
102
RTVSPropertyOp30
 70
     1
102
RTVSPropertyOp31
 70
     1
102
RTVSPropertyOp32
 70
     1
102
RTVSPropertyOp33
 70
     1
102
RTVSPropertyOp34
 70
     1
102
RTVSPropertyOp35
 70
     1
102
RTVSPropertyOp36
 70
     1
102
RTVSPropertyOp37
 70
     1
102
RTVSPropertyOp38
 70
     1
102
RTVSPropertyOp39
 70
     1
102
RTVSPropertyOp40
 70
     1
102
RTVSPropertyOp41
 70
     1
102
RTVSPropertyOp42
 70
     1
102
RTVSPropertyOp43
 70
     1
102
RTVSPropertyOp44
 70
     1
102
RTVSPropertyOp45
 70
     1
102
RTVSPropertyOp46
 70
     1
102
RTVSPropertyOp47
 70
     1
102
RTVSPropertyOp48
 70
     1
102
RTVSPropertyOp49
 70
     1
102
RTVSPropertyOp50
 70
     1
102
RTVSPropertyOp51
 70
     0
102
RTVSPropertyOp52
 70
     0
102
RTVSPropertyOp53
 70
     1
102
RTVSPropertyOp54
 70
     1
102
RTVSPropertyOp55
 70
     1
102
RTVSPropertyOp56
 70
     1
102
RTVSPropertyOp57
 70
     1
102
RTVSPost2010Prop28
280
     0
102
RTVSPost2010PropOp28
 70
     1
102
RTVSPost2010Prop29
280
     1
102
RTVSPost2010PropOp29
 70
     1
102
RTVSPost2010Prop30
280
     1
102
RTVSPost2010PropOp30
 70
     1
102
RTVSPost2010Prop31
280
     0
102
RTVSPost2010PropOp31
 70
     1
102
RTVSPost2010Prop32
280
     0
102
RTVSPost2010PropOp32
 70
     1
102
RTVSPost2010Prop33
280
     0
102
RTVSPost2010PropOp33
 70
     1
102
RTVSPost2010Prop34
280
     0
102
RTVSPost2010PropOp34
 70
     1
102
RTVSPost2010Prop35
280
     0
102
RTVSPost2010PropOp35
 70
     1
102
RTVSPost2010Prop36
280
     0
102
RTVSPost2010PropOp36
 70
     1
102
RTVSPost2010Prop37
 90
       50
102
RTVSPost2010PropOp37
 70
     1
102
RTVSPost2010Prop38
140
0.0
102
RTVSPost2010PropOp38
 70
     1
102
RTVSPost2010Prop39
140
1.0
102
RTVSPost2010PropOp39
 70
     1
102
RTVSPost2010Prop40
 90
        0
102
RTVSPost2010PropOp40
 70
     1
102
RTVSPost2010Prop41ColorIndex
 90
       18
102
RTVSPost2010Prop41ColorRGB
 90
        0
102
RTVSPost2010PropOp41
 70
     1
102
RTVSPost2010Prop42
 90
       50
102
RTVSPost2010PropOp42
 70
     1
102
RTVSPost2010Prop43
 90
        3
102
RTVSPost2010PropOp43
 70
     1
102
RTVSPost2010Prop44ColorIndex
 90
        5
102
RTVSPost2010Prop44ColorRGB
 90
      255
102
RTVSPost2010PropOp44
 70
     1
102
RTVSPost2010Prop45
280
     0
102
RTVSPost2010PropOp45
 70
     1
102
RTVSPost2010Prop46
 90
       50
102
RTVSPost2010PropOp46
 70
     1
102
RTVSPost2010Prop47
 90
       50
102
RTVSPost2010PropOp47
 70
     1
102
RTVSPost2010Prop48
 90
       50
102
RTVSPost2010PropOp48
 70
     1
102
RTVSPost2010Prop49
280
     0
102
RTVSPost2010PropOp49
 70
     1
102
RTVSPost2010Prop50
 90
       50
102
RTVSPost2010PropOp50
 70
     1
102
RTVSPost2010Prop51ColorIndex
 90
      256
102
RTVSPost2010Prop51ColorRGB
 90
-16777216
102
RTVSPost2010PropOp51
 70
     0
102
RTVSPost2010Prop52
140
1.0
102
RTVSPost2010PropOp52
 70
     0
102
RTVSPost2010Prop53
 90
        2
102
RTVSPost2010PropOp53
 70
     1
102
RTVSPost2010Prop54
  1
strokes_ogs.tif
102
RTVSPost2010PropOp54
 70
     1
102
RTVSPost2010Prop55
280
     0
102
RTVSPost2010PropOp55
 70
     1
102
RTVSPost2010Prop56
140
1.0
102
RTVSPost2010PropOp56
 70
     1
102
RTVSPost2010Prop57
140
1.0
102
RTVSPost2010PropOp57
 70
     1
  0
XRECORD
  5
159
102
{ACAD_REACTORS
330
158
102
}
330
158
100
AcDbXrecord
280
     1
102
RTVSPropertyOp0
 70
     1
102
RTVSPropertyOp1
 70
     1
102
RTVSPropertyOp2
 70
     1
102
RTVSPropertyOp3
 70
     1
102
RTVSPropertyOp4
 70
     1
102
RTVSPropertyOp5
 70
     1
102
RTVSPropertyOp6
 70
     1
102
RTVSPropertyOp7
 70
     1
102
RTVSPropertyOp8
 70
     1
102
RTVSPropertyOp9
 70
     1
102
RTVSPropertyOp10
 70
     1
102
RTVSPropertyOp11
 70
     1
102
RTVSPropertyOp12
 70
     1
102
RTVSPropertyOp13
 70
     1
102
RTVSPropertyOp14
 70
     1
102
RTVSPropertyOp15
 70
     1
102
RTVSPropertyOp16
 70
     1
102
RTVSPropertyOp17
 70
     1
102
RTVSPropertyOp18
 70
     1
102
RTVSPropertyOp19
 70
     1
102
RTVSPropertyOp20
 70
     1
102
RTVSPropertyOp21
 70
     1
102
RTVSPropertyOp22
 70
     1
102
RTVSPropertyOp23
 70
     1
102
RTVSPropertyOp24
 70
     1
102
RTVSPropertyOp25
 70
     1
102
RTVSPropertyOp26
 70
     1
102
RTVSPropertyOp27
 70
     1
102
RTVSPropertyOp28
 70
     1
102
RTVSPropertyOp29
 70
     1
102
RTVSPropertyOp30
 70
     1
102
RTVSPropertyOp31
 70
     1
102
RTVSPropertyOp32
 70
     1
102
RTVSPropertyOp33
 70
     1
102
RTVSPropertyOp34
 70
     1
102
RTVSPropertyOp35
 70
     1
102
RTVSPropertyOp36
 70
     1
102
RTVSPropertyOp37
 70
     1
102
RTVSPropertyOp38
 70
     1
102
RTVSPropertyOp39
 70
     1
102
RTVSPropertyOp40
 70
     1
102
RTVSPropertyOp41
 70
     1
102
RTVSPropertyOp42
 70
     1
102
RTVSPropertyOp43
 70
     1
102
RTVSPropertyOp44
 70
     1
102
RTVSPropertyOp45
 70
     1
102
RTVSPropertyOp46
 70
     1
102
RTVSPropertyOp47
 70
     1
102
RTVSPropertyOp48
 70
     1
102
RTVSPropertyOp49
 70
     1
102
RTVSPropertyOp50
 70
     1
102
RTVSPropertyOp51
 70
     0
102
RTVSPropertyOp52
 70
     0
102
RTVSPropertyOp53
 70
     1
102
RTVSPropertyOp54
 70
     1
102
RTVSPropertyOp55
 70
     1
102
RTVSPropertyOp56
 70
     1
102
RTVSPropertyOp57
 70
     1
102
RTVSPost2010Prop28
280
     0
102
RTVSPost2010PropOp28
 70
     1
102
RTVSPost2010Prop29
280
     1
102
RTVSPost2010PropOp29
 70
     1
102
RTVSPost2010Prop30
280
     1
102
RTVSPost2010PropOp30
 70
     1
102
RTVSPost2010Prop31
280
     0
102
RTVSPost2010PropOp31
 70
     1
102
RTVSPost2010Prop32
280
     0
102
RTVSPost2010PropOp32
 70
     1
102
RTVSPost2010Prop33
280
     0
102
RTVSPost2010PropOp33
 70
     1
102
RTVSPost2010Prop34
280
     0
102
RTVSPost2010PropOp34
 70
     1
102
RTVSPost2010Prop35
280
     0
102
RTVSPost2010PropOp35
 70
     1
102
RTVSPost2010Prop36
280
     0
102
RTVSPost2010PropOp36
 70
     1
102
RTVSPost2010Prop37
 90
       50
102
RTVSPost2010PropOp37
 70
     1
102
RTVSPost2010Prop38
140
0.0
102
RTVSPost2010PropOp38
 70
     1
102
RTVSPost2010Prop39
140
1.0
102
RTVSPost2010PropOp39
 70
     1
102
RTVSPost2010Prop40
 90
        0
102
RTVSPost2010PropOp40
 70
     1
102
RTVSPost2010Prop41ColorIndex
 90
       18
102
RTVSPost2010Prop41ColorRGB
 90
        0
102
RTVSPost2010PropOp41
 70
     1
102
RTVSPost2010Prop42
 90
       50
102
RTVSPost2010PropOp42
 70
     1
102
RTVSPost2010Prop43
 90
        3
102
RTVSPost2010PropOp43
 70
     1
102
RTVSPost2010Prop44ColorIndex
 90
        5
102
RTVSPost2010Prop44ColorRGB
 90
      255
102
RTVSPost2010PropOp44
 70
     1
102
RTVSPost2010Prop45
280
     0
102
RTVSPost2010PropOp45
 70
     1
102
RTVSPost2010Prop46
 90
       50
102
RTVSPost2010PropOp46
 70
     1
102
RTVSPost2010Prop47
 90
       50
102
RTVSPost2010PropOp47
 70
     1
102
RTVSPost2010Prop48
 90
       50
102
RTVSPost2010PropOp48
 70
     1
102
RTVSPost2010Prop49
280
     0
102
RTVSPost2010PropOp49
 70
     1
102
RTVSPost2010Prop50
 90
       50
102
RTVSPost2010PropOp50
 70
     1
102
RTVSPost2010Prop51ColorIndex
 90
      256
102
RTVSPost2010Prop51ColorRGB
 90
-16777216
102
RTVSPost2010PropOp51
 70
     0
102
RTVSPost2010Prop52
140
1.0
102
RTVSPost2010PropOp52
 70
     0
102
RTVSPost2010Prop53
 90
        2
102
RTVSPost2010PropOp53
 70
     1
102
RTVSPost2010Prop54
  1
strokes_ogs.tif
102
RTVSPost2010PropOp54
 70
     1
102
RTVSPost2010Prop55
280
     0
102
RTVSPost2010PropOp55
 70
     1
102
RTVSPost2010Prop56
140
1.0
102
RTVSPost2010PropOp56
 70
     1
102
RTVSPost2010Prop57
140
1.0
102
RTVSPost2010PropOp57
 70
     1
  0
XRECORD
  5
14D
102
{ACAD_REACTORS
330
14C
102
}
330
14C
100
AcDbXrecord
280
     1
102
RTVSPropertyOp0
 70
     1
102
RTVSPropertyOp1
 70
     1
102
RTVSPropertyOp2
 70
     1
102
RTVSPropertyOp3
 70
     1
102
RTVSPropertyOp4
 70
     1
102
RTVSPropertyOp5
 70
     1
102
RTVSPropertyOp6
 70
     1
102
RTVSPropertyOp7
 70
     1
102
RTVSPropertyOp8
 70
     1
102
RTVSPropertyOp9
 70
     1
102
RTVSPropertyOp10
 70
     1
102
RTVSPropertyOp11
 70
     1
102
RTVSPropertyOp12
 70
     1
102
RTVSPropertyOp13
 70
     1
102
RTVSPropertyOp14
 70
     1
102
RTVSPropertyOp15
 70
     1
102
RTVSPropertyOp16
 70
     1
102
RTVSPropertyOp17
 70
     1
102
RTVSPropertyOp18
 70
     1
102
RTVSPropertyOp19
 70
     1
102
RTVSPropertyOp20
 70
     1
102
RTVSPropertyOp21
 70
     1
102
RTVSPropertyOp22
 70
     1
102
RTVSPropertyOp23
 70
     1
102
RTVSPropertyOp24
 70
     1
102
RTVSPropertyOp25
 70
     1
102
RTVSPropertyOp26
 70
     1
102
RTVSPropertyOp27
 70
     1
102
RTVSPropertyOp28
 70
     1
102
RTVSPropertyOp29
 70
     1
102
RTVSPropertyOp30
 70
     1
102
RTVSPropertyOp31
 70
     1
102
RTVSPropertyOp32
 70
     1
102
RTVSPropertyOp33
 70
     1
102
RTVSPropertyOp34
 70
     1
102
RTVSPropertyOp35
 70
     1
102
RTVSPropertyOp36
 70
     1
102
RTVSPropertyOp37
 70
     1
102
RTVSPropertyOp38
 70
     1
102
RTVSPropertyOp39
 70
     1
102
RTVSPropertyOp40
 70
     1
102
RTVSPropertyOp41
 70
     1
102
RTVSPropertyOp42
 70
     1
102
RTVSPropertyOp43
 70
     1
102
RTVSPropertyOp44
 70
     1
102
RTVSPropertyOp45
 70
     1
102
RTVSPropertyOp46
 70
     1
102
RTVSPropertyOp47
 70
     1
102
RTVSPropertyOp48
 70
     1
102
RTVSPropertyOp49
 70
     1
102
RTVSPropertyOp50
 70
     1
102
RTVSPropertyOp51
 70
     0
102
RTVSPropertyOp52
 70
     0
102
RTVSPropertyOp53
 70
     1
102
RTVSPropertyOp54
 70
     1
102
RTVSPropertyOp55
 70
     1
102
RTVSPropertyOp56
 70
     1
102
RTVSPropertyOp57
 70
     1
102
RTVSPost2010Prop28
280
     0
102
RTVSPost2010PropOp28
 70
     1
102
RTVSPost2010Prop29
280
     1
102
RTVSPost2010PropOp29
 70
     1
102
RTVSPost2010Prop30
280
     1
102
RTVSPost2010PropOp30
 70
     1
102
RTVSPost2010Prop31
280
     0
102
RTVSPost2010PropOp31
 70
     1
102
RTVSPost2010Prop32
280
     0
102
RTVSPost2010PropOp32
 70
     1
102
RTVSPost2010Prop33
280
     0
102
RTVSPost2010PropOp33
 70
     1
102
RTVSPost2010Prop34
280
     0
102
RTVSPost2010PropOp34
 70
     1
102
RTVSPost2010Prop35
280
     0
102
RTVSPost2010PropOp35
 70
     1
102
RTVSPost2010Prop36
280
     0
102
RTVSPost2010PropOp36
 70
     1
102
RTVSPost2010Prop37
 90
       50
102
RTVSPost2010PropOp37
 70
     1
102
RTVSPost2010Prop38
140
0.0
102
RTVSPost2010PropOp38
 70
     1
102
RTVSPost2010Prop39
140
1.0
102
RTVSPost2010PropOp39
 70
     1
102
RTVSPost2010Prop40
 90
        0
102
RTVSPost2010PropOp40
 70
     1
102
RTVSPost2010Prop41ColorIndex
 90
       18
102
RTVSPost2010Prop41ColorRGB
 90
        0
102
RTVSPost2010PropOp41
 70
     1
102
RTVSPost2010Prop42
 90
       50
102
RTVSPost2010PropOp42
 70
     1
102
RTVSPost2010Prop43
 90
        3
102
RTVSPost2010PropOp43
 70
     1
102
RTVSPost2010Prop44ColorIndex
 90
        5
102
RTVSPost2010Prop44ColorRGB
 90
      255
102
RTVSPost2010PropOp44
 70
     1
102
RTVSPost2010Prop45
280
     0
102
RTVSPost2010PropOp45
 70
     1
102
RTVSPost2010Prop46
 90
       50
102
RTVSPost2010PropOp46
 70
     1
102
RTVSPost2010Prop47
 90
       50
102
RTVSPost2010PropOp47
 70
     1
102
RTVSPost2010Prop48
 90
       50
102
RTVSPost2010PropOp48
 70
     1
102
RTVSPost2010Prop49
280
     0
102
RTVSPost2010PropOp49
 70
     1
102
RTVSPost2010Prop50
 90
       50
102
RTVSPost2010PropOp50
 70
     1
102
RTVSPost2010Prop51ColorIndex
 90
      256
102
RTVSPost2010Prop51ColorRGB
 90
-16777216
102
RTVSPost2010PropOp51
 70
     0
102
RTVSPost2010Prop52
140
1.0
102
RTVSPost2010PropOp52
 70
     0
102
RTVSPost2010Prop53
 90
        2
102
RTVSPost2010PropOp53
 70
     1
102
RTVSPost2010Prop54
  1
strokes_ogs.tif
102
RTVSPost2010PropOp54
 70
     1
102
RTVSPost2010Prop55
280
     0
102
RTVSPost2010PropOp55
 70
     1
102
RTVSPost2010Prop56
140
1.0
102
RTVSPost2010PropOp56
 70
     1
102
RTVSPost2010Prop57
140
1.0
102
RTVSPost2010PropOp57
 70
     1
  0
XRECORD
  5
14F
102
{ACAD_REACTORS
330
14E
102
}
330
14E
100
AcDbXrecord
280
     1
102
RTVSPropertyOp0
 70
     1
102
RTVSPropertyOp1
 70
     1
102
RTVSPropertyOp2
 70
     1
102
RTVSPropertyOp3
 70
     1
102
RTVSPropertyOp4
 70
     1
102
RTVSPropertyOp5
 70
     1
102
RTVSPropertyOp6
 70
     1
102
RTVSPropertyOp7
 70
     1
102
RTVSPropertyOp8
 70
     1
102
RTVSPropertyOp9
 70
     1
102
RTVSPropertyOp10
 70
     1
102
RTVSPropertyOp11
 70
     1
102
RTVSPropertyOp12
 70
     1
102
RTVSPropertyOp13
 70
     1
102
RTVSPropertyOp14
 70
     1
102
RTVSPropertyOp15
 70
     1
102
RTVSPropertyOp16
 70
     1
102
RTVSPropertyOp17
 70
     1
102
RTVSPropertyOp18
 70
     1
102
RTVSPropertyOp19
 70
     1
102
RTVSPropertyOp20
 70
     1
102
RTVSPropertyOp21
 70
     1
102
RTVSPropertyOp22
 70
     1
102
RTVSPropertyOp23
 70
     1
102
RTVSPropertyOp24
 70
     1
102
RTVSPropertyOp25
 70
     1
102
RTVSPropertyOp26
 70
     1
102
RTVSPropertyOp27
 70
     1
102
RTVSPropertyOp28
 70
     1
102
RTVSPropertyOp29
 70
     1
102
RTVSPropertyOp30
 70
     1
102
RTVSPropertyOp31
 70
     1
102
RTVSPropertyOp32
 70
     1
102
RTVSPropertyOp33
 70
     1
102
RTVSPropertyOp34
 70
     1
102
RTVSPropertyOp35
 70
     1
102
RTVSPropertyOp36
 70
     1
102
RTVSPropertyOp37
 70
     1
102
RTVSPropertyOp38
 70
     1
102
RTVSPropertyOp39
 70
     1
102
RTVSPropertyOp40
 70
     1
102
RTVSPropertyOp41
 70
     1
102
RTVSPropertyOp42
 70
     1
102
RTVSPropertyOp43
 70
     1
102
RTVSPropertyOp44
 70
     1
102
RTVSPropertyOp45
 70
     1
102
RTVSPropertyOp46
 70
     1
102
RTVSPropertyOp47
 70
     1
102
RTVSPropertyOp48
 70
     1
102
RTVSPropertyOp49
 70
     1
102
RTVSPropertyOp50
 70
     1
102
RTVSPropertyOp51
 70
     0
102
RTVSPropertyOp52
 70
     0
102
RTVSPropertyOp53
 70
     1
102
RTVSPropertyOp54
 70
     1
102
RTVSPropertyOp55
 70
     1
102
RTVSPropertyOp56
 70
     1
102
RTVSPropertyOp57
 70
     1
102
RTVSPost2010Prop28
280
     0
102
RTVSPost2010PropOp28
 70
     1
102
RTVSPost2010Prop29
280
     1
102
RTVSPost2010PropOp29
 70
     1
102
RTVSPost2010Prop30
280
     1
102
RTVSPost2010PropOp30
 70
     1
102
RTVSPost2010Prop31
280
     0
102
RTVSPost2010PropOp31
 70
     1
102
RTVSPost2010Prop32
280
     0
102
RTVSPost2010PropOp32
 70
     1
102
RTVSPost2010Prop33
280
     0
102
RTVSPost2010PropOp33
 70
     1
102
RTVSPost2010Prop34
280
     0
102
RTVSPost2010PropOp34
 70
     1
102
RTVSPost2010Prop35
280
     0
102
RTVSPost2010PropOp35
 70
     1
102
RTVSPost2010Prop36
280
     0
102
RTVSPost2010PropOp36
 70
     1
102
RTVSPost2010Prop37
 90
       50
102
RTVSPost2010PropOp37
 70
     1
102
RTVSPost2010Prop38
140
0.0
102
RTVSPost2010PropOp38
 70
     1
102
RTVSPost2010Prop39
140
1.0
102
RTVSPost2010PropOp39
 70
     1
102
RTVSPost2010Prop40
 90
        0
102
RTVSPost2010PropOp40
 70
     1
102
RTVSPost2010Prop41ColorIndex
 90
       18
102
RTVSPost2010Prop41ColorRGB
 90
        0
102
RTVSPost2010PropOp41
 70
     1
102
RTVSPost2010Prop42
 90
       50
102
RTVSPost2010PropOp42
 70
     1
102
RTVSPost2010Prop43
 90
        3
102
RTVSPost2010PropOp43
 70
     1
102
RTVSPost2010Prop44ColorIndex
 90
        5
102
RTVSPost2010Prop44ColorRGB
 90
      255
102
RTVSPost2010PropOp44
 70
     1
102
RTVSPost2010Prop45
280
     0
102
RTVSPost2010PropOp45
 70
     1
102
RTVSPost2010Prop46
 90
       50
102
RTVSPost2010PropOp46
 70
     1
102
RTVSPost2010Prop47
 90
       50
102
RTVSPost2010PropOp47
 70
     1
102
RTVSPost2010Prop48
 90
       50
102
RTVSPost2010PropOp48
 70
     1
102
RTVSPost2010Prop49
280
     0
102
RTVSPost2010PropOp49
 70
     1
102
RTVSPost2010Prop50
 90
       50
102
RTVSPost2010PropOp50
 70
     1
102
RTVSPost2010Prop51ColorIndex
 90
      256
102
RTVSPost2010Prop51ColorRGB
 90
-16777216
102
RTVSPost2010PropOp51
 70
     0
102
RTVSPost2010Prop52
140
1.0
102
RTVSPost2010PropOp52
 70
     0
102
RTVSPost2010Prop53
 90
        2
102
RTVSPost2010PropOp53
 70
     1
102
RTVSPost2010Prop54
  1
strokes_ogs.tif
102
RTVSPost2010PropOp54
 70
     1
102
RTVSPost2010Prop55
280
     0
102
RTVSPost2010PropOp55
 70
     1
102
RTVSPost2010Prop56
140
1.0
102
RTVSPost2010PropOp56
 70
     1
102
RTVSPost2010Prop57
140
1.0
102
RTVSPost2010PropOp57
 70
     1
  0
XRECORD
  5
15F
102
{ACAD_REACTORS
330
15E
102
}
330
15E
100
AcDbXrecord
280
     1
102
RTVSPropertyOp0
 70
     0
102
RTVSPropertyOp1
 70
     0
102
RTVSPropertyOp2
 70
     0
102
RTVSPropertyOp3
 70
     0
102
RTVSPropertyOp4
 70
     0
102
RTVSPropertyOp5
 70
     0
102
RTVSPropertyOp6
 70
     0
102
RTVSPropertyOp7
 70
     0
102
RTVSPropertyOp8
 70
     0
102
RTVSPropertyOp9
 70
     0
102
RTVSPropertyOp10
 70
     0
102
RTVSPropertyOp11
 70
     0
102
RTVSPropertyOp12
 70
     0
102
RTVSPropertyOp13
 70
     0
102
RTVSPropertyOp14
 70
     2
102
RTVSPropertyOp15
 70
     0
102
RTVSPropertyOp16
 70
     0
102
RTVSPropertyOp17
 70
     0
102
RTVSPropertyOp18
 70
     0
102
RTVSPropertyOp19
 70
     0
102
RTVSPropertyOp20
 70
     0
102
RTVSPropertyOp21
 70
     0
102
RTVSPropertyOp22
 70
     0
102
RTVSPropertyOp23
 70
     0
102
RTVSPropertyOp24
 70
     0
102
RTVSPropertyOp25
 70
     0
102
RTVSPropertyOp26
 70
     0
102
RTVSPropertyOp27
 70
     0
102
RTVSPropertyOp28
 70
     0
102
RTVSPropertyOp29
 70
     0
102
RTVSPropertyOp30
 70
     0
102
RTVSPropertyOp31
 70
     0
102
RTVSPropertyOp32
 70
     0
102
RTVSPropertyOp33
 70
     0
102
RTVSPropertyOp34
 70
     0
102
RTVSPropertyOp35
 70
     0
102
RTVSPropertyOp36
 70
     0
102
RTVSPropertyOp37
 70
     0
102
RTVSPropertyOp38
 70
     0
102
RTVSPropertyOp39
 70
     0
102
RTVSPropertyOp40
 70
     0
102
RTVSPropertyOp41
 70
     0
102
RTVSPropertyOp42
 70
     0
102
RTVSPropertyOp43
 70
     0
102
RTVSPropertyOp44
 70
     0
102
RTVSPropertyOp45
 70
     0
102
RTVSPropertyOp46
 70
     0
102
RTVSPropertyOp47
 70
     0
102
RTVSPropertyOp48
 70
     0
102
RTVSPropertyOp49
 70
     0
102
RTVSPropertyOp50
 70
     0
102
RTVSPropertyOp51
 70
     0
102
RTVSPropertyOp52
 70
     0
102
RTVSPropertyOp53
 70
     0
102
RTVSPropertyOp54
 70
     0
102
RTVSPropertyOp55
 70
     0
102
RTVSPropertyOp56
 70
     0
102
RTVSPropertyOp57
 70
     0
102
RTVSPost2010Prop28
280
     0
102
RTVSPost2010PropOp28
 70
     0
102
RTVSPost2010Prop29
280
     1
102
RTVSPost2010PropOp29
 70
     0
102
RTVSPost2010Prop30
280
     1
102
RTVSPost2010PropOp30
 70
     0
102
RTVSPost2010Prop31
280
     0
102
RTVSPost2010PropOp31
 70
     0
102
RTVSPost2010Prop32
280
     0
102
RTVSPost2010PropOp32
 70
     0
102
RTVSPost2010Prop33
280
     0
102
RTVSPost2010PropOp33
 70
     0
102
RTVSPost2010Prop34
280
     0
102
RTVSPost2010PropOp34
 70
     0
102
RTVSPost2010Prop35
280
     0
102
RTVSPost2010PropOp35
 70
     0
102
RTVSPost2010Prop36
280
     0
102
RTVSPost2010PropOp36
 70
     0
102
RTVSPost2010Prop37
 90
       50
102
RTVSPost2010PropOp37
 70
     0
102
RTVSPost2010Prop38
140
0.0
102
RTVSPost2010PropOp38
 70
     0
102
RTVSPost2010Prop39
140
1.0
102
RTVSPost2010PropOp39
 70
     0
102
RTVSPost2010Prop40
 90
        0
102
RTVSPost2010PropOp40
 70
     0
102
RTVSPost2010Prop41ColorIndex
 90
       18
102
RTVSPost2010Prop41ColorRGB
 90
        0
102
RTVSPost2010PropOp41
 70
     0
102
RTVSPost2010Prop42
 90
       50
102
RTVSPost2010PropOp42
 70
     0
102
RTVSPost2010Prop43
 90
        3
102
RTVSPost2010PropOp43
 70
     0
102
RTVSPost2010Prop44ColorIndex
 90
        5
102
RTVSPost2010Prop44ColorRGB
 90
      255
102
RTVSPost2010PropOp44
 70
     0
102
RTVSPost2010Prop45
280
     0
102
RTVSPost2010PropOp45
 70
     0
102
RTVSPost2010Prop46
 90
       50
102
RTVSPost2010PropOp46
 70
     0
102
RTVSPost2010Prop47
 90
       50
102
RTVSPost2010PropOp47
 70
     0
102
RTVSPost2010Prop48
 90
       50
102
RTVSPost2010PropOp48
 70
     0
102
RTVSPost2010Prop49
280
     0
102
RTVSPost2010PropOp49
 70
     0
102
RTVSPost2010Prop50
 90
       50
102
RTVSPost2010PropOp50
 70
     0
102
RTVSPost2010Prop51ColorIndex
 90
      256
102
RTVSPost2010Prop51ColorRGB
 90
-16777216
102
RTVSPost2010PropOp51
 70
     0
102
RTVSPost2010Prop52
140
1.0
102
RTVSPost2010PropOp52
 70
     0
102
RTVSPost2010Prop53
 90
        2
102
RTVSPost2010PropOp53
 70
     0
102
RTVSPost2010Prop54
  1
strokes_ogs.tif
102
RTVSPost2010PropOp54
 70
     0
102
RTVSPost2010Prop55
280
     0
102
RTVSPost2010PropOp55
 70
     0
102
RTVSPost2010Prop56
140
1.0
102
RTVSPost2010PropOp56
 70
     0
102
RTVSPost2010Prop57
140
1.0
102
RTVSPost2010PropOp57
 70
     0
  0
XRECORD
  5
157
102
{ACAD_REACTORS
330
156
102
}
330
156
100
AcDbXrecord
280
     1
102
RTVSPropertyOp0
 70
     1
102
RTVSPropertyOp1
 70
     1
102
RTVSPropertyOp2
 70
     1
102
RTVSPropertyOp3
 70
     1
102
RTVSPropertyOp4
 70
     1
102
RTVSPropertyOp5
 70
     1
102
RTVSPropertyOp6
 70
     1
102
RTVSPropertyOp7
 70
     1
102
RTVSPropertyOp8
 70
     1
102
RTVSPropertyOp9
 70
     1
102
RTVSPropertyOp10
 70
     1
102
RTVSPropertyOp11
 70
     1
102
RTVSPropertyOp12
 70
     1
102
RTVSPropertyOp13
 70
     1
102
RTVSPropertyOp14
 70
     1
102
RTVSPropertyOp15
 70
     1
102
RTVSPropertyOp16
 70
     1
102
RTVSPropertyOp17
 70
     1
102
RTVSPropertyOp18
 70
     1
102
RTVSPropertyOp19
 70
     1
102
RTVSPropertyOp20
 70
     1
102
RTVSPropertyOp21
 70
     1
102
RTVSPropertyOp22
 70
     1
102
RTVSPropertyOp23
 70
     1
102
RTVSPropertyOp24
 70
     1
102
RTVSPropertyOp25
 70
     1
102
RTVSPropertyOp26
 70
     1
102
RTVSPropertyOp27
 70
     1
102
RTVSPropertyOp28
 70
     1
102
RTVSPropertyOp29
 70
     1
102
RTVSPropertyOp30
 70
     1
102
RTVSPropertyOp31
 70
     1
102
RTVSPropertyOp32
 70
     1
102
RTVSPropertyOp33
 70
     1
102
RTVSPropertyOp34
 70
     1
102
RTVSPropertyOp35
 70
     1
102
RTVSPropertyOp36
 70
     1
102
RTVSPropertyOp37
 70
     1
102
RTVSPropertyOp38
 70
     1
102
RTVSPropertyOp39
 70
     1
102
RTVSPropertyOp40
 70
     1
102
RTVSPropertyOp41
 70
     1
102
RTVSPropertyOp42
 70
     1
102
RTVSPropertyOp43
 70
     1
102
RTVSPropertyOp44
 70
     1
102
RTVSPropertyOp45
 70
     1
102
RTVSPropertyOp46
 70
     1
102
RTVSPropertyOp47
 70
     1
102
RTVSPropertyOp48
 70
     1
102
RTVSPropertyOp49
 70
     1
102
RTVSPropertyOp50
 70
     1
102
RTVSPropertyOp51
 70
     0
102
RTVSPropertyOp52
 70
     0
102
RTVSPropertyOp53
 70
     1
102
RTVSPropertyOp54
 70
     1
102
RTVSPropertyOp55
 70
     1
102
RTVSPropertyOp56
 70
     1
102
RTVSPropertyOp57
 70
     1
102
RTVSPost2010Prop28
280
     0
102
RTVSPost2010PropOp28
 70
     1
102
RTVSPost2010Prop29
280
     1
102
RTVSPost2010PropOp29
 70
     1
102
RTVSPost2010Prop30
280
     1
102
RTVSPost2010PropOp30
 70
     1
102
RTVSPost2010Prop31
280
     0
102
RTVSPost2010PropOp31
 70
     1
102
RTVSPost2010Prop32
280
     0
102
RTVSPost2010PropOp32
 70
     1
102
RTVSPost2010Prop33
280
     0
102
RTVSPost2010PropOp33
 70
     1
102
RTVSPost2010Prop34
280
     0
102
RTVSPost2010PropOp34
 70
     1
102
RTVSPost2010Prop35
280
     0
102
RTVSPost2010PropOp35
 70
     1
102
RTVSPost2010Prop36
280
     0
102
RTVSPost2010PropOp36
 70
     1
102
RTVSPost2010Prop37
 90
       50
102
RTVSPost2010PropOp37
 70
     1
102
RTVSPost2010Prop38
140
0.0
102
RTVSPost2010PropOp38
 70
     1
102
RTVSPost2010Prop39
140
1.0
102
RTVSPost2010PropOp39
 70
     1
102
RTVSPost2010Prop40
 90
        0
102
RTVSPost2010PropOp40
 70
     1
102
RTVSPost2010Prop41ColorIndex
 90
       18
102
RTVSPost2010Prop41ColorRGB
 90
        0
102
RTVSPost2010PropOp41
 70
     1
102
RTVSPost2010Prop42
 90
       50
102
RTVSPost2010PropOp42
 70
     1
102
RTVSPost2010Prop43
 90
        3
102
RTVSPost2010PropOp43
 70
     1
102
RTVSPost2010Prop44ColorIndex
 90
        5
102
RTVSPost2010Prop44ColorRGB
 90
      255
102
RTVSPost2010PropOp44
 70
     1
102
RTVSPost2010Prop45
280
     0
102
RTVSPost2010PropOp45
 70
     1
102
RTVSPost2010Prop46
 90
       50
102
RTVSPost2010PropOp46
 70
     1
102
RTVSPost2010Prop47
 90
       50
102
RTVSPost2010PropOp47
 70
     1
102
RTVSPost2010Prop48
 90
       50
102
RTVSPost2010PropOp48
 70
     1
102
RTVSPost2010Prop49
280
     0
102
RTVSPost2010PropOp49
 70
     1
102
RTVSPost2010Prop50
 90
       50
102
RTVSPost2010PropOp50
 70
     1
102
RTVSPost2010Prop51ColorIndex
 90
      256
102
RTVSPost2010Prop51ColorRGB
 90
-16777216
102
RTVSPost2010PropOp51
 70
     0
102
RTVSPost2010Prop52
140
1.0
102
RTVSPost2010PropOp52
 70
     0
102
RTVSPost2010Prop53
 90
        2
102
RTVSPost2010PropOp53
 70
     1
102
RTVSPost2010Prop54
  1
strokes_ogs.tif
102
RTVSPost2010PropOp54
 70
     1
102
RTVSPost2010Prop55
280
     0
102
RTVSPost2010PropOp55
 70
     1
102
RTVSPost2010Prop56
140
1.0
102
RTVSPost2010PropOp56
 70
     1
102
RTVSPost2010Prop57
140
1.0
102
RTVSPost2010PropOp57
 70
     1
  0
XRECORD
  5
13D
102
{ACAD_REACTORS
330
13C
102
}
330
13C
100
AcDbXrecord
280
     1
102
RTVSPropertyOp0
 70
     1
102
RTVSPropertyOp1
 70
     1
102
RTVSPropertyOp2
 70
     1
102
RTVSPropertyOp3
 70
     1
102
RTVSPropertyOp4
 70
     1
102
RTVSPropertyOp5
 70
     1
102
RTVSPropertyOp6
 70
     1
102
RTVSPropertyOp7
 70
     1
102
RTVSPropertyOp8
 70
     1
102
RTVSPropertyOp9
 70
     1
102
RTVSPropertyOp10
 70
     1
102
RTVSPropertyOp11
 70
     1
102
RTVSPropertyOp12
 70
     1
102
RTVSPropertyOp13
 70
     1
102
RTVSPropertyOp14
 70
     1
102
RTVSPropertyOp15
 70
     1
102
RTVSPropertyOp16
 70
     1
102
RTVSPropertyOp17
 70
     1
102
RTVSPropertyOp18
 70
     1
102
RTVSPropertyOp19
 70
     1
102
RTVSPropertyOp20
 70
     1
102
RTVSPropertyOp21
 70
     1
102
RTVSPropertyOp22
 70
     1
102
RTVSPropertyOp23
 70
     1
102
RTVSPropertyOp24
 70
     1
102
RTVSPropertyOp25
 70
     1
102
RTVSPropertyOp26
 70
     1
102
RTVSPropertyOp27
 70
     1
102
RTVSPropertyOp28
 70
     1
102
RTVSPropertyOp29
 70
     1
102
RTVSPropertyOp30
 70
     1
102
RTVSPropertyOp31
 70
     1
102
RTVSPropertyOp32
 70
     1
102
RTVSPropertyOp33
 70
     1
102
RTVSPropertyOp34
 70
     1
102
RTVSPropertyOp35
 70
     1
102
RTVSPropertyOp36
 70
     1
102
RTVSPropertyOp37
 70
     1
102
RTVSPropertyOp38
 70
     1
102
RTVSPropertyOp39
 70
     1
102
RTVSPropertyOp40
 70
     1
102
RTVSPropertyOp41
 70
     1
102
RTVSPropertyOp42
 70
     1
102
RTVSPropertyOp43
 70
     1
102
RTVSPropertyOp44
 70
     1
102
RTVSPropertyOp45
 70
     1
102
RTVSPropertyOp46
 70
     1
102
RTVSPropertyOp47
 70
     1
102
RTVSPropertyOp48
 70
     1
102
RTVSPropertyOp49
 70
     1
102
RTVSPropertyOp50
 70
     1
102
RTVSPropertyOp51
 70
     0
102
RTVSPropertyOp52
 70
     0
102
RTVSPropertyOp53
 70
     1
102
RTVSPropertyOp54
 70
     1
102
RTVSPropertyOp55
 70
     1
102
RTVSPropertyOp56
 70
     1
102
RTVSPropertyOp57
 70
     1
102
RTVSPost2010Prop28
280
     0
102
RTVSPost2010PropOp28
 70
     1
102
RTVSPost2010Prop29
280
     1
102
RTVSPost2010PropOp29
 70
     1
102
RTVSPost2010Prop30
280
     1
102
RTVSPost2010PropOp30
 70
     1
102
RTVSPost2010Prop31
280
     0
102
RTVSPost2010PropOp31
 70
     1
102
RTVSPost2010Prop32
280
     0
102
RTVSPost2010PropOp32
 70
     1
102
RTVSPost2010Prop33
280
     0
102
RTVSPost2010PropOp33
 70
     1
102
RTVSPost2010Prop34
280
     0
102
RTVSPost2010PropOp34
 70
     1
102
RTVSPost2010Prop35
280
     0
102
RTVSPost2010PropOp35
 70
     1
102
RTVSPost2010Prop36
280
     0
102
RTVSPost2010PropOp36
 70
     1
102
RTVSPost2010Prop37
 90
       50
102
RTVSPost2010PropOp37
 70
     1
102
RTVSPost2010Prop38
140
0.0
102
RTVSPost2010PropOp38
 70
     1
102
RTVSPost2010Prop39
140
1.0
102
RTVSPost2010PropOp39
 70
     1
102
RTVSPost2010Prop40
 90
        0
102
RTVSPost2010PropOp40
 70
     1
102
RTVSPost2010Prop41ColorIndex
 90
       18
102
RTVSPost2010Prop41ColorRGB
 90
        0
102
RTVSPost2010PropOp41
 70
     1
102
RTVSPost2010Prop42
 90
       50
102
RTVSPost2010PropOp42
 70
     1
102
RTVSPost2010Prop43
 90
        3
102
RTVSPost2010PropOp43
 70
     1
102
RTVSPost2010Prop44ColorIndex
 90
        5
102
RTVSPost2010Prop44ColorRGB
 90
      255
102
RTVSPost2010PropOp44
 70
     1
102
RTVSPost2010Prop45
280
     0
102
RTVSPost2010PropOp45
 70
     1
102
RTVSPost2010Prop46
 90
       50
102
RTVSPost2010PropOp46
 70
     1
102
RTVSPost2010Prop47
 90
       50
102
RTVSPost2010PropOp47
 70
     1
102
RTVSPost2010Prop48
 90
       50
102
RTVSPost2010PropOp48
 70
     1
102
RTVSPost2010Prop49
280
     0
102
RTVSPost2010PropOp49
 70
     1
102
RTVSPost2010Prop50
 90
       50
102
RTVSPost2010PropOp50
 70
     1
102
RTVSPost2010Prop51ColorIndex
 90
      256
102
RTVSPost2010Prop51ColorRGB
 90
-16777216
102
RTVSPost2010PropOp51
 70
     0
102
RTVSPost2010Prop52
140
1.0
102
RTVSPost2010PropOp52
 70
     0
102
RTVSPost2010Prop53
 90
        2
102
RTVSPost2010PropOp53
 70
     1
102
RTVSPost2010Prop54
  1
strokes_ogs.tif
102
RTVSPost2010PropOp54
 70
     1
102
RTVSPost2010Prop55
280
     0
102
RTVSPost2010PropOp55
 70
     1
102
RTVSPost2010Prop56
140
1.0
102
RTVSPost2010PropOp56
 70
     1
102
RTVSPost2010Prop57
140
1.0
102
RTVSPost2010PropOp57
 70
     1
  0
XRECORD
  5
13F
102
{ACAD_REACTORS
330
13E
102
}
330
13E
100
AcDbXrecord
280
     1
102
RTVSPropertyOp0
 70
     1
102
RTVSPropertyOp1
 70
     1
102
RTVSPropertyOp2
 70
     1
102
RTVSPropertyOp3
 70
     1
102
RTVSPropertyOp4
 70
     1
102
RTVSPropertyOp5
 70
     1
102
RTVSPropertyOp6
 70
     1
102
RTVSPropertyOp7
 70
     1
102
RTVSPropertyOp8
 70
     1
102
RTVSPropertyOp9
 70
     1
102
RTVSPropertyOp10
 70
     1
102
RTVSPropertyOp11
 70
     1
102
RTVSPropertyOp12
 70
     1
102
RTVSPropertyOp13
 70
     1
102
RTVSPropertyOp14
 70
     1
102
RTVSPropertyOp15
 70
     1
102
RTVSPropertyOp16
 70
     1
102
RTVSPropertyOp17
 70
     1
102
RTVSPropertyOp18
 70
     1
102
RTVSPropertyOp19
 70
     1
102
RTVSPropertyOp20
 70
     1
102
RTVSPropertyOp21
 70
     1
102
RTVSPropertyOp22
 70
     1
102
RTVSPropertyOp23
 70
     1
102
RTVSPropertyOp24
 70
     1
102
RTVSPropertyOp25
 70
     1
102
RTVSPropertyOp26
 70
     1
102
RTVSPropertyOp27
 70
     1
102
RTVSPropertyOp28
 70
     1
102
RTVSPropertyOp29
 70
     1
102
RTVSPropertyOp30
 70
     1
102
RTVSPropertyOp31
 70
     1
102
RTVSPropertyOp32
 70
     1
102
RTVSPropertyOp33
 70
     1
102
RTVSPropertyOp34
 70
     1
102
RTVSPropertyOp35
 70
     1
102
RTVSPropertyOp36
 70
     1
102
RTVSPropertyOp37
 70
     1
102
RTVSPropertyOp38
 70
     1
102
RTVSPropertyOp39
 70
     1
102
RTVSPropertyOp40
 70
     1
102
RTVSPropertyOp41
 70
     1
102
RTVSPropertyOp42
 70
     1
102
RTVSPropertyOp43
 70
     1
102
RTVSPropertyOp44
 70
     1
102
RTVSPropertyOp45
 70
     1
102
RTVSPropertyOp46
 70
     1
102
RTVSPropertyOp47
 70
     1
102
RTVSPropertyOp48
 70
     1
102
RTVSPropertyOp49
 70
     1
102
RTVSPropertyOp50
 70
     1
102
RTVSPropertyOp51
 70
     0
102
RTVSPropertyOp52
 70
     0
102
RTVSPropertyOp53
 70
     1
102
RTVSPropertyOp54
 70
     1
102
RTVSPropertyOp55
 70
     1
102
RTVSPropertyOp56
 70
     1
102
RTVSPropertyOp57
 70
     1
102
RTVSPost2010Prop28
280
     0
102
RTVSPost2010PropOp28
 70
     1
102
RTVSPost2010Prop29
280
     1
102
RTVSPost2010PropOp29
 70
     1
102
RTVSPost2010Prop30
280
     1
102
RTVSPost2010PropOp30
 70
     1
102
RTVSPost2010Prop31
280
     0
102
RTVSPost2010PropOp31
 70
     1
102
RTVSPost2010Prop32
280
     0
102
RTVSPost2010PropOp32
 70
     1
102
RTVSPost2010Prop33
280
     0
102
RTVSPost2010PropOp33
 70
     1
102
RTVSPost2010Prop34
280
     0
102
RTVSPost2010PropOp34
 70
     1
102
RTVSPost2010Prop35
280
     0
102
RTVSPost2010PropOp35
 70
     1
102
RTVSPost2010Prop36
280
     0
102
RTVSPost2010PropOp36
 70
     1
102
RTVSPost2010Prop37
 90
       50
102
RTVSPost2010PropOp37
 70
     1
102
RTVSPost2010Prop38
140
0.0
102
RTVSPost2010PropOp38
 70
     1
102
RTVSPost2010Prop39
140
1.0
102
RTVSPost2010PropOp39
 70
     1
102
RTVSPost2010Prop40
 90
        0
102
RTVSPost2010PropOp40
 70
     1
102
RTVSPost2010Prop41ColorIndex
 90
       18
102
RTVSPost2010Prop41ColorRGB
 90
        0
102
RTVSPost2010PropOp41
 70
     1
102
RTVSPost2010Prop42
 90
       50
102
RTVSPost2010PropOp42
 70
     1
102
RTVSPost2010Prop43
 90
        3
102
RTVSPost2010PropOp43
 70
     1
102
RTVSPost2010Prop44ColorIndex
 90
        5
102
RTVSPost2010Prop44ColorRGB
 90
      255
102
RTVSPost2010PropOp44
 70
     1
102
RTVSPost2010Prop45
280
     0
102
RTVSPost2010PropOp45
 70
     1
102
RTVSPost2010Prop46
 90
       50
102
RTVSPost2010PropOp46
 70
     1
102
RTVSPost2010Prop47
 90
       50
102
RTVSPost2010PropOp47
 70
     1
102
RTVSPost2010Prop48
 90
       50
102
RTVSPost2010PropOp48
 70
     1
102
RTVSPost2010Prop49
280
     0
102
RTVSPost2010PropOp49
 70
     1
102
RTVSPost2010Prop50
 90
       50
102
RTVSPost2010PropOp50
 70
     1
102
RTVSPost2010Prop51ColorIndex
 90
      256
102
RTVSPost2010Prop51ColorRGB
 90
-16777216
102
RTVSPost2010PropOp51
 70
     0
102
RTVSPost2010Prop52
140
1.0
102
RTVSPost2010PropOp52
 70
     0
102
RTVSPost2010Prop53
 90
        2
102
RTVSPost2010PropOp53
 70
     1
102
RTVSPost2010Prop54
  1
strokes_ogs.tif
102
RTVSPost2010PropOp54
 70
     1
102
RTVSPost2010Prop55
280
     0
102
RTVSPost2010PropOp55
 70
     1
102
RTVSPost2010Prop56
140
1.0
102
RTVSPost2010PropOp56
 70
     1
102
RTVSPost2010Prop57
140
1.0
102
RTVSPost2010PropOp57
 70
     1
  0
XRECORD
  5
141
102
{ACAD_REACTORS
330
140
102
}
330
140
100
AcDbXrecord
280
     1
102
RTVSPropertyOp0
 70
     1
102
RTVSPropertyOp1
 70
     1
102
RTVSPropertyOp2
 70
     1
102
RTVSPropertyOp3
 70
     1
102
RTVSPropertyOp4
 70
     1
102
RTVSPropertyOp5
 70
     1
102
RTVSPropertyOp6
 70
     1
102
RTVSPropertyOp7
 70
     1
102
RTVSPropertyOp8
 70
     1
102
RTVSPropertyOp9
 70
     1
102
RTVSPropertyOp10
 70
     1
102
RTVSPropertyOp11
 70
     1
102
RTVSPropertyOp12
 70
     1
102
RTVSPropertyOp13
 70
     1
102
RTVSPropertyOp14
 70
     1
102
RTVSPropertyOp15
 70
     1
102
RTVSPropertyOp16
 70
     1
102
RTVSPropertyOp17
 70
     1
102
RTVSPropertyOp18
 70
     1
102
RTVSPropertyOp19
 70
     1
102
RTVSPropertyOp20
 70
     1
102
RTVSPropertyOp21
 70
     1
102
RTVSPropertyOp22
 70
     1
102
RTVSPropertyOp23
 70
     1
102
RTVSPropertyOp24
 70
     1
102
RTVSPropertyOp25
 70
     1
102
RTVSPropertyOp26
 70
     1
102
RTVSPropertyOp27
 70
     1
102
RTVSPropertyOp28
 70
     1
102
RTVSPropertyOp29
 70
     1
102
RTVSPropertyOp30
 70
     1
102
RTVSPropertyOp31
 70
     1
102
RTVSPropertyOp32
 70
     1
102
RTVSPropertyOp33
 70
     1
102
RTVSPropertyOp34
 70
     1
102
RTVSPropertyOp35
 70
     1
102
RTVSPropertyOp36
 70
     1
102
RTVSPropertyOp37
 70
     1
102
RTVSPropertyOp38
 70
     1
102
RTVSPropertyOp39
 70
     1
102
RTVSPropertyOp40
 70
     1
102
RTVSPropertyOp41
 70
     1
102
RTVSPropertyOp42
 70
     1
102
RTVSPropertyOp43
 70
     1
102
RTVSPropertyOp44
 70
     1
102
RTVSPropertyOp45
 70
     1
102
RTVSPropertyOp46
 70
     1
102
RTVSPropertyOp47
 70
     1
102
RTVSPropertyOp48
 70
     1
102
RTVSPropertyOp49
 70
     1
102
RTVSPropertyOp50
 70
     1
102
RTVSPropertyOp51
 70
     0
102
RTVSPropertyOp52
 70
     0
102
RTVSPropertyOp53
 70
     1
102
RTVSPropertyOp54
 70
     1
102
RTVSPropertyOp55
 70
     1
102
RTVSPropertyOp56
 70
     1
102
RTVSPropertyOp57
 70
     1
102
RTVSPost2010Prop28
280
     0
102
RTVSPost2010PropOp28
 70
     1
102
RTVSPost2010Prop29
280
     1
102
RTVSPost2010PropOp29
 70
     1
102
RTVSPost2010Prop30
280
     1
102
RTVSPost2010PropOp30
 70
     1
102
RTVSPost2010Prop31
280
     0
102
RTVSPost2010PropOp31
 70
     1
102
RTVSPost2010Prop32
280
     0
102
RTVSPost2010PropOp32
 70
     1
102
RTVSPost2010Prop33
280
     0
102
RTVSPost2010PropOp33
 70
     1
102
RTVSPost2010Prop34
280
     0
102
RTVSPost2010PropOp34
 70
     1
102
RTVSPost2010Prop35
280
     0
102
RTVSPost2010PropOp35
 70
     1
102
RTVSPost2010Prop36
280
     0
102
RTVSPost2010PropOp36
 70
     1
102
RTVSPost2010Prop37
 90
       50
102
RTVSPost2010PropOp37
 70
     1
102
RTVSPost2010Prop38
140
0.0
102
RTVSPost2010PropOp38
 70
     1
102
RTVSPost2010Prop39
140
1.0
102
RTVSPost2010PropOp39
 70
     1
102
RTVSPost2010Prop40
 90
        0
102
RTVSPost2010PropOp40
 70
     1
102
RTVSPost2010Prop41ColorIndex
 90
       18
102
RTVSPost2010Prop41ColorRGB
 90
        0
102
RTVSPost2010PropOp41
 70
     1
102
RTVSPost2010Prop42
 90
       50
102
RTVSPost2010PropOp42
 70
     1
102
RTVSPost2010Prop43
 90
        3
102
RTVSPost2010PropOp43
 70
     1
102
RTVSPost2010Prop44ColorIndex
 90
        5
102
RTVSPost2010Prop44ColorRGB
 90
      255
102
RTVSPost2010PropOp44
 70
     1
102
RTVSPost2010Prop45
280
     0
102
RTVSPost2010PropOp45
 70
     1
102
RTVSPost2010Prop46
 90
       50
102
RTVSPost2010PropOp46
 70
     1
102
RTVSPost2010Prop47
 90
       50
102
RTVSPost2010PropOp47
 70
     1
102
RTVSPost2010Prop48
 90
       50
102
RTVSPost2010PropOp48
 70
     1
102
RTVSPost2010Prop49
280
     0
102
RTVSPost2010PropOp49
 70
     1
102
RTVSPost2010Prop50
 90
       50
102
RTVSPost2010PropOp50
 70
     1
102
RTVSPost2010Prop51ColorIndex
 90
      256
102
RTVSPost2010Prop51ColorRGB
 90
-16777216
102
RTVSPost2010PropOp51
 70
     0
102
RTVSPost2010Prop52
140
1.0
102
RTVSPost2010PropOp52
 70
     0
102
RTVSPost2010Prop53
 90
        2
102
RTVSPost2010PropOp53
 70
     1
102
RTVSPost2010Prop54
  1
strokes_ogs.tif
102
RTVSPost2010PropOp54
 70
     1
102
RTVSPost2010Prop55
280
     0
102
RTVSPost2010PropOp55
 70
     1
102
RTVSPost2010Prop56
140
1.0
102
RTVSPost2010PropOp56
 70
     1
102
RTVSPost2010Prop57
140
1.0
102
RTVSPost2010PropOp57
 70
     1
  0
XRECORD
  5
143
102
{ACAD_REACTORS
330
142
102
}
330
142
100
AcDbXrecord
280
     1
102
RTVSPropertyOp0
 70
     1
102
RTVSPropertyOp1
 70
     1
102
RTVSPropertyOp2
 70
     1
102
RTVSPropertyOp3
 70
     1
102
RTVSPropertyOp4
 70
     1
102
RTVSPropertyOp5
 70
     1
102
RTVSPropertyOp6
 70
     1
102
RTVSPropertyOp7
 70
     1
102
RTVSPropertyOp8
 70
     1
102
RTVSPropertyOp9
 70
     1
102
RTVSPropertyOp10
 70
     1
102
RTVSPropertyOp11
 70
     1
102
RTVSPropertyOp12
 70
     1
102
RTVSPropertyOp13
 70
     1
102
RTVSPropertyOp14
 70
     1
102
RTVSPropertyOp15
 70
     1
102
RTVSPropertyOp16
 70
     1
102
RTVSPropertyOp17
 70
     1
102
RTVSPropertyOp18
 70
     1
102
RTVSPropertyOp19
 70
     1
102
RTVSPropertyOp20
 70
     1
102
RTVSPropertyOp21
 70
     1
102
RTVSPropertyOp22
 70
     1
102
RTVSPropertyOp23
 70
     1
102
RTVSPropertyOp24
 70
     1
102
RTVSPropertyOp25
 70
     1
102
RTVSPropertyOp26
 70
     1
102
RTVSPropertyOp27
 70
     1
102
RTVSPropertyOp28
 70
     1
102
RTVSPropertyOp29
 70
     1
102
RTVSPropertyOp30
 70
     1
102
RTVSPropertyOp31
 70
     1
102
RTVSPropertyOp32
 70
     1
102
RTVSPropertyOp33
 70
     1
102
RTVSPropertyOp34
 70
     1
102
RTVSPropertyOp35
 70
     1
102
RTVSPropertyOp36
 70
     1
102
RTVSPropertyOp37
 70
     1
102
RTVSPropertyOp38
 70
     1
102
RTVSPropertyOp39
 70
     1
102
RTVSPropertyOp40
 70
     1
102
RTVSPropertyOp41
 70
     1
102
RTVSPropertyOp42
 70
     1
102
RTVSPropertyOp43
 70
     1
102
RTVSPropertyOp44
 70
     1
102
RTVSPropertyOp45
 70
     1
102
RTVSPropertyOp46
 70
     1
102
RTVSPropertyOp47
 70
     1
102
RTVSPropertyOp48
 70
     1
102
RTVSPropertyOp49
 70
     1
102
RTVSPropertyOp50
 70
     1
102
RTVSPropertyOp51
 70
     0
102
RTVSPropertyOp52
 70
     0
102
RTVSPropertyOp53
 70
     1
102
RTVSPropertyOp54
 70
     1
102
RTVSPropertyOp55
 70
     1
102
RTVSPropertyOp56
 70
     1
102
RTVSPropertyOp57
 70
     1
102
RTVSPost2010Prop28
280
     0
102
RTVSPost2010PropOp28
 70
     1
102
RTVSPost2010Prop29
280
     1
102
RTVSPost2010PropOp29
 70
     1
102
RTVSPost2010Prop30
280
     1
102
RTVSPost2010PropOp30
 70
     1
102
RTVSPost2010Prop31
280
     0
102
RTVSPost2010PropOp31
 70
     1
102
RTVSPost2010Prop32
280
     0
102
RTVSPost2010PropOp32
 70
     1
102
RTVSPost2010Prop33
280
     0
102
RTVSPost2010PropOp33
 70
     1
102
RTVSPost2010Prop34
280
     0
102
RTVSPost2010PropOp34
 70
     1
102
RTVSPost2010Prop35
280
     0
102
RTVSPost2010PropOp35
 70
     1
102
RTVSPost2010Prop36
280
     0
102
RTVSPost2010PropOp36
 70
     1
102
RTVSPost2010Prop37
 90
       50
102
RTVSPost2010PropOp37
 70
     1
102
RTVSPost2010Prop38
140
0.0
102
RTVSPost2010PropOp38
 70
     1
102
RTVSPost2010Prop39
140
1.0
102
RTVSPost2010PropOp39
 70
     1
102
RTVSPost2010Prop40
 90
        0
102
RTVSPost2010PropOp40
 70
     1
102
RTVSPost2010Prop41ColorIndex
 90
       18
102
RTVSPost2010Prop41ColorRGB
 90
        0
102
RTVSPost2010PropOp41
 70
     1
102
RTVSPost2010Prop42
 90
       50
102
RTVSPost2010PropOp42
 70
     1
102
RTVSPost2010Prop43
 90
        3
102
RTVSPost2010PropOp43
 70
     1
102
RTVSPost2010Prop44ColorIndex
 90
        5
102
RTVSPost2010Prop44ColorRGB
 90
      255
102
RTVSPost2010PropOp44
 70
     1
102
RTVSPost2010Prop45
280
     0
102
RTVSPost2010PropOp45
 70
     1
102
RTVSPost2010Prop46
 90
       50
102
RTVSPost2010PropOp46
 70
     1
102
RTVSPost2010Prop47
 90
       50
102
RTVSPost2010PropOp47
 70
     1
102
RTVSPost2010Prop48
 90
       50
102
RTVSPost2010PropOp48
 70
     1
102
RTVSPost2010Prop49
280
     0
102
RTVSPost2010PropOp49
 70
     1
102
RTVSPost2010Prop50
 90
       50
102
RTVSPost2010PropOp50
 70
     1
102
RTVSPost2010Prop51ColorIndex
 90
      256
102
RTVSPost2010Prop51ColorRGB
 90
-16777216
102
RTVSPost2010PropOp51
 70
     0
102
RTVSPost2010Prop52
140
1.0
102
RTVSPost2010PropOp52
 70
     0
102
RTVSPost2010Prop53
 90
        2
102
RTVSPost2010PropOp53
 70
     1
102
RTVSPost2010Prop54
  1
strokes_ogs.tif
102
RTVSPost2010PropOp54
 70
     1
102
RTVSPost2010Prop55
280
     0
102
RTVSPost2010PropOp55
 70
     1
102
RTVSPost2010Prop56
140
1.0
102
RTVSPost2010PropOp56
 70
     1
102
RTVSPost2010Prop57
140
1.0
102
RTVSPost2010PropOp57
 70
     1
  0
XRECORD
  5
147
102
{ACAD_REACTORS
330
146
102
}
330
146
100
AcDbXrecord
280
     1
102
RTVSPropertyOp0
 70
     1
102
RTVSPropertyOp1
 70
     1
102
RTVSPropertyOp2
 70
     1
102
RTVSPropertyOp3
 70
     1
102
RTVSPropertyOp4
 70
     1
102
RTVSPropertyOp5
 70
     1
102
RTVSPropertyOp6
 70
     1
102
RTVSPropertyOp7
 70
     1
102
RTVSPropertyOp8
 70
     1
102
RTVSPropertyOp9
 70
     1
102
RTVSPropertyOp10
 70
     1
102
RTVSPropertyOp11
 70
     1
102
RTVSPropertyOp12
 70
     1
102
RTVSPropertyOp13
 70
     1
102
RTVSPropertyOp14
 70
     1
102
RTVSPropertyOp15
 70
     1
102
RTVSPropertyOp16
 70
     1
102
RTVSPropertyOp17
 70
     1
102
RTVSPropertyOp18
 70
     1
102
RTVSPropertyOp19
 70
     1
102
RTVSPropertyOp20
 70
     1
102
RTVSPropertyOp21
 70
     1
102
RTVSPropertyOp22
 70
     1
102
RTVSPropertyOp23
 70
     1
102
RTVSPropertyOp24
 70
     1
102
RTVSPropertyOp25
 70
     1
102
RTVSPropertyOp26
 70
     1
102
RTVSPropertyOp27
 70
     1
102
RTVSPropertyOp28
 70
     1
102
RTVSPropertyOp29
 70
     1
102
RTVSPropertyOp30
 70
     1
102
RTVSPropertyOp31
 70
     1
102
RTVSPropertyOp32
 70
     1
102
RTVSPropertyOp33
 70
     1
102
RTVSPropertyOp34
 70
     1
102
RTVSPropertyOp35
 70
     1
102
RTVSPropertyOp36
 70
     1
102
RTVSPropertyOp37
 70
     1
102
RTVSPropertyOp38
 70
     1
102
RTVSPropertyOp39
 70
     1
102
RTVSPropertyOp40
 70
     1
102
RTVSPropertyOp41
 70
     1
102
RTVSPropertyOp42
 70
     1
102
RTVSPropertyOp43
 70
     1
102
RTVSPropertyOp44
 70
     1
102
RTVSPropertyOp45
 70
     1
102
RTVSPropertyOp46
 70
     1
102
RTVSPropertyOp47
 70
     1
102
RTVSPropertyOp48
 70
     1
102
RTVSPropertyOp49
 70
     1
102
RTVSPropertyOp50
 70
     1
102
RTVSPropertyOp51
 70
     0
102
RTVSPropertyOp52
 70
     0
102
RTVSPropertyOp53
 70
     1
102
RTVSPropertyOp54
 70
     1
102
RTVSPropertyOp55
 70
     1
102
RTVSPropertyOp56
 70
     1
102
RTVSPropertyOp57
 70
     1
102
RTVSPost2010Prop28
280
     0
102
RTVSPost2010PropOp28
 70
     1
102
RTVSPost2010Prop29
280
     1
102
RTVSPost2010PropOp29
 70
     1
102
RTVSPost2010Prop30
280
     1
102
RTVSPost2010PropOp30
 70
     1
102
RTVSPost2010Prop31
280
     0
102
RTVSPost2010PropOp31
 70
     1
102
RTVSPost2010Prop32
280
     0
102
RTVSPost2010PropOp32
 70
     1
102
RTVSPost2010Prop33
280
     0
102
RTVSPost2010PropOp33
 70
     1
102
RTVSPost2010Prop34
280
     0
102
RTVSPost2010PropOp34
 70
     1
102
RTVSPost2010Prop35
280
     0
102
RTVSPost2010PropOp35
 70
     1
102
RTVSPost2010Prop36
280
     0
102
RTVSPost2010PropOp36
 70
     1
102
RTVSPost2010Prop37
 90
       50
102
RTVSPost2010PropOp37
 70
     1
102
RTVSPost2010Prop38
140
0.0
102
RTVSPost2010PropOp38
 70
     1
102
RTVSPost2010Prop39
140
1.0
102
RTVSPost2010PropOp39
 70
     1
102
RTVSPost2010Prop40
 90
        0
102
RTVSPost2010PropOp40
 70
     1
102
RTVSPost2010Prop41ColorIndex
 90
       18
102
RTVSPost2010Prop41ColorRGB
 90
        0
102
RTVSPost2010PropOp41
 70
     1
102
RTVSPost2010Prop42
 90
       50
102
RTVSPost2010PropOp42
 70
     1
102
RTVSPost2010Prop43
 90
        3
102
RTVSPost2010PropOp43
 70
     1
102
RTVSPost2010Prop44ColorIndex
 90
        5
102
RTVSPost2010Prop44ColorRGB
 90
      255
102
RTVSPost2010PropOp44
 70
     1
102
RTVSPost2010Prop45
280
     0
102
RTVSPost2010PropOp45
 70
     1
102
RTVSPost2010Prop46
 90
       50
102
RTVSPost2010PropOp46
 70
     1
102
RTVSPost2010Prop47
 90
       50
102
RTVSPost2010PropOp47
 70
     1
102
RTVSPost2010Prop48
 90
       50
102
RTVSPost2010PropOp48
 70
     1
102
RTVSPost2010Prop49
280
     0
102
RTVSPost2010PropOp49
 70
     1
102
RTVSPost2010Prop50
 90
       50
102
RTVSPost2010PropOp50
 70
     1
102
RTVSPost2010Prop51ColorIndex
 90
      256
102
RTVSPost2010Prop51ColorRGB
 90
-16777216
102
RTVSPost2010PropOp51
 70
     0
102
RTVSPost2010Prop52
140
1.0
102
RTVSPost2010PropOp52
 70
     0
102
RTVSPost2010Prop53
 90
        2
102
RTVSPost2010PropOp53
 70
     1
102
RTVSPost2010Prop54
  1
strokes_ogs.tif
102
RTVSPost2010PropOp54
 70
     1
102
RTVSPost2010Prop55
280
     0
102
RTVSPost2010PropOp55
 70
     1
102
RTVSPost2010Prop56
140
1.0
102
RTVSPost2010PropOp56
 70
     1
102
RTVSPost2010Prop57
140
1.0
102
RTVSPost2010PropOp57
 70
     1
  0
XRECORD
  5
15B
102
{ACAD_REACTORS
330
15A
102
}
330
15A
100
AcDbXrecord
280
     1
102
RTVSPropertyOp0
 70
     0
102
RTVSPropertyOp1
 70
     0
102
RTVSPropertyOp2
 70
     0
102
RTVSPropertyOp3
 70
     0
102
RTVSPropertyOp4
 70
     0
102
RTVSPropertyOp5
 70
     0
102
RTVSPropertyOp6
 70
     0
102
RTVSPropertyOp7
 70
     0
102
RTVSPropertyOp8
 70
     0
102
RTVSPropertyOp9
 70
     0
102
RTVSPropertyOp10
 70
     0
102
RTVSPropertyOp11
 70
     0
102
RTVSPropertyOp12
 70
     0
102
RTVSPropertyOp13
 70
     0
102
RTVSPropertyOp14
 70
     2
102
RTVSPropertyOp15
 70
     0
102
RTVSPropertyOp16
 70
     0
102
RTVSPropertyOp17
 70
     0
102
RTVSPropertyOp18
 70
     0
102
RTVSPropertyOp19
 70
     0
102
RTVSPropertyOp20
 70
     0
102
RTVSPropertyOp21
 70
     0
102
RTVSPropertyOp22
 70
     0
102
RTVSPropertyOp23
 70
     0
102
RTVSPropertyOp24
 70
     0
102
RTVSPropertyOp25
 70
     0
102
RTVSPropertyOp26
 70
     0
102
RTVSPropertyOp27
 70
     0
102
RTVSPropertyOp28
 70
     0
102
RTVSPropertyOp29
 70
     0
102
RTVSPropertyOp30
 70
     0
102
RTVSPropertyOp31
 70
     0
102
RTVSPropertyOp32
 70
     0
102
RTVSPropertyOp33
 70
     0
102
RTVSPropertyOp34
 70
     0
102
RTVSPropertyOp35
 70
     0
102
RTVSPropertyOp36
 70
     0
102
RTVSPropertyOp37
 70
     0
102
RTVSPropertyOp38
 70
     0
102
RTVSPropertyOp39
 70
     0
102
RTVSPropertyOp40
 70
     0
102
RTVSPropertyOp41
 70
     0
102
RTVSPropertyOp42
 70
     0
102
RTVSPropertyOp43
 70
     0
102
RTVSPropertyOp44
 70
     0
102
RTVSPropertyOp45
 70
     0
102
RTVSPropertyOp46
 70
     0
102
RTVSPropertyOp47
 70
     0
102
RTVSPropertyOp48
 70
     0
102
RTVSPropertyOp49
 70
     0
102
RTVSPropertyOp50
 70
     0
102
RTVSPropertyOp51
 70
     0
102
RTVSPropertyOp52
 70
     0
102
RTVSPropertyOp53
 70
     0
102
RTVSPropertyOp54
 70
     0
102
RTVSPropertyOp55
 70
     0
102
RTVSPropertyOp56
 70
     0
102
RTVSPropertyOp57
 70
     0
102
RTVSPost2010Prop28
280
     0
102
RTVSPost2010PropOp28
 70
     0
102
RTVSPost2010Prop29
280
     1
102
RTVSPost2010PropOp29
 70
     0
102
RTVSPost2010Prop30
280
     1
102
RTVSPost2010PropOp30
 70
     0
102
RTVSPost2010Prop31
280
     0
102
RTVSPost2010PropOp31
 70
     0
102
RTVSPost2010Prop32
280
     0
102
RTVSPost2010PropOp32
 70
     0
102
RTVSPost2010Prop33
280
     0
102
RTVSPost2010PropOp33
 70
     0
102
RTVSPost2010Prop34
280
     0
102
RTVSPost2010PropOp34
 70
     0
102
RTVSPost2010Prop35
280
     0
102
RTVSPost2010PropOp35
 70
     0
102
RTVSPost2010Prop36
280
     0
102
RTVSPost2010PropOp36
 70
     0
102
RTVSPost2010Prop37
 90
       50
102
RTVSPost2010PropOp37
 70
     0
102
RTVSPost2010Prop38
140
0.0
102
RTVSPost2010PropOp38
 70
     0
102
RTVSPost2010Prop39
140
1.0
102
RTVSPost2010PropOp39
 70
     0
102
RTVSPost2010Prop40
 90
        0
102
RTVSPost2010PropOp40
 70
     0
102
RTVSPost2010Prop41ColorIndex
 90
       18
102
RTVSPost2010Prop41ColorRGB
 90
        0
102
RTVSPost2010PropOp41
 70
     0
102
RTVSPost2010Prop42
 90
       50
102
RTVSPost2010PropOp42
 70
     0
102
RTVSPost2010Prop43
 90
        3
102
RTVSPost2010PropOp43
 70
     0
102
RTVSPost2010Prop44ColorIndex
 90
        5
102
RTVSPost2010Prop44ColorRGB
 90
      255
102
RTVSPost2010PropOp44
 70
     0
102
RTVSPost2010Prop45
280
     0
102
RTVSPost2010PropOp45
 70
     0
102
RTVSPost2010Prop46
 90
       50
102
RTVSPost2010PropOp46
 70
     0
102
RTVSPost2010Prop47
 90
       50
102
RTVSPost2010PropOp47
 70
     0
102
RTVSPost2010Prop48
 90
       50
102
RTVSPost2010PropOp48
 70
     0
102
RTVSPost2010Prop49
280
     0
102
RTVSPost2010PropOp49
 70
     0
102
RTVSPost2010Prop50
 90
       50
102
RTVSPost2010PropOp50
 70
     0
102
RTVSPost2010Prop51ColorIndex
 90
      256
102
RTVSPost2010Prop51ColorRGB
 90
-16777216
102
RTVSPost2010PropOp51
 70
     0
102
RTVSPost2010Prop52
140
1.0
102
RTVSPost2010PropOp52
 70
     0
102
RTVSPost2010Prop53
 90
        2
102
RTVSPost2010PropOp53
 70
     0
102
RTVSPost2010Prop54
  1
strokes_ogs.tif
102
RTVSPost2010PropOp54
 70
     0
102
RTVSPost2010Prop55
280
     0
102
RTVSPost2010PropOp55
 70
     0
102
RTVSPost2010Prop56
140
1.0
102
RTVSPost2010PropOp56
 70
     0
102
RTVSPost2010Prop57
140
1.0
102
RTVSPost2010PropOp57
 70
     0
  0
XRECORD
  5
155
102
{ACAD_REACTORS
330
154
102
}
330
154
100
AcDbXrecord
280
     1
102
RTVSPropertyOp0
 70
     1
102
RTVSPropertyOp1
 70
     1
102
RTVSPropertyOp2
 70
     1
102
RTVSPropertyOp3
 70
     1
102
RTVSPropertyOp4
 70
     1
102
RTVSPropertyOp5
 70
     1
102
RTVSPropertyOp6
 70
     1
102
RTVSPropertyOp7
 70
     1
102
RTVSPropertyOp8
 70
     1
102
RTVSPropertyOp9
 70
     1
102
RTVSPropertyOp10
 70
     1
102
RTVSPropertyOp11
 70
     1
102
RTVSPropertyOp12
 70
     1
102
RTVSPropertyOp13
 70
     1
102
RTVSPropertyOp14
 70
     1
102
RTVSPropertyOp15
 70
     1
102
RTVSPropertyOp16
 70
     1
102
RTVSPropertyOp17
 70
     1
102
RTVSPropertyOp18
 70
     1
102
RTVSPropertyOp19
 70
     1
102
RTVSPropertyOp20
 70
     1
102
RTVSPropertyOp21
 70
     1
102
RTVSPropertyOp22
 70
     1
102
RTVSPropertyOp23
 70
     1
102
RTVSPropertyOp24
 70
     1
102
RTVSPropertyOp25
 70
     1
102
RTVSPropertyOp26
 70
     1
102
RTVSPropertyOp27
 70
     1
102
RTVSPropertyOp28
 70
     1
102
RTVSPropertyOp29
 70
     1
102
RTVSPropertyOp30
 70
     1
102
RTVSPropertyOp31
 70
     1
102
RTVSPropertyOp32
 70
     1
102
RTVSPropertyOp33
 70
     1
102
RTVSPropertyOp34
 70
     1
102
RTVSPropertyOp35
 70
     1
102
RTVSPropertyOp36
 70
     1
102
RTVSPropertyOp37
 70
     1
102
RTVSPropertyOp38
 70
     1
102
RTVSPropertyOp39
 70
     1
102
RTVSPropertyOp40
 70
     1
102
RTVSPropertyOp41
 70
     1
102
RTVSPropertyOp42
 70
     1
102
RTVSPropertyOp43
 70
     1
102
RTVSPropertyOp44
 70
     1
102
RTVSPropertyOp45
 70
     1
102
RTVSPropertyOp46
 70
     1
102
RTVSPropertyOp47
 70
     1
102
RTVSPropertyOp48
 70
     1
102
RTVSPropertyOp49
 70
     1
102
RTVSPropertyOp50
 70
     1
102
RTVSPropertyOp51
 70
     0
102
RTVSPropertyOp52
 70
     0
102
RTVSPropertyOp53
 70
     1
102
RTVSPropertyOp54
 70
     1
102
RTVSPropertyOp55
 70
     1
102
RTVSPropertyOp56
 70
     1
102
RTVSPropertyOp57
 70
     1
102
RTVSPost2010Prop28
280
     0
102
RTVSPost2010PropOp28
 70
     1
102
RTVSPost2010Prop29
280
     1
102
RTVSPost2010PropOp29
 70
     1
102
RTVSPost2010Prop30
280
     1
102
RTVSPost2010PropOp30
 70
     1
102
RTVSPost2010Prop31
280
     0
102
RTVSPost2010PropOp31
 70
     1
102
RTVSPost2010Prop32
280
     0
102
RTVSPost2010PropOp32
 70
     1
102
RTVSPost2010Prop33
280
     0
102
RTVSPost2010PropOp33
 70
     1
102
RTVSPost2010Prop34
280
     0
102
RTVSPost2010PropOp34
 70
     1
102
RTVSPost2010Prop35
280
     0
102
RTVSPost2010PropOp35
 70
     1
102
RTVSPost2010Prop36
280
     0
102
RTVSPost2010PropOp36
 70
     1
102
RTVSPost2010Prop37
 90
       50
102
RTVSPost2010PropOp37
 70
     1
102
RTVSPost2010Prop38
140
0.0
102
RTVSPost2010PropOp38
 70
     1
102
RTVSPost2010Prop39
140
1.0
102
RTVSPost2010PropOp39
 70
     1
102
RTVSPost2010Prop40
 90
        0
102
RTVSPost2010PropOp40
 70
     1
102
RTVSPost2010Prop41ColorIndex
 90
       18
102
RTVSPost2010Prop41ColorRGB
 90
        0
102
RTVSPost2010PropOp41
 70
     1
102
RTVSPost2010Prop42
 90
       50
102
RTVSPost2010PropOp42
 70
     1
102
RTVSPost2010Prop43
 90
        3
102
RTVSPost2010PropOp43
 70
     1
102
RTVSPost2010Prop44ColorIndex
 90
        5
102
RTVSPost2010Prop44ColorRGB
 90
      255
102
RTVSPost2010PropOp44
 70
     1
102
RTVSPost2010Prop45
280
     0
102
RTVSPost2010PropOp45
 70
     1
102
RTVSPost2010Prop46
 90
       50
102
RTVSPost2010PropOp46
 70
     1
102
RTVSPost2010Prop47
 90
       50
102
RTVSPost2010PropOp47
 70
     1
102
RTVSPost2010Prop48
 90
       50
102
RTVSPost2010PropOp48
 70
     1
102
RTVSPost2010Prop49
280
     0
102
RTVSPost2010PropOp49
 70
     1
102
RTVSPost2010Prop50
 90
       50
102
RTVSPost2010PropOp50
 70
     1
102
RTVSPost2010Prop51ColorIndex
 90
      256
102
RTVSPost2010Prop51ColorRGB
 90
-16777216
102
RTVSPost2010PropOp51
 70
     0
102
RTVSPost2010Prop52
140
1.0
102
RTVSPost2010PropOp52
 70
     0
102
RTVSPost2010Prop53
 90
        2
102
RTVSPost2010PropOp53
 70
     1
102
RTVSPost2010Prop54
  1
strokes_ogs.tif
102
RTVSPost2010PropOp54
 70
     1
102
RTVSPost2010Prop55
280
     0
102
RTVSPost2010PropOp55
 70
     1
102
RTVSPost2010Prop56
140
1.0
102
RTVSPost2010PropOp56
 70
     1
102
RTVSPost2010Prop57
140
1.0
102
RTVSPost2010PropOp57
 70
     1
  0
XRECORD
  5
15D
102
{ACAD_REACTORS
330
15C
102
}
330
15C
100
AcDbXrecord
280
     1
102
RTVSPropertyOp0
 70
     0
102
RTVSPropertyOp1
 70
     0
102
RTVSPropertyOp2
 70
     0
102
RTVSPropertyOp3
 70
     0
102
RTVSPropertyOp4
 70
     0
102
RTVSPropertyOp5
 70
     0
102
RTVSPropertyOp6
 70
     0
102
RTVSPropertyOp7
 70
     0
102
RTVSPropertyOp8
 70
     0
102
RTVSPropertyOp9
 70
     0
102
RTVSPropertyOp10
 70
     0
102
RTVSPropertyOp11
 70
     0
102
RTVSPropertyOp12
 70
     0
102
RTVSPropertyOp13
 70
     0
102
RTVSPropertyOp14
 70
     2
102
RTVSPropertyOp15
 70
     0
102
RTVSPropertyOp16
 70
     0
102
RTVSPropertyOp17
 70
     0
102
RTVSPropertyOp18
 70
     0
102
RTVSPropertyOp19
 70
     0
102
RTVSPropertyOp20
 70
     0
102
RTVSPropertyOp21
 70
     0
102
RTVSPropertyOp22
 70
     0
102
RTVSPropertyOp23
 70
     0
102
RTVSPropertyOp24
 70
     0
102
RTVSPropertyOp25
 70
     0
102
RTVSPropertyOp26
 70
     0
102
RTVSPropertyOp27
 70
     0
102
RTVSPropertyOp28
 70
     0
102
RTVSPropertyOp29
 70
     0
102
RTVSPropertyOp30
 70
     0
102
RTVSPropertyOp31
 70
     0
102
RTVSPropertyOp32
 70
     0
102
RTVSPropertyOp33
 70
     0
102
RTVSPropertyOp34
 70
     0
102
RTVSPropertyOp35
 70
     0
102
RTVSPropertyOp36
 70
     0
102
RTVSPropertyOp37
 70
     0
102
RTVSPropertyOp38
 70
     0
102
RTVSPropertyOp39
 70
     0
102
RTVSPropertyOp40
 70
     0
102
RTVSPropertyOp41
 70
     0
102
RTVSPropertyOp42
 70
     0
102
RTVSPropertyOp43
 70
     0
102
RTVSPropertyOp44
 70
     0
102
RTVSPropertyOp45
 70
     0
102
RTVSPropertyOp46
 70
     0
102
RTVSPropertyOp47
 70
     0
102
RTVSPropertyOp48
 70
     0
102
RTVSPropertyOp49
 70
     0
102
RTVSPropertyOp50
 70
     0
102
RTVSPropertyOp51
 70
     0
102
RTVSPropertyOp52
 70
     0
102
RTVSPropertyOp53
 70
     0
102
RTVSPropertyOp54
 70
     0
102
RTVSPropertyOp55
 70
     0
102
RTVSPropertyOp56
 70
     0
102
RTVSPropertyOp57
 70
     0
102
RTVSPost2010Prop28
280
     0
102
RTVSPost2010PropOp28
 70
     0
102
RTVSPost2010Prop29
280
     1
102
RTVSPost2010PropOp29
 70
     0
102
RTVSPost2010Prop30
280
     1
102
RTVSPost2010PropOp30
 70
     0
102
RTVSPost2010Prop31
280
     0
102
RTVSPost2010PropOp31
 70
     0
102
RTVSPost2010Prop32
280
     0
102
RTVSPost2010PropOp32
 70
     0
102
RTVSPost2010Prop33
280
     0
102
RTVSPost2010PropOp33
 70
     0
102
RTVSPost2010Prop34
280
     0
102
RTVSPost2010PropOp34
 70
     0
102
RTVSPost2010Prop35
280
     0
102
RTVSPost2010PropOp35
 70
     0
102
RTVSPost2010Prop36
280
     0
102
RTVSPost2010PropOp36
 70
     0
102
RTVSPost2010Prop37
 90
       50
102
RTVSPost2010PropOp37
 70
     0
102
RTVSPost2010Prop38
140
0.0
102
RTVSPost2010PropOp38
 70
     0
102
RTVSPost2010Prop39
140
1.0
102
RTVSPost2010PropOp39
 70
     0
102
RTVSPost2010Prop40
 90
        0
102
RTVSPost2010PropOp40
 70
     0
102
RTVSPost2010Prop41ColorIndex
 90
       18
102
RTVSPost2010Prop41ColorRGB
 90
        0
102
RTVSPost2010PropOp41
 70
     0
102
RTVSPost2010Prop42
 90
       50
102
RTVSPost2010PropOp42
 70
     0
102
RTVSPost2010Prop43
 90
        3
102
RTVSPost2010PropOp43
 70
     0
102
RTVSPost2010Prop44ColorIndex
 90
        5
102
RTVSPost2010Prop44ColorRGB
 90
      255
102
RTVSPost2010PropOp44
 70
     0
102
RTVSPost2010Prop45
280
     0
102
RTVSPost2010PropOp45
 70
     0
102
RTVSPost2010Prop46
 90
       50
102
RTVSPost2010PropOp46
 70
     0
102
RTVSPost2010Prop47
 90
       50
102
RTVSPost2010PropOp47
 70
     0
102
RTVSPost2010Prop48
 90
       50
102
RTVSPost2010PropOp48
 70
     0
102
RTVSPost2010Prop49
280
     0
102
RTVSPost2010PropOp49
 70
     0
102
RTVSPost2010Prop50
 90
       50
102
RTVSPost2010PropOp50
 70
     0
102
RTVSPost2010Prop51ColorIndex
 90
      256
102
RTVSPost2010Prop51ColorRGB
 90
-16777216
102
RTVSPost2010PropOp51
 70
     0
102
RTVSPost2010Prop52
140
1.0
102
RTVSPost2010PropOp52
 70
     0
102
RTVSPost2010Prop53
 90
        2
102
RTVSPost2010PropOp53
 70
     0
102
RTVSPost2010Prop54
  1
strokes_ogs.tif
102
RTVSPost2010PropOp54
 70
     0
102
RTVSPost2010Prop55
280
     0
102
RTVSPost2010PropOp55
 70
     0
102
RTVSPost2010Prop56
140
1.0
102
RTVSPost2010PropOp56
 70
     0
102
RTVSPost2010Prop57
140
1.0
102
RTVSPost2010PropOp57
 70
     0
  0
XRECORD
  5
14B
102
{ACAD_REACTORS
330
14A
102
}
330
14A
100
AcDbXrecord
280
     1
102
RTVSPropertyOp0
 70
     1
102
RTVSPropertyOp1
 70
     1
102
RTVSPropertyOp2
 70
     1
102
RTVSPropertyOp3
 70
     1
102
RTVSPropertyOp4
 70
     1
102
RTVSPropertyOp5
 70
     1
102
RTVSPropertyOp6
 70
     1
102
RTVSPropertyOp7
 70
     1
102
RTVSPropertyOp8
 70
     1
102
RTVSPropertyOp9
 70
     1
102
RTVSPropertyOp10
 70
     1
102
RTVSPropertyOp11
 70
     1
102
RTVSPropertyOp12
 70
     1
102
RTVSPropertyOp13
 70
     1
102
RTVSPropertyOp14
 70
     1
102
RTVSPropertyOp15
 70
     1
102
RTVSPropertyOp16
 70
     1
102
RTVSPropertyOp17
 70
     1
102
RTVSPropertyOp18
 70
     1
102
RTVSPropertyOp19
 70
     1
102
RTVSPropertyOp20
 70
     1
102
RTVSPropertyOp21
 70
     1
102
RTVSPropertyOp22
 70
     1
102
RTVSPropertyOp23
 70
     1
102
RTVSPropertyOp24
 70
     1
102
RTVSPropertyOp25
 70
     1
102
RTVSPropertyOp26
 70
     1
102
RTVSPropertyOp27
 70
     1
102
RTVSPropertyOp28
 70
     1
102
RTVSPropertyOp29
 70
     1
102
RTVSPropertyOp30
 70
     1
102
RTVSPropertyOp31
 70
     1
102
RTVSPropertyOp32
 70
     1
102
RTVSPropertyOp33
 70
     1
102
RTVSPropertyOp34
 70
     1
102
RTVSPropertyOp35
 70
     1
102
RTVSPropertyOp36
 70
     1
102
RTVSPropertyOp37
 70
     1
102
RTVSPropertyOp38
 70
     1
102
RTVSPropertyOp39
 70
     1
102
RTVSPropertyOp40
 70
     1
102
RTVSPropertyOp41
 70
     1
102
RTVSPropertyOp42
 70
     1
102
RTVSPropertyOp43
 70
     1
102
RTVSPropertyOp44
 70
     1
102
RTVSPropertyOp45
 70
     1
102
RTVSPropertyOp46
 70
     1
102
RTVSPropertyOp47
 70
     1
102
RTVSPropertyOp48
 70
     1
102
RTVSPropertyOp49
 70
     1
102
RTVSPropertyOp50
 70
     1
102
RTVSPropertyOp51
 70
     0
102
RTVSPropertyOp52
 70
     0
102
RTVSPropertyOp53
 70
     1
102
RTVSPropertyOp54
 70
     1
102
RTVSPropertyOp55
 70
     1
102
RTVSPropertyOp56
 70
     1
102
RTVSPropertyOp57
 70
     1
102
RTVSPost2010Prop28
280
     0
102
RTVSPost2010PropOp28
 70
     1
102
RTVSPost2010Prop29
280
     1
102
RTVSPost2010PropOp29
 70
     1
102
RTVSPost2010Prop30
280
     1
102
RTVSPost2010PropOp30
 70
     1
102
RTVSPost2010Prop31
280
     0
102
RTVSPost2010PropOp31
 70
     1
102
RTVSPost2010Prop32
280
     0
102
RTVSPost2010PropOp32
 70
     1
102
RTVSPost2010Prop33
280
     0
102
RTVSPost2010PropOp33
 70
     1
102
RTVSPost2010Prop34
280
     0
102
RTVSPost2010PropOp34
 70
     1
102
RTVSPost2010Prop35
280
     0
102
RTVSPost2010PropOp35
 70
     1
102
RTVSPost2010Prop36
280
     0
102
RTVSPost2010PropOp36
 70
     1
102
RTVSPost2010Prop37
 90
       50
102
RTVSPost2010PropOp37
 70
     1
102
RTVSPost2010Prop38
140
0.0
102
RTVSPost2010PropOp38
 70
     1
102
RTVSPost2010Prop39
140
1.0
102
RTVSPost2010PropOp39
 70
     1
102
RTVSPost2010Prop40
 90
        0
102
RTVSPost2010PropOp40
 70
     1
102
RTVSPost2010Prop41ColorIndex
 90
       18
102
RTVSPost2010Prop41ColorRGB
 90
        0
102
RTVSPost2010PropOp41
 70
     1
102
RTVSPost2010Prop42
 90
       50
102
RTVSPost2010PropOp42
 70
     1
102
RTVSPost2010Prop43
 90
        3
102
RTVSPost2010PropOp43
 70
     1
102
RTVSPost2010Prop44ColorIndex
 90
        5
102
RTVSPost2010Prop44ColorRGB
 90
      255
102
RTVSPost2010PropOp44
 70
     1
102
RTVSPost2010Prop45
280
     0
102
RTVSPost2010PropOp45
 70
     1
102
RTVSPost2010Prop46
 90
       50
102
RTVSPost2010PropOp46
 70
     1
102
RTVSPost2010Prop47
 90
       50
102
RTVSPost2010PropOp47
 70
     1
102
RTVSPost2010Prop48
 90
       50
102
RTVSPost2010PropOp48
 70
     1
102
RTVSPost2010Prop49
280
     0
102
RTVSPost2010PropOp49
 70
     1
102
RTVSPost2010Prop50
 90
       50
102
RTVSPost2010PropOp50
 70
     1
102
RTVSPost2010Prop51ColorIndex
 90
      256
102
RTVSPost2010Prop51ColorRGB
 90
-16777216
102
RTVSPost2010PropOp51
 70
     0
102
RTVSPost2010Prop52
140
1.0
102
RTVSPost2010PropOp52
 70
     0
102
RTVSPost2010Prop53
 90
        2
102
RTVSPost2010PropOp53
 70
     1
102
RTVSPost2010Prop54
  1
strokes_ogs.tif
102
RTVSPost2010PropOp54
 70
     1
102
RTVSPost2010Prop55
280
     0
102
RTVSPost2010PropOp55
 70
     1
102
RTVSPost2010Prop56
140
1.0
102
RTVSPost2010PropOp56
 70
     1
102
RTVSPost2010Prop57
140
1.0
102
RTVSPost2010PropOp57
 70
     1
  0
XRECORD
  5
169
102
{ACAD_REACTORS
330
168
102
}
330
168
100
AcDbXrecord
280
     1
102
RTVSPropertyOp0
 70
     1
102
RTVSPropertyOp1
 70
     1
102
RTVSPropertyOp2
 70
     1
102
RTVSPropertyOp3
 70
     1
102
RTVSPropertyOp4
 70
     1
102
RTVSPropertyOp5
 70
     1
102
RTVSPropertyOp6
 70
     1
102
RTVSPropertyOp7
 70
     1
102
RTVSPropertyOp8
 70
     1
102
RTVSPropertyOp9
 70
     1
102
RTVSPropertyOp10
 70
     1
102
RTVSPropertyOp11
 70
     1
102
RTVSPropertyOp12
 70
     1
102
RTVSPropertyOp13
 70
     1
102
RTVSPropertyOp14
 70
     1
102
RTVSPropertyOp15
 70
     1
102
RTVSPropertyOp16
 70
     1
102
RTVSPropertyOp17
 70
     1
102
RTVSPropertyOp18
 70
     1
102
RTVSPropertyOp19
 70
     1
102
RTVSPropertyOp20
 70
     1
102
RTVSPropertyOp21
 70
     1
102
RTVSPropertyOp22
 70
     1
102
RTVSPropertyOp23
 70
     1
102
RTVSPropertyOp24
 70
     1
102
RTVSPropertyOp25
 70
     1
102
RTVSPropertyOp26
 70
     1
102
RTVSPropertyOp27
 70
     1
102
RTVSPropertyOp28
 70
     1
102
RTVSPropertyOp29
 70
     1
102
RTVSPropertyOp30
 70
     1
102
RTVSPropertyOp31
 70
     1
102
RTVSPropertyOp32
 70
     1
102
RTVSPropertyOp33
 70
     1
102
RTVSPropertyOp34
 70
     1
102
RTVSPropertyOp35
 70
     1
102
RTVSPropertyOp36
 70
     1
102
RTVSPropertyOp37
 70
     1
102
RTVSPropertyOp38
 70
     1
102
RTVSPropertyOp39
 70
     1
102
RTVSPropertyOp40
 70
     1
102
RTVSPropertyOp41
 70
     1
102
RTVSPropertyOp42
 70
     1
102
RTVSPropertyOp43
 70
     1
102
RTVSPropertyOp44
 70
     1
102
RTVSPropertyOp45
 70
     1
102
RTVSPropertyOp46
 70
     1
102
RTVSPropertyOp47
 70
     1
102
RTVSPropertyOp48
 70
     1
102
RTVSPropertyOp49
 70
     1
102
RTVSPropertyOp50
 70
     1
102
RTVSPropertyOp51
 70
     0
102
RTVSPropertyOp52
 70
     0
102
RTVSPropertyOp53
 70
     1
102
RTVSPropertyOp54
 70
     1
102
RTVSPropertyOp55
 70
     1
102
RTVSPropertyOp56
 70
     1
102
RTVSPropertyOp57
 70
     1
102
RTVSPost2010Prop28
280
     0
102
RTVSPost2010PropOp28
 70
     1
102
RTVSPost2010Prop29
280
     1
102
RTVSPost2010PropOp29
 70
     1
102
RTVSPost2010Prop30
280
     1
102
RTVSPost2010PropOp30
 70
     1
102
RTVSPost2010Prop31
280
     0
102
RTVSPost2010PropOp31
 70
     1
102
RTVSPost2010Prop32
280
     0
102
RTVSPost2010PropOp32
 70
     1
102
RTVSPost2010Prop33
280
     0
102
RTVSPost2010PropOp33
 70
     1
102
RTVSPost2010Prop34
280
     0
102
RTVSPost2010PropOp34
 70
     1
102
RTVSPost2010Prop35
280
     0
102
RTVSPost2010PropOp35
 70
     1
102
RTVSPost2010Prop36
280
     0
102
RTVSPost2010PropOp36
 70
     1
102
RTVSPost2010Prop37
 90
       50
102
RTVSPost2010PropOp37
 70
     1
102
RTVSPost2010Prop38
140
0.0
102
RTVSPost2010PropOp38
 70
     1
102
RTVSPost2010Prop39
140
1.0
102
RTVSPost2010PropOp39
 70
     1
102
RTVSPost2010Prop40
 90
        0
102
RTVSPost2010PropOp40
 70
     1
102
RTVSPost2010Prop41ColorIndex
 90
       18
102
RTVSPost2010Prop41ColorRGB
 90
        0
102
RTVSPost2010PropOp41
 70
     1
102
RTVSPost2010Prop42
 90
       50
102
RTVSPost2010PropOp42
 70
     1
102
RTVSPost2010Prop43
 90
        3
102
RTVSPost2010PropOp43
 70
     1
102
RTVSPost2010Prop44ColorIndex
 90
        5
102
RTVSPost2010Prop44ColorRGB
 90
      255
102
RTVSPost2010PropOp44
 70
     1
102
RTVSPost2010Prop45
280
     0
102
RTVSPost2010PropOp45
 70
     1
102
RTVSPost2010Prop46
 90
       50
102
RTVSPost2010PropOp46
 70
     1
102
RTVSPost2010Prop47
 90
       50
102
RTVSPost2010PropOp47
 70
     1
102
RTVSPost2010Prop48
 90
       50
102
RTVSPost2010PropOp48
 70
     1
102
RTVSPost2010Prop49
280
     0
102
RTVSPost2010PropOp49
 70
     1
102
RTVSPost2010Prop50
 90
       50
102
RTVSPost2010PropOp50
 70
     1
102
RTVSPost2010Prop51ColorIndex
 90
      256
102
RTVSPost2010Prop51ColorRGB
 90
-16777216
102
RTVSPost2010PropOp51
 70
     0
102
RTVSPost2010Prop52
140
1.0
102
RTVSPost2010PropOp52
 70
     0
102
RTVSPost2010Prop53
 90
        2
102
RTVSPost2010PropOp53
 70
     1
102
RTVSPost2010Prop54
  1
strokes_ogs.tif
102
RTVSPost2010PropOp54
 70
     1
102
RTVSPost2010Prop55
280
     0
102
RTVSPost2010PropOp55
 70
     1
102
RTVSPost2010Prop56
140
1.0
102
RTVSPost2010PropOp56
 70
     1
102
RTVSPost2010Prop57
140
1.0
102
RTVSPost2010PropOp57
 70
     1
  0
XRECORD
  5
167
102
{ACAD_REACTORS
330
166
102
}
330
166
100
AcDbXrecord
280
     1
102
RTVSPropertyOp0
 70
     1
102
RTVSPropertyOp1
 70
     1
102
RTVSPropertyOp2
 70
     1
102
RTVSPropertyOp3
 70
     1
102
RTVSPropertyOp4
 70
     1
102
RTVSPropertyOp5
 70
     1
102
RTVSPropertyOp6
 70
     1
102
RTVSPropertyOp7
 70
     1
102
RTVSPropertyOp8
 70
     1
102
RTVSPropertyOp9
 70
     1
102
RTVSPropertyOp10
 70
     1
102
RTVSPropertyOp11
 70
     1
102
RTVSPropertyOp12
 70
     1
102
RTVSPropertyOp13
 70
     1
102
RTVSPropertyOp14
 70
     1
102
RTVSPropertyOp15
 70
     1
102
RTVSPropertyOp16
 70
     1
102
RTVSPropertyOp17
 70
     1
102
RTVSPropertyOp18
 70
     1
102
RTVSPropertyOp19
 70
     1
102
RTVSPropertyOp20
 70
     1
102
RTVSPropertyOp21
 70
     1
102
RTVSPropertyOp22
 70
     1
102
RTVSPropertyOp23
 70
     1
102
RTVSPropertyOp24
 70
     1
102
RTVSPropertyOp25
 70
     1
102
RTVSPropertyOp26
 70
     1
102
RTVSPropertyOp27
 70
     1
102
RTVSPropertyOp28
 70
     1
102
RTVSPropertyOp29
 70
     1
102
RTVSPropertyOp30
 70
     1
102
RTVSPropertyOp31
 70
     1
102
RTVSPropertyOp32
 70
     1
102
RTVSPropertyOp33
 70
     1
102
RTVSPropertyOp34
 70
     1
102
RTVSPropertyOp35
 70
     1
102
RTVSPropertyOp36
 70
     1
102
RTVSPropertyOp37
 70
     1
102
RTVSPropertyOp38
 70
     1
102
RTVSPropertyOp39
 70
     1
102
RTVSPropertyOp40
 70
     1
102
RTVSPropertyOp41
 70
     1
102
RTVSPropertyOp42
 70
     1
102
RTVSPropertyOp43
 70
     1
102
RTVSPropertyOp44
 70
     1
102
RTVSPropertyOp45
 70
     1
102
RTVSPropertyOp46
 70
     1
102
RTVSPropertyOp47
 70
     1
102
RTVSPropertyOp48
 70
     1
102
RTVSPropertyOp49
 70
     1
102
RTVSPropertyOp50
 70
     1
102
RTVSPropertyOp51
 70
     0
102
RTVSPropertyOp52
 70
     0
102
RTVSPropertyOp53
 70
     1
102
RTVSPropertyOp54
 70
     1
102
RTVSPropertyOp55
 70
     1
102
RTVSPropertyOp56
 70
     1
102
RTVSPropertyOp57
 70
     1
102
RTVSPost2010Prop28
280
     0
102
RTVSPost2010PropOp28
 70
     1
102
RTVSPost2010Prop29
280
     1
102
RTVSPost2010PropOp29
 70
     1
102
RTVSPost2010Prop30
280
     1
102
RTVSPost2010PropOp30
 70
     1
102
RTVSPost2010Prop31
280
     0
102
RTVSPost2010PropOp31
 70
     1
102
RTVSPost2010Prop32
280
     0
102
RTVSPost2010PropOp32
 70
     1
102
RTVSPost2010Prop33
280
     0
102
RTVSPost2010PropOp33
 70
     1
102
RTVSPost2010Prop34
280
     0
102
RTVSPost2010PropOp34
 70
     1
102
RTVSPost2010Prop35
280
     0
102
RTVSPost2010PropOp35
 70
     1
102
RTVSPost2010Prop36
280
     0
102
RTVSPost2010PropOp36
 70
     1
102
RTVSPost2010Prop37
 90
       50
102
RTVSPost2010PropOp37
 70
     1
102
RTVSPost2010Prop38
140
0.0
102
RTVSPost2010PropOp38
 70
     1
102
RTVSPost2010Prop39
140
1.0
102
RTVSPost2010PropOp39
 70
     1
102
RTVSPost2010Prop40
 90
        0
102
RTVSPost2010PropOp40
 70
     1
102
RTVSPost2010Prop41ColorIndex
 90
       18
102
RTVSPost2010Prop41ColorRGB
 90
        0
102
RTVSPost2010PropOp41
 70
     1
102
RTVSPost2010Prop42
 90
       50
102
RTVSPost2010PropOp42
 70
     1
102
RTVSPost2010Prop43
 90
        3
102
RTVSPost2010PropOp43
 70
     1
102
RTVSPost2010Prop44ColorIndex
 90
        5
102
RTVSPost2010Prop44ColorRGB
 90
      255
102
RTVSPost2010PropOp44
 70
     1
102
RTVSPost2010Prop45
280
     0
102
RTVSPost2010PropOp45
 70
     1
102
RTVSPost2010Prop46
 90
       50
102
RTVSPost2010PropOp46
 70
     1
102
RTVSPost2010Prop47
 90
       50
102
RTVSPost2010PropOp47
 70
     1
102
RTVSPost2010Prop48
 90
       50
102
RTVSPost2010PropOp48
 70
     1
102
RTVSPost2010Prop49
280
     0
102
RTVSPost2010PropOp49
 70
     1
102
RTVSPost2010Prop50
 90
       50
102
RTVSPost2010PropOp50
 70
     1
102
RTVSPost2010Prop51ColorIndex
 90
      256
102
RTVSPost2010Prop51ColorRGB
 90
-16777216
102
RTVSPost2010PropOp51
 70
     0
102
RTVSPost2010Prop52
140
1.0
102
RTVSPost2010PropOp52
 70
     0
102
RTVSPost2010Prop53
 90
        2
102
RTVSPost2010PropOp53
 70
     1
102
RTVSPost2010Prop54
  1
strokes_ogs.tif
102
RTVSPost2010PropOp54
 70
     1
102
RTVSPost2010Prop55
280
     0
102
RTVSPost2010PropOp55
 70
     1
102
RTVSPost2010Prop56
140
1.0
102
RTVSPost2010PropOp56
 70
     1
102
RTVSPost2010Prop57
140
1.0
102
RTVSPost2010PropOp57
 70
     1
  0
XRECORD
  5
161
102
{ACAD_REACTORS
330
160
102
}
330
160
100
AcDbXrecord
280
     1
102
RTVSPropertyOp0
 70
     1
102
RTVSPropertyOp1
 70
     1
102
RTVSPropertyOp2
 70
     1
102
RTVSPropertyOp3
 70
     1
102
RTVSPropertyOp4
 70
     1
102
RTVSPropertyOp5
 70
     1
102
RTVSPropertyOp6
 70
     1
102
RTVSPropertyOp7
 70
     1
102
RTVSPropertyOp8
 70
     1
102
RTVSPropertyOp9
 70
     1
102
RTVSPropertyOp10
 70
     1
102
RTVSPropertyOp11
 70
     1
102
RTVSPropertyOp12
 70
     1
102
RTVSPropertyOp13
 70
     1
102
RTVSPropertyOp14
 70
     1
102
RTVSPropertyOp15
 70
     1
102
RTVSPropertyOp16
 70
     1
102
RTVSPropertyOp17
 70
     1
102
RTVSPropertyOp18
 70
     1
102
RTVSPropertyOp19
 70
     1
102
RTVSPropertyOp20
 70
     1
102
RTVSPropertyOp21
 70
     1
102
RTVSPropertyOp22
 70
     1
102
RTVSPropertyOp23
 70
     1
102
RTVSPropertyOp24
 70
     1
102
RTVSPropertyOp25
 70
     1
102
RTVSPropertyOp26
 70
     1
102
RTVSPropertyOp27
 70
     1
102
RTVSPropertyOp28
 70
     1
102
RTVSPropertyOp29
 70
     1
102
RTVSPropertyOp30
 70
     1
102
RTVSPropertyOp31
 70
     1
102
RTVSPropertyOp32
 70
     1
102
RTVSPropertyOp33
 70
     1
102
RTVSPropertyOp34
 70
     1
102
RTVSPropertyOp35
 70
     1
102
RTVSPropertyOp36
 70
     1
102
RTVSPropertyOp37
 70
     1
102
RTVSPropertyOp38
 70
     1
102
RTVSPropertyOp39
 70
     1
102
RTVSPropertyOp40
 70
     1
102
RTVSPropertyOp41
 70
     1
102
RTVSPropertyOp42
 70
     1
102
RTVSPropertyOp43
 70
     1
102
RTVSPropertyOp44
 70
     1
102
RTVSPropertyOp45
 70
     1
102
RTVSPropertyOp46
 70
     1
102
RTVSPropertyOp47
 70
     1
102
RTVSPropertyOp48
 70
     1
102
RTVSPropertyOp49
 70
     1
102
RTVSPropertyOp50
 70
     1
102
RTVSPropertyOp51
 70
     0
102
RTVSPropertyOp52
 70
     0
102
RTVSPropertyOp53
 70
     1
102
RTVSPropertyOp54
 70
     1
102
RTVSPropertyOp55
 70
     1
102
RTVSPropertyOp56
 70
     1
102
RTVSPropertyOp57
 70
     1
102
RTVSPost2010Prop28
280
     0
102
RTVSPost2010PropOp28
 70
     1
102
RTVSPost2010Prop29
280
     1
102
RTVSPost2010PropOp29
 70
     1
102
RTVSPost2010Prop30
280
     1
102
RTVSPost2010PropOp30
 70
     1
102
RTVSPost2010Prop31
280
     0
102
RTVSPost2010PropOp31
 70
     1
102
RTVSPost2010Prop32
280
     0
102
RTVSPost2010PropOp32
 70
     1
102
RTVSPost2010Prop33
280
     0
102
RTVSPost2010PropOp33
 70
     1
102
RTVSPost2010Prop34
280
     0
102
RTVSPost2010PropOp34
 70
     1
102
RTVSPost2010Prop35
280
     0
102
RTVSPost2010PropOp35
 70
     1
102
RTVSPost2010Prop36
280
     0
102
RTVSPost2010PropOp36
 70
     1
102
RTVSPost2010Prop37
 90
       50
102
RTVSPost2010PropOp37
 70
     1
102
RTVSPost2010Prop38
140
0.0
102
RTVSPost2010PropOp38
 70
     1
102
RTVSPost2010Prop39
140
1.0
102
RTVSPost2010PropOp39
 70
     1
102
RTVSPost2010Prop40
 90
        0
102
RTVSPost2010PropOp40
 70
     1
102
RTVSPost2010Prop41ColorIndex
 90
       18
102
RTVSPost2010Prop41ColorRGB
 90
        0
102
RTVSPost2010PropOp41
 70
     1
102
RTVSPost2010Prop42
 90
       50
102
RTVSPost2010PropOp42
 70
     1
102
RTVSPost2010Prop43
 90
        3
102
RTVSPost2010PropOp43
 70
     1
102
RTVSPost2010Prop44ColorIndex
 90
        5
102
RTVSPost2010Prop44ColorRGB
 90
      255
102
RTVSPost2010PropOp44
 70
     1
102
RTVSPost2010Prop45
280
     0
102
RTVSPost2010PropOp45
 70
     1
102
RTVSPost2010Prop46
 90
       50
102
RTVSPost2010PropOp46
 70
     1
102
RTVSPost2010Prop47
 90
       50
102
RTVSPost2010PropOp47
 70
     1
102
RTVSPost2010Prop48
 90
       50
102
RTVSPost2010PropOp48
 70
     1
102
RTVSPost2010Prop49
280
     0
102
RTVSPost2010PropOp49
 70
     1
102
RTVSPost2010Prop50
 90
       50
102
RTVSPost2010PropOp50
 70
     1
102
RTVSPost2010Prop51ColorIndex
 90
      256
102
RTVSPost2010Prop51ColorRGB
 90
-16777216
102
RTVSPost2010PropOp51
 70
     0
102
RTVSPost2010Prop52
140
1.0
102
RTVSPost2010PropOp52
 70
     0
102
RTVSPost2010Prop53
 90
        2
102
RTVSPost2010PropOp53
 70
     1
102
RTVSPost2010Prop54
  1
strokes_ogs.tif
102
RTVSPost2010PropOp54
 70
     1
102
RTVSPost2010Prop55
280
     0
102
RTVSPost2010PropOp55
 70
     1
102
RTVSPost2010Prop56
140
1.0
102
RTVSPost2010PropOp56
 70
     1
102
RTVSPost2010Prop57
140
1.0
102
RTVSPost2010PropOp57
 70
     1
  0
XRECORD
  5
163
102
{ACAD_REACTORS
330
162
102
}
330
162
100
AcDbXrecord
280
     1
102
RTVSPropertyOp0
 70
     1
102
RTVSPropertyOp1
 70
     1
102
RTVSPropertyOp2
 70
     1
102
RTVSPropertyOp3
 70
     1
102
RTVSPropertyOp4
 70
     1
102
RTVSPropertyOp5
 70
     1
102
RTVSPropertyOp6
 70
     1
102
RTVSPropertyOp7
 70
     1
102
RTVSPropertyOp8
 70
     1
102
RTVSPropertyOp9
 70
     1
102
RTVSPropertyOp10
 70
     1
102
RTVSPropertyOp11
 70
     1
102
RTVSPropertyOp12
 70
     1
102
RTVSPropertyOp13
 70
     1
102
RTVSPropertyOp14
 70
     1
102
RTVSPropertyOp15
 70
     1
102
RTVSPropertyOp16
 70
     1
102
RTVSPropertyOp17
 70
     1
102
RTVSPropertyOp18
 70
     1
102
RTVSPropertyOp19
 70
     1
102
RTVSPropertyOp20
 70
     1
102
RTVSPropertyOp21
 70
     1
102
RTVSPropertyOp22
 70
     1
102
RTVSPropertyOp23
 70
     1
102
RTVSPropertyOp24
 70
     1
102
RTVSPropertyOp25
 70
     1
102
RTVSPropertyOp26
 70
     1
102
RTVSPropertyOp27
 70
     1
102
RTVSPropertyOp28
 70
     1
102
RTVSPropertyOp29
 70
     1
102
RTVSPropertyOp30
 70
     1
102
RTVSPropertyOp31
 70
     1
102
RTVSPropertyOp32
 70
     1
102
RTVSPropertyOp33
 70
     1
102
RTVSPropertyOp34
 70
     1
102
RTVSPropertyOp35
 70
     1
102
RTVSPropertyOp36
 70
     1
102
RTVSPropertyOp37
 70
     1
102
RTVSPropertyOp38
 70
     1
102
RTVSPropertyOp39
 70
     1
102
RTVSPropertyOp40
 70
     1
102
RTVSPropertyOp41
 70
     1
102
RTVSPropertyOp42
 70
     1
102
RTVSPropertyOp43
 70
     1
102
RTVSPropertyOp44
 70
     1
102
RTVSPropertyOp45
 70
     1
102
RTVSPropertyOp46
 70
     1
102
RTVSPropertyOp47
 70
     1
102
RTVSPropertyOp48
 70
     1
102
RTVSPropertyOp49
 70
     1
102
RTVSPropertyOp50
 70
     1
102
RTVSPropertyOp51
 70
     0
102
RTVSPropertyOp52
 70
     0
102
RTVSPropertyOp53
 70
     1
102
RTVSPropertyOp54
 70
     1
102
RTVSPropertyOp55
 70
     1
102
RTVSPropertyOp56
 70
     1
102
RTVSPropertyOp57
 70
     1
102
RTVSPost2010Prop28
280
     0
102
RTVSPost2010PropOp28
 70
     1
102
RTVSPost2010Prop29
280
     1
102
RTVSPost2010PropOp29
 70
     1
102
RTVSPost2010Prop30
280
     1
102
RTVSPost2010PropOp30
 70
     1
102
RTVSPost2010Prop31
280
     0
102
RTVSPost2010PropOp31
 70
     1
102
RTVSPost2010Prop32
280
     0
102
RTVSPost2010PropOp32
 70
     1
102
RTVSPost2010Prop33
280
     0
102
RTVSPost2010PropOp33
 70
     1
102
RTVSPost2010Prop34
280
     0
102
RTVSPost2010PropOp34
 70
     1
102
RTVSPost2010Prop35
280
     0
102
RTVSPost2010PropOp35
 70
     1
102
RTVSPost2010Prop36
280
     0
102
RTVSPost2010PropOp36
 70
     1
102
RTVSPost2010Prop37
 90
       50
102
RTVSPost2010PropOp37
 70
     1
102
RTVSPost2010Prop38
140
0.0
102
RTVSPost2010PropOp38
 70
     1
102
RTVSPost2010Prop39
140
1.0
102
RTVSPost2010PropOp39
 70
     1
102
RTVSPost2010Prop40
 90
        0
102
RTVSPost2010PropOp40
 70
     1
102
RTVSPost2010Prop41ColorIndex
 90
       18
102
RTVSPost2010Prop41ColorRGB
 90
        0
102
RTVSPost2010PropOp41
 70
     1
102
RTVSPost2010Prop42
 90
       50
102
RTVSPost2010PropOp42
 70
     1
102
RTVSPost2010Prop43
 90
        3
102
RTVSPost2010PropOp43
 70
     1
102
RTVSPost2010Prop44ColorIndex
 90
        5
102
RTVSPost2010Prop44ColorRGB
 90
      255
102
RTVSPost2010PropOp44
 70
     1
102
RTVSPost2010Prop45
280
     0
102
RTVSPost2010PropOp45
 70
     1
102
RTVSPost2010Prop46
 90
       50
102
RTVSPost2010PropOp46
 70
     1
102
RTVSPost2010Prop47
 90
       50
102
RTVSPost2010PropOp47
 70
     1
102
RTVSPost2010Prop48
 90
       50
102
RTVSPost2010PropOp48
 70
     1
102
RTVSPost2010Prop49
280
     0
102
RTVSPost2010PropOp49
 70
     1
102
RTVSPost2010Prop50
 90
       50
102
RTVSPost2010PropOp50
 70
     1
102
RTVSPost2010Prop51ColorIndex
 90
      256
102
RTVSPost2010Prop51ColorRGB
 90
-16777216
102
RTVSPost2010PropOp51
 70
     0
102
RTVSPost2010Prop52
140
1.0
102
RTVSPost2010PropOp52
 70
     0
102
RTVSPost2010Prop53
 90
        2
102
RTVSPost2010PropOp53
 70
     1
102
RTVSPost2010Prop54
  1
strokes_ogs.tif
102
RTVSPost2010PropOp54
 70
     1
102
RTVSPost2010Prop55
280
     0
102
RTVSPost2010PropOp55
 70
     1
102
RTVSPost2010Prop56
140
1.0
102
RTVSPost2010PropOp56
 70
     1
102
RTVSPost2010Prop57
140
1.0
102
RTVSPost2010PropOp57
 70
     1
  0
XRECORD
  5
153
102
{ACAD_REACTORS
330
152
102
}
330
152
100
AcDbXrecord
280
     1
102
RTVSPropertyOp0
 70
     1
102
RTVSPropertyOp1
 70
     1
102
RTVSPropertyOp2
 70
     1
102
RTVSPropertyOp3
 70
     1
102
RTVSPropertyOp4
 70
     1
102
RTVSPropertyOp5
 70
     1
102
RTVSPropertyOp6
 70
     1
102
RTVSPropertyOp7
 70
     1
102
RTVSPropertyOp8
 70
     1
102
RTVSPropertyOp9
 70
     1
102
RTVSPropertyOp10
 70
     1
102
RTVSPropertyOp11
 70
     1
102
RTVSPropertyOp12
 70
     1
102
RTVSPropertyOp13
 70
     1
102
RTVSPropertyOp14
 70
     1
102
RTVSPropertyOp15
 70
     1
102
RTVSPropertyOp16
 70
     1
102
RTVSPropertyOp17
 70
     1
102
RTVSPropertyOp18
 70
     1
102
RTVSPropertyOp19
 70
     1
102
RTVSPropertyOp20
 70
     1
102
RTVSPropertyOp21
 70
     1
102
RTVSPropertyOp22
 70
     1
102
RTVSPropertyOp23
 70
     1
102
RTVSPropertyOp24
 70
     1
102
RTVSPropertyOp25
 70
     1
102
RTVSPropertyOp26
 70
     1
102
RTVSPropertyOp27
 70
     1
102
RTVSPropertyOp28
 70
     1
102
RTVSPropertyOp29
 70
     1
102
RTVSPropertyOp30
 70
     1
102
RTVSPropertyOp31
 70
     1
102
RTVSPropertyOp32
 70
     1
102
RTVSPropertyOp33
 70
     1
102
RTVSPropertyOp34
 70
     1
102
RTVSPropertyOp35
 70
     1
102
RTVSPropertyOp36
 70
     1
102
RTVSPropertyOp37
 70
     1
102
RTVSPropertyOp38
 70
     1
102
RTVSPropertyOp39
 70
     1
102
RTVSPropertyOp40
 70
     1
102
RTVSPropertyOp41
 70
     1
102
RTVSPropertyOp42
 70
     1
102
RTVSPropertyOp43
 70
     1
102
RTVSPropertyOp44
 70
     1
102
RTVSPropertyOp45
 70
     1
102
RTVSPropertyOp46
 70
     1
102
RTVSPropertyOp47
 70
     1
102
RTVSPropertyOp48
 70
     1
102
RTVSPropertyOp49
 70
     1
102
RTVSPropertyOp50
 70
     1
102
RTVSPropertyOp51
 70
     0
102
RTVSPropertyOp52
 70
     0
102
RTVSPropertyOp53
 70
     1
102
RTVSPropertyOp54
 70
     1
102
RTVSPropertyOp55
 70
     1
102
RTVSPropertyOp56
 70
     1
102
RTVSPropertyOp57
 70
     1
102
RTVSPost2010Prop28
280
     0
102
RTVSPost2010PropOp28
 70
     1
102
RTVSPost2010Prop29
280
     1
102
RTVSPost2010PropOp29
 70
     1
102
RTVSPost2010Prop30
280
     1
102
RTVSPost2010PropOp30
 70
     1
102
RTVSPost2010Prop31
280
     0
102
RTVSPost2010PropOp31
 70
     1
102
RTVSPost2010Prop32
280
     0
102
RTVSPost2010PropOp32
 70
     1
102
RTVSPost2010Prop33
280
     0
102
RTVSPost2010PropOp33
 70
     1
102
RTVSPost2010Prop34
280
     0
102
RTVSPost2010PropOp34
 70
     1
102
RTVSPost2010Prop35
280
     0
102
RTVSPost2010PropOp35
 70
     1
102
RTVSPost2010Prop36
280
     0
102
RTVSPost2010PropOp36
 70
     1
102
RTVSPost2010Prop37
 90
       50
102
RTVSPost2010PropOp37
 70
     1
102
RTVSPost2010Prop38
140
0.0
102
RTVSPost2010PropOp38
 70
     1
102
RTVSPost2010Prop39
140
1.0
102
RTVSPost2010PropOp39
 70
     1
102
RTVSPost2010Prop40
 90
        0
102
RTVSPost2010PropOp40
 70
     1
102
RTVSPost2010Prop41ColorIndex
 90
       18
102
RTVSPost2010Prop41ColorRGB
 90
        0
102
RTVSPost2010PropOp41
 70
     1
102
RTVSPost2010Prop42
 90
       50
102
RTVSPost2010PropOp42
 70
     1
102
RTVSPost2010Prop43
 90
        3
102
RTVSPost2010PropOp43
 70
     1
102
RTVSPost2010Prop44ColorIndex
 90
        5
102
RTVSPost2010Prop44ColorRGB
 90
      255
102
RTVSPost2010PropOp44
 70
     1
102
RTVSPost2010Prop45
280
     0
102
RTVSPost2010PropOp45
 70
     1
102
RTVSPost2010Prop46
 90
       50
102
RTVSPost2010PropOp46
 70
     1
102
RTVSPost2010Prop47
 90
       50
102
RTVSPost2010PropOp47
 70
     1
102
RTVSPost2010Prop48
 90
       50
102
RTVSPost2010PropOp48
 70
     1
102
RTVSPost2010Prop49
280
     0
102
RTVSPost2010PropOp49
 70
     1
102
RTVSPost2010Prop50
 90
       50
102
RTVSPost2010PropOp50
 70
     1
102
RTVSPost2010Prop51ColorIndex
 90
      256
102
RTVSPost2010Prop51ColorRGB
 90
-16777216
102
RTVSPost2010PropOp51
 70
     0
102
RTVSPost2010Prop52
140
1.0
102
RTVSPost2010PropOp52
 70
     0
102
RTVSPost2010Prop53
 90
        2
102
RTVSPost2010PropOp53
 70
     1
102
RTVSPost2010Prop54
  1
strokes_ogs.tif
102
RTVSPost2010PropOp54
 70
     1
102
RTVSPost2010Prop55
280
     0
102
RTVSPost2010PropOp55
 70
     1
102
RTVSPost2010Prop56
140
1.0
102
RTVSPost2010PropOp56
 70
     1
102
RTVSPost2010Prop57
140
1.0
102
RTVSPost2010PropOp57
 70
     1
  0
XRECORD
  5
145
102
{ACAD_REACTORS
330
144
102
}
330
144
100
AcDbXrecord
280
     1
102
RTVSPropertyOp0
 70
     1
102
RTVSPropertyOp1
 70
     1
102
RTVSPropertyOp2
 70
     1
102
RTVSPropertyOp3
 70
     1
102
RTVSPropertyOp4
 70
     1
102
RTVSPropertyOp5
 70
     1
102
RTVSPropertyOp6
 70
     1
102
RTVSPropertyOp7
 70
     1
102
RTVSPropertyOp8
 70
     1
102
RTVSPropertyOp9
 70
     1
102
RTVSPropertyOp10
 70
     1
102
RTVSPropertyOp11
 70
     1
102
RTVSPropertyOp12
 70
     1
102
RTVSPropertyOp13
 70
     1
102
RTVSPropertyOp14
 70
     1
102
RTVSPropertyOp15
 70
     1
102
RTVSPropertyOp16
 70
     1
102
RTVSPropertyOp17
 70
     1
102
RTVSPropertyOp18
 70
     1
102
RTVSPropertyOp19
 70
     1
102
RTVSPropertyOp20
 70
     1
102
RTVSPropertyOp21
 70
     1
102
RTVSPropertyOp22
 70
     1
102
RTVSPropertyOp23
 70
     1
102
RTVSPropertyOp24
 70
     1
102
RTVSPropertyOp25
 70
     1
102
RTVSPropertyOp26
 70
     1
102
RTVSPropertyOp27
 70
     1
102
RTVSPropertyOp28
 70
     1
102
RTVSPropertyOp29
 70
     1
102
RTVSPropertyOp30
 70
     1
102
RTVSPropertyOp31
 70
     1
102
RTVSPropertyOp32
 70
     1
102
RTVSPropertyOp33
 70
     1
102
RTVSPropertyOp34
 70
     1
102
RTVSPropertyOp35
 70
     1
102
RTVSPropertyOp36
 70
     1
102
RTVSPropertyOp37
 70
     1
102
RTVSPropertyOp38
 70
     1
102
RTVSPropertyOp39
 70
     1
102
RTVSPropertyOp40
 70
     1
102
RTVSPropertyOp41
 70
     1
102
RTVSPropertyOp42
 70
     1
102
RTVSPropertyOp43
 70
     1
102
RTVSPropertyOp44
 70
     1
102
RTVSPropertyOp45
 70
     1
102
RTVSPropertyOp46
 70
     1
102
RTVSPropertyOp47
 70
     1
102
RTVSPropertyOp48
 70
     1
102
RTVSPropertyOp49
 70
     1
102
RTVSPropertyOp50
 70
     1
102
RTVSPropertyOp51
 70
     0
102
RTVSPropertyOp52
 70
     0
102
RTVSPropertyOp53
 70
     1
102
RTVSPropertyOp54
 70
     1
102
RTVSPropertyOp55
 70
     1
102
RTVSPropertyOp56
 70
     1
102
RTVSPropertyOp57
 70
     1
102
RTVSPost2010Prop28
280
     0
102
RTVSPost2010PropOp28
 70
     1
102
RTVSPost2010Prop29
280
     1
102
RTVSPost2010PropOp29
 70
     1
102
RTVSPost2010Prop30
280
     1
102
RTVSPost2010PropOp30
 70
     1
102
RTVSPost2010Prop31
280
     0
102
RTVSPost2010PropOp31
 70
     1
102
RTVSPost2010Prop32
280
     0
102
RTVSPost2010PropOp32
 70
     1
102
RTVSPost2010Prop33
280
     0
102
RTVSPost2010PropOp33
 70
     1
102
RTVSPost2010Prop34
280
     0
102
RTVSPost2010PropOp34
 70
     1
102
RTVSPost2010Prop35
280
     0
102
RTVSPost2010PropOp35
 70
     1
102
RTVSPost2010Prop36
280
     0
102
RTVSPost2010PropOp36
 70
     1
102
RTVSPost2010Prop37
 90
       50
102
RTVSPost2010PropOp37
 70
     1
102
RTVSPost2010Prop38
140
0.0
102
RTVSPost2010PropOp38
 70
     1
102
RTVSPost2010Prop39
140
1.0
102
RTVSPost2010PropOp39
 70
     1
102
RTVSPost2010Prop40
 90
        0
102
RTVSPost2010PropOp40
 70
     1
102
RTVSPost2010Prop41ColorIndex
 90
       18
102
RTVSPost2010Prop41ColorRGB
 90
        0
102
RTVSPost2010PropOp41
 70
     1
102
RTVSPost2010Prop42
 90
       50
102
RTVSPost2010PropOp42
 70
     1
102
RTVSPost2010Prop43
 90
        3
102
RTVSPost2010PropOp43
 70
     1
102
RTVSPost2010Prop44ColorIndex
 90
        5
102
RTVSPost2010Prop44ColorRGB
 90
      255
102
RTVSPost2010PropOp44
 70
     1
102
RTVSPost2010Prop45
280
     0
102
RTVSPost2010PropOp45
 70
     1
102
RTVSPost2010Prop46
 90
       50
102
RTVSPost2010PropOp46
 70
     1
102
RTVSPost2010Prop47
 90
       50
102
RTVSPost2010PropOp47
 70
     1
102
RTVSPost2010Prop48
 90
       50
102
RTVSPost2010PropOp48
 70
     1
102
RTVSPost2010Prop49
280
     0
102
RTVSPost2010PropOp49
 70
     1
102
RTVSPost2010Prop50
 90
       50
102
RTVSPost2010PropOp50
 70
     1
102
RTVSPost2010Prop51ColorIndex
 90
      256
102
RTVSPost2010Prop51ColorRGB
 90
-16777216
102
RTVSPost2010PropOp51
 70
     0
102
RTVSPost2010Prop52
140
1.0
102
RTVSPost2010PropOp52
 70
     0
102
RTVSPost2010Prop53
 90
        2
102
RTVSPost2010PropOp53
 70
     1
102
RTVSPost2010Prop54
  1
strokes_ogs.tif
102
RTVSPost2010PropOp54
 70
     1
102
RTVSPost2010Prop55
280
     0
102
RTVSPost2010PropOp55
 70
     1
102
RTVSPost2010Prop56
140
1.0
102
RTVSPost2010PropOp56
 70
     1
102
RTVSPost2010Prop57
140
1.0
102
RTVSPost2010PropOp57
 70
     1
  0
XRECORD
  5
165
102
{ACAD_REACTORS
330
164
102
}
330
164
100
AcDbXrecord
280
     1
102
RTVSPropertyOp0
 70
     1
102
RTVSPropertyOp1
 70
     1
102
RTVSPropertyOp2
 70
     1
102
RTVSPropertyOp3
 70
     1
102
RTVSPropertyOp4
 70
     1
102
RTVSPropertyOp5
 70
     1
102
RTVSPropertyOp6
 70
     1
102
RTVSPropertyOp7
 70
     1
102
RTVSPropertyOp8
 70
     1
102
RTVSPropertyOp9
 70
     1
102
RTVSPropertyOp10
 70
     1
102
RTVSPropertyOp11
 70
     1
102
RTVSPropertyOp12
 70
     1
102
RTVSPropertyOp13
 70
     1
102
RTVSPropertyOp14
 70
     1
102
RTVSPropertyOp15
 70
     1
102
RTVSPropertyOp16
 70
     1
102
RTVSPropertyOp17
 70
     1
102
RTVSPropertyOp18
 70
     1
102
RTVSPropertyOp19
 70
     1
102
RTVSPropertyOp20
 70
     1
102
RTVSPropertyOp21
 70
     1
102
RTVSPropertyOp22
 70
     1
102
RTVSPropertyOp23
 70
     1
102
RTVSPropertyOp24
 70
     1
102
RTVSPropertyOp25
 70
     1
102
RTVSPropertyOp26
 70
     1
102
RTVSPropertyOp27
 70
     1
102
RTVSPropertyOp28
 70
     1
102
RTVSPropertyOp29
 70
     1
102
RTVSPropertyOp30
 70
     1
102
RTVSPropertyOp31
 70
     1
102
RTVSPropertyOp32
 70
     1
102
RTVSPropertyOp33
 70
     1
102
RTVSPropertyOp34
 70
     1
102
RTVSPropertyOp35
 70
     1
102
RTVSPropertyOp36
 70
     1
102
RTVSPropertyOp37
 70
     1
102
RTVSPropertyOp38
 70
     1
102
RTVSPropertyOp39
 70
     1
102
RTVSPropertyOp40
 70
     1
102
RTVSPropertyOp41
 70
     1
102
RTVSPropertyOp42
 70
     1
102
RTVSPropertyOp43
 70
     1
102
RTVSPropertyOp44
 70
     1
102
RTVSPropertyOp45
 70
     1
102
RTVSPropertyOp46
 70
     1
102
RTVSPropertyOp47
 70
     1
102
RTVSPropertyOp48
 70
     1
102
RTVSPropertyOp49
 70
     1
102
RTVSPropertyOp50
 70
     1
102
RTVSPropertyOp51
 70
     0
102
RTVSPropertyOp52
 70
     0
102
RTVSPropertyOp53
 70
     1
102
RTVSPropertyOp54
 70
     1
102
RTVSPropertyOp55
 70
     1
102
RTVSPropertyOp56
 70
     1
102
RTVSPropertyOp57
 70
     1
102
RTVSPost2010Prop28
280
     0
102
RTVSPost2010PropOp28
 70
     1
102
RTVSPost2010Prop29
280
     1
102
RTVSPost2010PropOp29
 70
     1
102
RTVSPost2010Prop30
280
     1
102
RTVSPost2010PropOp30
 70
     1
102
RTVSPost2010Prop31
280
     0
102
RTVSPost2010PropOp31
 70
     1
102
RTVSPost2010Prop32
280
     0
102
RTVSPost2010PropOp32
 70
     1
102
RTVSPost2010Prop33
280
     0
102
RTVSPost2010PropOp33
 70
     1
102
RTVSPost2010Prop34
280
     0
102
RTVSPost2010PropOp34
 70
     1
102
RTVSPost2010Prop35
280
     0
102
RTVSPost2010PropOp35
 70
     1
102
RTVSPost2010Prop36
280
     0
102
RTVSPost2010PropOp36
 70
     1
102
RTVSPost2010Prop37
 90
       50
102
RTVSPost2010PropOp37
 70
     1
102
RTVSPost2010Prop38
140
0.0
102
RTVSPost2010PropOp38
 70
     1
102
RTVSPost2010Prop39
140
1.0
102
RTVSPost2010PropOp39
 70
     1
102
RTVSPost2010Prop40
 90
        0
102
RTVSPost2010PropOp40
 70
     1
102
RTVSPost2010Prop41ColorIndex
 90
       18
102
RTVSPost2010Prop41ColorRGB
 90
        0
102
RTVSPost2010PropOp41
 70
     1
102
RTVSPost2010Prop42
 90
       50
102
RTVSPost2010PropOp42
 70
     1
102
RTVSPost2010Prop43
 90
        3
102
RTVSPost2010PropOp43
 70
     1
102
RTVSPost2010Prop44ColorIndex
 90
        5
102
RTVSPost2010Prop44ColorRGB
 90
      255
102
RTVSPost2010PropOp44
 70
     1
102
RTVSPost2010Prop45
280
     0
102
RTVSPost2010PropOp45
 70
     1
102
RTVSPost2010Prop46
 90
       50
102
RTVSPost2010PropOp46
 70
     1
102
RTVSPost2010Prop47
 90
       50
102
RTVSPost2010PropOp47
 70
     1
102
RTVSPost2010Prop48
 90
       50
102
RTVSPost2010PropOp48
 70
     1
102
RTVSPost2010Prop49
280
     0
102
RTVSPost2010PropOp49
 70
     1
102
RTVSPost2010Prop50
 90
       50
102
RTVSPost2010PropOp50
 70
     1
102
RTVSPost2010Prop51ColorIndex
 90
      256
102
RTVSPost2010Prop51ColorRGB
 90
-16777216
102
RTVSPost2010PropOp51
 70
     0
102
RTVSPost2010Prop52
140
1.0
102
RTVSPost2010PropOp52
 70
     0
102
RTVSPost2010Prop53
 90
        2
102
RTVSPost2010PropOp53
 70
     1
102
RTVSPost2010Prop54
  1
strokes_ogs.tif
102
RTVSPost2010PropOp54
 70
     1
102
RTVSPost2010Prop55
280
     0
102
RTVSPost2010PropOp55
 70
     1
102
RTVSPost2010Prop56
140
1.0
102
RTVSPost2010PropOp56
 70
     1
102
RTVSPost2010Prop57
140
1.0
102
RTVSPost2010PropOp57
 70
     1
  0
ENDSEC
  0
EOF
