  0
SECTION
  2
HEADER
  9
$ACADVER
  1
AC1015
  9
$ACADMAINTVER
 70
     6
  9
$DWGCODEPAGE
  3
ANSI_1252
  9
$INSBASE
 10
480.2025495496459
 20
436.058773161815
 30
0.0
  9
$EXTMIN
 10
463.0780883016632
 20
430.3687659590249
 30
0.0
  9
$EXTMAX
 10
499.2890873868965
 20
449.1991886522737
 30
0.0
  9
$LIMMIN
 10
0.0
 20
0.0
  9
$LIMMAX
 10
12.0
 20
9.0
  9
$ORTHOMODE
 70
     0
  9
$REGENMODE
 70
     1
  9
$FILLMODE
 70
     1
  9
$QTEXTMODE
 70
     0
  9
$MIRRTEXT
 70
     1
  9
$LTSCALE
 40
1.0
  9
$ATTMODE
 70
     1
  9
$TEXTSIZE
 40
0.2
  9
$TRACEWID
 40
0.05
  9
$TEXTSTYLE
  7
Standard
  9
$CLAYER
  8
0
  9
$CELTYPE
  6
ByLayer
  9
$CECOLOR
 62
   256
  9
$CELTSCALE
 40
1.0
  9
$DISPSILH
 70
     0
  9
$DIMSCALE
 40
1.0
  9
$DIMASZ
 40
0.18
  9
$DIMEXO
 40
0.0625
  9
$DIMDLI
 40
0.38
  9
$DIMRND
 40
0.0
  9
$DIMDLE
 40
0.0
  9
$DIMEXE
 40
0.18
  9
$DIMTP
 40
0.0
  9
$DIMTM
 40
0.0
  9
$DIMTXT
 40
0.18
  9
$DIMCEN
 40
0.09
  9
$DIMTSZ
 40
0.0
  9
$DIMTOL
 70
     0
  9
$DIMLIM
 70
     0
  9
$DIMTIH
 70
     1
  9
$DIMTOH
 70
     1
  9
$DIMSE1
 70
     0
  9
$DIMSE2
 70
     0
  9
$DIMTAD
 70
     0
  9
$DIMZIN
 70
     0
  9
$DIMBLK
  1

  9
$DIMASO
 70
     1
  9
$DIMSHO
 70
     1
  9
$DIMPOST
  1

  9
$DIMAPOST
  1

  9
$DIMALT
 70
     0
  9
$DIMALTD
 70
     2
  9
$DIMALTF
 40
25.4
  9
$DIMLFAC
 40
1.0
  9
$DIMTOFL
 70
     0
  9
$DIMTVP
 40
0.0
  9
$DIMTIX
 70
     0
  9
$DIMSOXD
 70
     0
  9
$DIMSAH
 70
     0
  9
$DIMBLK1
  1

  9
$DIMBLK2
  1

  9
$DIMSTYLE
  2
Standard
  9
$DIMCLRD
 70
     0
  9
$DIMCLRE
 70
     0
  9
$DIMCLRT
 70
     0
  9
$DIMTFAC
 40
1.0
  9
$DIMGAP
 40
0.09
  9
$DIMJUST
 70
     0
  9
$DIMSD1
 70
     0
  9
$DIMSD2
 70
     0
  9
$DIMTOLJ
 70
     1
  9
$DIMTZIN
 70
     0
  9
$DIMALTZ
 70
     0
  9
$DIMALTTZ
 70
     0
  9
$DIMUPT
 70
     0
  9
$DIMDEC
 70
     4
  9
$DIMTDEC
 70
     4
  9
$DIMALTU
 70
     2
  9
$DIMALTTD
 70
     2
  9
$DIMTXSTY
  7
Standard
  9
$DIMAUNIT
 70
     0
  9
$DIMADEC
 70
     0
  9
$DIMALTRND
 40
0.0
  9
$DIMAZIN
 70
     0
  9
$DIMDSEP
 70
    46
  9
$DIMATFIT
 70
     3
  9
$DIMFRAC
 70
     0
  9
$DIMLDRBLK
  1

  9
$DIMLUNIT
 70
     2
  9
$DIMLWD
 70
    -2
  9
$DIMLWE
 70
    -2
  9
$DIMTMOVE
 70
     0
  9
$LUNITS
 70
     2
  9
$LUPREC
 70
     4
  9
$SKETCHINC
 40
0.1
  9
$FILLETRAD
 40
0.5
  9
$AUNITS
 70
     0
  9
$AUPREC
 70
     0
  9
$MENU
  1
.
  9
$ELEVATION
 40
0.0
  9
$PELEVATION
 40
0.0
  9
$THICKNESS
 40
0.0
  9
$LIMCHECK
 70
     0
  9
$CHAMFERA
 40
0.5
  9
$CHAMFERB
 40
0.5
  9
$CHAMFERC
 40
1.0
  9
$CHAMFERD
 40
0.0
  9
$SKPOLY
 70
     0
  9
$TDCREATE
 40
2458676.485268229
  9
$TDUCREATE
 40
2458676.651934896
  9
$TDUPDATE
 40
2458708.549131539
  9
$TDUUPDATE
 40
2458708.715798206
  9
$TDINDWG
 40
0.1704744676
  9
$TDUSRTIMER
 40
0.1704744676
  9
$USRTIMER
 70
     1
  9
$ANGBASE
 50
0.0
  9
$ANGDIR
 70
     0
  9
$PDMODE
 70
     0
  9
$PDSIZE
 40
0.0
  9
$PLINEWID
 40
0.0
  9
$SPLFRAME
 70
     0
  9
$SPLINETYPE
 70
     6
  9
$SPLINESEGS
 70
     8
  9
$HANDSEED
  5
17B
  9
$SURFTAB1
 70
     6
  9
$SURFTAB2
 70
     6
  9
$SURFTYPE
 70
     6
  9
$SURFU
 70
     6
  9
$SURFV
 70
     6
  9
$UCSBASE
  2

  9
$UCSNAME
  2

  9
$UCSORG
 10
0.0
 20
0.0
 30
0.0
  9
$UCSXDIR
 10
1.0
 20
0.0
 30
0.0
  9
$UCSYDIR
 10
0.0
 20
1.0
 30
0.0
  9
$UCSORTHOREF
  2

  9
$UCSORTHOVIEW
 70
     0
  9
$UCSORGTOP
 10
0.0
 20
0.0
 30
0.0
  9
$UCSORGBOTTOM
 10
0.0
 20
0.0
 30
0.0
  9
$UCSORGLEFT
 10
0.0
 20
0.0
 30
0.0
  9
$UCSORGRIGHT
 10
0.0
 20
0.0
 30
0.0
  9
$UCSORGFRONT
 10
0.0
 20
0.0
 30
0.0
  9
$UCSORGBACK
 10
0.0
 20
0.0
 30
0.0
  9
$PUCSBASE
  2

  9
$PUCSNAME
  2

  9
$PUCSORG
 10
0.0
 20
0.0
 30
0.0
  9
$PUCSXDIR
 10
1.0
 20
0.0
 30
0.0
  9
$PUCSYDIR
 10
0.0
 20
1.0
 30
0.0
  9
$PUCSORTHOREF
  2

  9
$PUCSORTHOVIEW
 70
     0
  9
$PUCSORGTOP
 10
0.0
 20
0.0
 30
0.0
  9
$PUCSORGBOTTOM
 10
0.0
 20
0.0
 30
0.0
  9
$PUCSORGLEFT
 10
0.0
 20
0.0
 30
0.0
  9
$PUCSORGRIGHT
 10
0.0
 20
0.0
 30
0.0
  9
$PUCSORGFRONT
 10
0.0
 20
0.0
 30
0.0
  9
$PUCSORGBACK
 10
0.0
 20
0.0
 30
0.0
  9
$USERI1
 70
     0
  9
$USERI2
 70
     0
  9
$USERI3
 70
     0
  9
$USERI4
 70
     0
  9
$USERI5
 70
     0
  9
$USERR1
 40
0.0
  9
$USERR2
 40
0.0
  9
$USERR3
 40
0.0
  9
$USERR4
 40
0.0
  9
$USERR5
 40
0.0
  9
$WORLDVIEW
 70
     1
  9
$SHADEDGE
 70
     3
  9
$SHADEDIF
 70
    70
  9
$TILEMODE
 70
     1
  9
$MAXACTVP
 70
    64
  9
$PINSBASE
 10
0.0
 20
0.0
 30
0.0
  9
$PLIMCHECK
 70
     0
  9
$PEXTMIN
 10
1.000000000000000E+20
 20
1.000000000000000E+20
 30
1.000000000000000E+20
  9
$PEXTMAX
 10
-1.000000000000000E+20
 20
-1.000000000000000E+20
 30
-1.000000000000000E+20
  9
$PLIMMIN
 10
-0.25
 20
-0.25
  9
$PLIMMAX
 10
10.75
 20
8.25
  9
$UNITMODE
 70
     0
  9
$VISRETAIN
 70
     1
  9
$PLINEGEN
 70
     0
  9
$PSLTSCALE
 70
     1
  9
$TREEDEPTH
 70
  3020
  9
$CMLSTYLE
  2
Standard
  9
$CMLJUST
 70
     0
  9
$CMLSCALE
 40
1.0
  9
$PROXYGRAPHICS
 70
     1
  9
$MEASUREMENT
 70
     0
  9
$CELWEIGHT
370
    -1
  9
$ENDCAPS
280
     0
  9
$JOINSTYLE
280
     0
  9
$LWDISPLAY
290
     1
  9
$INSUNITS
 70
     1
  9
$HYPERLINKBASE
  1

  9
$STYLESHEET
  1

  9
$XEDIT
290
     1
  9
$CEPSNTYPE
380
     0
  9
$PSTYLEMODE
290
     1
  9
$FINGERPRINTGUID
  2
{3FF96223-F9C2-48F7-A4C5-C732E40B2087}
  9
$VERSIONGUID
  2
{FAEB1C32-E019-11D5-929B-00C0DF256EC4}
  9
$EXTNAMES
290
     1
  9
$PSVPSCALE
 40
0.0
  9
$OLESTARTUP
290
     0
  0
ENDSEC
  0
SECTION
  2
CLASSES
  0
CLASS
  1
ACDBDICTIONARYWDFLT
  2
AcDbDictionaryWithDefault
  3
ObjectDBX Classes
 90
        0
280
     0
281
     0
  0
CLASS
  1
MATERIAL
  2
AcDbMaterial
  3
ObjectDBX Classes
 90
     1153
280
     0
281
     0
  0
CLASS
  1
VISUALSTYLE
  2
AcDbVisualStyle
  3
ObjectDBX Classes
 90
     4095
280
     0
281
     0
  0
CLASS
  1
SUN
  2
AcDbSun
  3
SCENEOE
 90
     1153
280
     0
281
     0
  0
CLASS
  1
SCALE
  2
AcDbScale
  3
ObjectDBX Classes
 90
     1153
280
     0
281
     0
  0
CLASS
  1
DICTIONARYVAR
  2
AcDbDictionaryVar
  3
ObjectDBX Classes
 90
        0
280
     0
281
     0
  0
CLASS
  1
MLEADERSTYLE
  2
AcDbMLeaderStyle
  3
ACDB_MLEADERSTYLE_CLASS
 90
     4095
280
     0
281
     0
  0
CLASS
  1
TABLESTYLE
  2
AcDbTableStyle
  3
ObjectDBX Classes
 90
     4095
280
     0
281
     0
  0
CLASS
  1
ACDBPLACEHOLDER
  2
AcDbPlaceHolder
  3
ObjectDBX Classes
 90
        0
280
     0
281
     0
  0
CLASS
  1
LAYOUT
  2
AcDbLayout
  3
ObjectDBX Classes
 90
        0
280
     0
281
     0
  0
ENDSEC
  0
SECTION
  2
TABLES
  0
TABLE
  2
VPORT
  5
1F
102
{ACAD_XDICTIONARY
360
13F
102
}
330
0
100
AcDbSymbolTable
 70
     1
  0
VPORT
  5
25
330
1F
100
AcDbSymbolTableRecord
100
AcDbViewportTableRecord
  2
*Active
 70
     0
 10
0.0
 20
0.0
 11
1.0
 21
1.0
 12
481.1835878442798
 22
439.7839773056493
 13
0.0
 23
0.0
 14
0.5
 24
0.5
 15
0.5
 25
0.5
 16
0.0
 26
0.0
 36
1.0
 17
0.0
 27
0.0
 37
0.0
 40
19.20703114711378
 41
1.923005111203154
 42
50.0
 43
0.0
 44
0.0
 50
0.0
 51
0.0
 71
    16
 72
   100
 73
     1
 74
     3
 75
     0
 76
     0
 77
     0
 78
     0
281
     0
 65
     1
110
0.0
120
0.0
130
0.0
111
1.0
121
0.0
131
0.0
112
0.0
122
1.0
132
0.0
 79
     0
146
0.0
  0
ENDTAB
  0
TABLE
  2
LTYPE
  5
9
330
0
100
AcDbSymbolTable
 70
     1
  0
LTYPE
  5
A
330
9
100
AcDbSymbolTableRecord
100
AcDbLinetypeTableRecord
  2
ByBlock
 70
     0
  3

 72
    65
 73
     0
 40
0.0
  0
LTYPE
  5
B
330
9
100
AcDbSymbolTableRecord
100
AcDbLinetypeTableRecord
  2
ByLayer
 70
     0
  3

 72
    65
 73
     0
 40
0.0
  0
LTYPE
  5
8
330
9
100
AcDbSymbolTableRecord
100
AcDbLinetypeTableRecord
  2
Continuous
 70
     0
  3
Solid line
 72
    65
 73
     0
 40
0.0
  0
ENDTAB
  0
TABLE
  2
LAYER
  5
2
330
0
100
AcDbSymbolTable
 70
     2
  0
LAYER
  5
1
330
2
100
AcDbSymbolTableRecord
100
AcDbLayerTableRecord
  2
0
 70
     0
 62
     7
  6
Continuous
370
    -3
390
3
  0
LAYER
  5
4E
330
2
100
AcDbSymbolTableRecord
100
AcDbLayerTableRecord
  2
Layer 1
 70
     0
 62
     7
  6
Continuous
370
    -3
390
3
  0
ENDTAB
  0
TABLE
  2
STYLE
  5
D
330
0
100
AcDbSymbolTable
 70
     1
  0
STYLE
  5
C
330
D
100
AcDbSymbolTableRecord
100
AcDbTextStyleTableRecord
  2
Standard
 70
     0
 40
0.0
 41
1.0
 50
0.0
 71
     0
 42
0.2
  3
txt
  4

  0
ENDTAB
  0
TABLE
  2
VIEW
  5
1D
330
0
100
AcDbSymbolTable
 70
     0
  0
ENDTAB
  0
TABLE
  2
UCS
  5
1E
330
0
100
AcDbSymbolTable
 70
     0
  0
ENDTAB
  0
TABLE
  2
APPID
  5
20
330
0
100
AcDbSymbolTable
 70
     2
  0
APPID
  5
24
330
20
100
AcDbSymbolTableRecord
100
AcDbRegAppTableRecord
  2
ACAD
 70
     0
  0
APPID
  5
178
330
20
100
AcDbSymbolTableRecord
100
AcDbRegAppTableRecord
  2
ACAD_MLEADERVER
 70
     0
  0
ENDTAB
  0
TABLE
  2
DIMSTYLE
  5
10
330
0
100
AcDbSymbolTable
 70
     1
100
AcDbDimStyleTable
  0
DIMSTYLE
105
F
330
10
100
AcDbSymbolTableRecord
100
AcDbDimStyleTableRecord
  2
Standard
 70
     0
178
     0
340
C
  0
ENDTAB
  0
TABLE
  2
BLOCK_RECORD
  5
13
330
0
100
AcDbSymbolTable
 70
     0
  0
BLOCK_RECORD
  5
14
330
13
100
AcDbSymbolTableRecord
100
AcDbBlockTableRecord
  2
*Model_Space
340
17
  0
BLOCK_RECORD
  5
19
330
13
100
AcDbSymbolTableRecord
100
AcDbBlockTableRecord
  2
*Paper_Space
340
1C
  0
ENDTAB
  0
ENDSEC
  0
SECTION
  2
BLOCKS
  0
BLOCK
  5
15
330
14
100
AcDbEntity
  8
0
100
AcDbBlockBegin
  2
*Model_Space
 70
     0
 10
0.0
 20
0.0
 30
0.0
  3
*Model_Space
  1

  0
ENDBLK
  5
16
330
14
100
AcDbEntity
  8
0
100
AcDbBlockEnd
  0
BLOCK
  5
1A
330
19
100
AcDbEntity
 67
     1
  8
0
100
AcDbBlockBegin
  2
*Paper_Space
 70
     0
 10
0.0
 20
0.0
 30
0.0
  3
*Paper_Space
  1

  0
ENDBLK
  5
1B
330
19
100
AcDbEntity
 67
     1
  8
0
100
AcDbBlockEnd
  0
ENDSEC
  0
SECTION
  2
ENTITIES
  0
HATCH
  5
4D
330
14
100
AcDbEntity
  8
Layer 1
 62
     7
100
AcDbHatch
 10
0.0
 20
0.0
 30
0.0
210
0.0
220
0.0
230
1.0
  2
SOLID
 70
     1
 71
     0
 91
       57
 92
        1
 93
        1
 72
     4
 94
        3
 73
     0
 74
     1
 95
      329
 96
      325
 40
0.0
 40
0.0
 40
0.0
 40
0.0
 40
1.0
 40
1.0
 40
1.0
 40
2.0
 40
2.0
 40
2.0
 40
3.0
 40
3.0
 40
3.0
 40
4.0
 40
4.0
 40
4.0
 40
5.0
 40
5.0
 40
5.0
 40
6.0
 40
6.0
 40
6.0
 40
7.0
 40
7.0
 40
7.0
 40
8.0
 40
8.0
 40
8.0
 40
9.0
 40
9.0
 40
9.0
 40
10.0
 40
10.0
 40
10.0
 40
11.0
 40
11.0
 40
11.0
 40
12.0
 40
12.0
 40
12.0
 40
13.0
 40
13.0
 40
13.0
 40
14.0
 40
14.0
 40
14.0
 40
15.0
 40
15.0
 40
15.0
 40
16.0
 40
16.0
 40
16.0
 40
17.0
 40
17.0
 40
17.0
 40
18.0
 40
18.0
 40
18.0
 40
19.0
 40
19.0
 40
19.0
 40
20.0
 40
20.0
 40
20.0
 40
21.0
 40
21.0
 40
21.0
 40
22.0
 40
22.0
 40
22.0
 40
23.0
 40
23.0
 40
23.0
 40
24.0
 40
24.0
 40
24.0
 40
25.0
 40
25.0
 40
25.0
 40
26.0
 40
26.0
 40
26.0
 40
27.0
 40
27.0
 40
27.0
 40
28.0
 40
28.0
 40
28.0
 40
29.0
 40
29.0
 40
29.0
 40
30.0
 40
30.0
 40
30.0
 40
31.0
 40
31.0
 40
31.0
 40
32.0
 40
32.0
 40
32.0
 40
33.0
 40
33.0
 40
33.0
 40
34.0
 40
34.0
 40
34.0
 40
35.0
 40
35.0
 40
35.0
 40
36.0
 40
36.0
 40
36.0
 40
37.0
 40
37.0
 40
37.0
 40
38.0
 40
38.0
 40
38.0
 40
39.0
 40
39.0
 40
39.0
 40
40.0
 40
40.0
 40
40.0
 40
41.0
 40
41.0
 40
41.0
 40
42.0
 40
42.0
 40
42.0
 40
43.0
 40
43.0
 40
43.0
 40
44.0
 40
44.0
 40
44.0
 40
45.0
 40
45.0
 40
45.0
 40
46.0
 40
46.0
 40
46.0
 40
47.0
 40
47.0
 40
47.0
 40
48.0
 40
48.0
 40
48.0
 40
49.0
 40
49.0
 40
49.0
 40
50.0
 40
50.0
 40
50.0
 40
51.0
 40
51.0
 40
51.0
 40
52.0
 40
52.0
 40
52.0
 40
53.0
 40
53.0
 40
53.0
 40
54.0
 40
54.0
 40
54.0
 40
55.0
 40
55.0
 40
55.0
 40
56.0
 40
56.0
 40
56.0
 40
57.0
 40
57.0
 40
57.0
 40
58.0
 40
58.0
 40
58.0
 40
59.0
 40
59.0
 40
59.0
 40
60.0
 40
60.0
 40
60.0
 40
61.0
 40
61.0
 40
61.0
 40
62.0
 40
62.0
 40
62.0
 40
63.0
 40
63.0
 40
63.0
 40
64.0
 40
64.0
 40
64.0
 40
65.0
 40
65.0
 40
65.0
 40
66.0
 40
66.0
 40
66.0
 40
67.0
 40
67.0
 40
67.0
 40
68.0
 40
68.0
 40
68.0
 40
69.0
 40
69.0
 40
69.0
 40
70.0
 40
70.0
 40
70.0
 40
71.0
 40
71.0
 40
71.0
 40
72.0
 40
72.0
 40
72.0
 40
73.0
 40
73.0
 40
73.0
 40
74.0
 40
74.0
 40
74.0
 40
75.0
 40
75.0
 40
75.0
 40
76.0
 40
76.0
 40
76.0
 40
77.0
 40
77.0
 40
77.0
 40
78.0
 40
78.0
 40
78.0
 40
79.0
 40
79.0
 40
79.0
 40
80.0
 40
80.0
 40
80.0
 40
81.0
 40
81.0
 40
81.0
 40
82.0
 40
82.0
 40
82.0
 40
83.0
 40
83.0
 40
83.0
 40
84.0
 40
84.0
 40
84.0
 40
85.0
 40
85.0
 40
85.0
 40
86.0
 40
86.0
 40
86.0
 40
87.0
 40
87.0
 40
87.0
 40
88.0
 40
88.0
 40
88.0
 40
89.0
 40
89.0
 40
89.0
 40
90.0
 40
90.0
 40
90.0
 40
91.0
 40
91.0
 40
91.0
 40
92.0
 40
92.0
 40
92.0
 40
93.0
 40
93.0
 40
93.0
 40
94.0
 40
94.0
 40
94.0
 40
95.0
 40
95.0
 40
95.0
 40
96.0
 40
96.0
 40
96.0
 40
97.0
 40
97.0
 40
97.0
 40
98.0
 40
98.0
 40
98.0
 40
99.0
 40
99.0
 40
99.0
 40
100.0
 40
100.0
 40
100.0
 40
101.0
 40
101.0
 40
101.0
 40
102.0
 40
102.0
 40
102.0
 40
103.0
 40
103.0
 40
103.0
 40
104.0
 40
104.0
 40
104.0
 40
105.0
 40
105.0
 40
105.0
 40
106.0
 40
106.0
 40
106.0
 40
107.0
 40
107.0
 40
107.0
 40
108.0
 40
108.0
 40
108.0
 40
108.0
 10
494.7782875008488
 20
437.5141889474617
 10
494.7782875008488
 20
437.5141889474617
 10
495.0644874936188
 20
437.1229999999996
 10
495.0644874936188
 20
437.1229999999996
 10
495.0644874936188
 20
437.1229999999996
 10
496.4198874593785
 20
437.6752889433919
 10
496.4198874593785
 20
437.6752889433919
 10
496.4179999999997
 20
437.6928889429473
 10
496.4159999999993
 20
437.7103889425052
 10
496.414087459525
 20
437.7290000000003
 10
496.5155874569609
 20
437.9237889371143
 10
496.6171874543943
 20
438.1171889322286
 10
496.7196874518049
 20
438.3109999999997
 10
496.7694874505469
 20
438.1210889321301
 10
496.8397874487709
 20
437.9794889357072
 10
496.9218874466969
 20
437.8793889382359
 10
496.9218874466969
 20
437.8793889382359
 10
497.3808874351016
 20
438.0663889335119
 10
497.3808874351016
 20
438.0663889335119
 10
497.3808874351016
 20
438.0663889335119
 10
497.5800874300694
 20
437.8163889398274
 10
497.5800874300694
 20
437.8163889398274
 10
497.6669999999995
 20
437.9145889373467
 10
497.7157874266413
 20
438.0590889336963
 10
497.6962874271339
 20
438.2338889292805
 10
497.6347874286876
 20
438.3461889264436
 10
497.5712874302917
 20
438.4594889235814
 10
497.5097874318453
 20
438.5712889207571
 10
497.4628874330301
 20
438.6566889185997
 10
497.4140874342629
 20
438.7416889164524
 10
497.3671874354477
 20
438.8266889143051
 10
497.3671874354477
 20
438.8266889143051
 10
497.3397874361399
 20
439.0190000000002
 10
497.3397874361399
 20
439.0190000000002
 10
497.3397874361399
 20
439.0190000000002
 10
496.9472874460553
 20
439.0190000000002
 10
496.9472874460553
 20
439.0190000000002
 10
496.9472874460553
 20
439.0190000000002
 10
496.2948874625363
 20
440.2924888772759
 10
496.2948874625363
 20
440.2924888772759
 10
496.2948874625363
 20
440.2924888772759
 10
496.2948874625363
 20
442.9896888091389
 10
496.2948874625363
 20
442.9896888091389
 10
496.2948874625363
 20
442.9896888091389
 10
496.9120874469445
 20
442.9896888091389
 10
496.9120874469445
 20
442.9896888091389
 10
496.9120874469445
 20
442.9896888091389
 10
496.9120874469445
 20
444.415
 10
496.9120874469445
 20
444.415
 10
496.9120874469445
 20
444.415
 10
473.1308880477081
 20
444.1005887810752
 10
473.1308880477081
 20
444.1005887810752
 10
473.154288047117
 20
444.0150887832351
 10
473.1776880465259
 20
443.9281887854304
 10
473.1991880459827
 20
443.8412887876257
 10
473.3671880417387
 20
443.1723888045235
 10
473.4491880396672
 20
442.4570000000003
 10
473.4042880408015
 20
441.6723888424167
 10
473.4042880408015
 20
441.6723888424167
 10
473.402288040852
 20
441.6400888432327
 10
473.402288040852
 20
441.6400888432327
 10
473.402288040852
 20
441.6400888432327
 10
473.3905880411476
 20
441.6073888440587
 10
473.3905880411476
 20
441.6073888440587
 10
473.3905880411476
 20
441.6073888440587
 10
472.7080000000005
 20
439.5526888959648
 10
472.7080000000005
 20
439.5526888959648
 10
472.7080000000005
 20
439.5526888959648
 10
473.3397880424309
 20
439.5526888959648
 10
473.3397880424309
 20
439.5526888959648
 10
473.3397880424309
 20
439.5526888959648
 10
473.3397880424309
 20
438.7582889160331
 10
473.3397880424309
 20
438.7582889160331
 10
473.3397880424309
 20
438.7582889160331
 10
470.5020000000004
 20
438.7582889160331
 10
470.5020000000004
 20
438.7582889160331
 10
470.5020000000004
 20
438.7582889160331
 10
470.5020000000004
 20
436.9584889614998
 10
470.5020000000004
 20
436.9584889614998
 10
470.5020000000004
 20
436.9584889614998
 10
487.121087694286
 20
436.9413889619318
 10
487.121087694286
 20
436.9413889619318
 10
487.121087694286
 20
436.9413889619318
 10
487.121087694286
 20
436.5190000000002
 10
487.121087694286
 20
436.5190000000002
 10
487.3866876875763
 20
436.6552889691593
 10
487.6815876801265
 20
436.7645889663982
 10
488.0067876719113
 20
436.8480889642888
 10
488.0067876719113
 20
436.6913889682473
 10
488.0067876719113
 20
436.5346889722059
 10
488.0067876719113
 20
436.3783889761544
 10
486.3837877129117
 20
435.8622889891922
 10
485.7812877281322
 20
434.6278890203757
 10
485.8388877266771
 20
432.9306890632506
 10
485.6698877309464
 20
432.9306890632506
 10
485.4989999999998
 20
432.9306890632506
 10
485.3300877395304
 20
432.9306890632506
 10
485.3261877396289
 20
433.1264890583043
 10
485.3300877395304
 20
433.314489053555
 10
485.3417877392349
 20
433.4950890489927
 10
485.3417877392349
 20
433.4950890489927
 10
477.4091879396292
 20
433.4950890489927
 10
477.4091879396292
 20
433.4950890489927
 10
477.4101879396039
 20
433.4198890508924
 10
477.4101879396039
 20
433.3441890528047
 10
477.4101879396039
 20
433.2670890547524
 10
477.4228879392831
 20
433.1640890573544
 10
477.4354879389648
 20
433.0604890599716
 10
477.4452879387172
 20
432.9555890626216
 10
477.4452879387172
 20
432.9555890626216
 10
476.9716879506814
 20
432.9066890638569
 10
476.9716879506814
 20
432.9066890638569
 10
476.9062879523335
 20
433.5424890477952
 10
476.7948879551477
 20
434.1381890327466
 10
476.6347879591922
 20
434.693789018711
 10
476.4882879628931
 20
435.1986890059561
 10
476.3017879676045
 20
435.6713889940147
 10
476.0741879733541
 20
436.1098889829373
 10
476.0741879733541
 20
436.1098889829373
 10
472.1239999999998
 20
436.1098889829373
 10
472.1239999999998
 20
436.1098889829373
 10
471.8573880798795
 20
435.7333889924485
 10
471.605488086243
 20
435.2592890044252
 10
471.4022880913762
 20
434.7060890184002
 10
471.2070000000003
 20
434.1718890318953
 10
471.0585881000588
 20
433.5663890471915
 10
470.9882881018348
 20
432.9057890638796
 10
470.9882881018348
 20
432.9057890638796
 10
470.6083881114319
 20
432.9467890628439
 10
470.6083881114319
 20
432.9467890628439
 10
470.6083881114319
 20
432.9467890628439
 10
470.2226881211755
 20
432.9066890638569
 10
470.2226881211755
 20
432.9066890638569
 10
470.1562881228529
 20
433.5424890477952
 10
470.0458881256418
 20
434.1381890327466
 10
469.8847881297115
 20
434.693789018711
 10
469.7392881333872
 20
435.1986890059561
 10
469.5526881381011
 20
435.6713889940147
 10
469.3241881438735
 20
436.1098889829373
 10
469.3241881438735
 20
436.1098889829373
 10
465.375
 20
436.1098889829373
 10
465.375
 20
436.1098889829373
 10
465.1093882503483
 20
435.7333889924485
 10
464.8573882567143
 20
435.2592890044252
 10
464.6542882618451
 20
434.7060890184002
 10
464.4590000000007
 20
434.1718890318953
 10
464.3104882705302
 20
433.5663890471915
 10
464.2392882723288
 20
432.9057890638796
 10
464.2392882723288
 20
432.9057890638796
 10
464.0028882783008
 20
432.9306890632506
 10
464.0028882783008
 20
432.9306890632506
 10
464.0028882783008
 20
432.9306890632506
 10
463.7606882844193
 20
432.9306890632506
 10
463.7606882844193
 20
432.9306890632506
 10
463.7567882845178
 20
433.1264890583043
 10
463.761688284394
 20
433.314489053555
 10
463.7753882840479
 20
433.4950890489927
 10
463.7753882840479
 20
433.4950890489927
 10
463.0780883016632
 20
433.4950890489927
 10
463.0780883016632
 20
433.4950890489927
 10
463.0780883016632
 20
433.4950890489927
 10
463.0780883016632
 20
435.5907889960508
 10
463.0780883016632
 20
435.5907889960508
 10
463.0780883016632
 20
435.5907889960508
 10
464.0409999999993
 20
435.5907889960508
 10
464.0409999999993
 20
435.5907889960508
 10
464.0409999999993
 20
435.5907889960508
 10
464.0409999999993
 20
436.9647889613407
 10
464.0409999999993
 20
436.9647889613407
 10
464.0409999999993
 20
436.9647889613407
 10
466.8397882066347
 20
436.9618889614139
 10
466.8397882066347
 20
436.9618889614139
 10
466.8397882066347
 20
436.9618889614139
 10
466.8397882066347
 20
438.7582889160331
 10
466.8397882066347
 20
438.7582889160331
 10
466.8397882066347
 20
438.7582889160331
 10
463.5820000000003
 20
438.7582889160331
 10
463.5820000000003
 20
438.7582889160331
 10
463.5820000000003
 20
438.7582889160331
 10
463.5820000000003
 20
439.5526888959648
 10
463.5820000000003
 20
439.5526888959648
 10
463.5820000000003
 20
439.5526888959648
 10
464.0224882778057
 20
439.5526888959648
 10
464.0224882778057
 20
439.5526888959648
 10
464.0224882778057
 20
439.5526888959648
 10
464.0224882778057
 20
442.3764888246296
 10
464.0224882778057
 20
442.3764888246296
 10
464.0224882778057
 20
442.3764888246296
 10
467.125
 20
442.3764888246296
 10
467.125
 20
442.3764888246296
 10
467.125
 20
442.3764888246296
 10
467.125
 20
445.6127887428738
 10
467.125
 20
445.6127887428738
 10
467.125
 20
445.6127887428738
 10
467.125
 20
445.8627887365583
 10
467.125
 20
445.8627887365583
 10
467.125
 20
445.8627887365583
 10
467.375
 20
445.8627887365583
 10
467.375
 20
445.8627887365583
 10
467.375
 20
445.8627887365583
 10
469.0517881507549
 20
445.8627887365583
 10
469.0517881507549
 20
445.8627887365583
 10
469.0517881507549
 20
445.8627887365583
 10
469.2743881451315
 20
448.8852886602035
 10
469.2743881451315
 20
448.8852886602035
 10
469.2743881451315
 20
448.8852886602035
 10
469.2968881445631
 20
449.1991886522737
 10
469.2968881445631
 20
449.1991886522737
 10
469.2968881445631
 20
449.1991886522737
 10
469.5858881372624
 20
449.1991886522737
 10
469.5858881372624
 20
449.1991886522737
 10
469.5858881372624
 20
449.1991886522737
 10
472.6435880600184
 20
449.1991886522737
 10
472.6435880600184
 20
449.1991886522737
 10
472.6435880600184
 20
449.1991886522737
 10
472.9413880524953
 20
449.1991886522737
 10
472.9413880524953
 20
449.1991886522737
 10
472.9413880524953
 20
449.1991886522737
 10
472.9570000000003
 20
448.8754886604511
 10
472.9570000000003
 20
448.8754886604511
 10
472.9570000000003
 20
448.8754886604511
 10
473.0282880503
 20
447.3451886991097
 10
473.0282880503
 20
447.3451886991097
 10
473.0282880503
 20
447.3451886991097
 10
498.9511873954325
 20
447.1063887051423
 10
498.9511873954325
 20
447.1063887051423
 10
498.9511873954325
 20
447.1063887051423
 10
499.2890873868964
 20
447.1034887052156
 10
499.2890873868964
 20
447.1034887052156
 10
499.2890873868964
 20
447.1034887052156
 10
499.2890873868964
 20
446.7665887137264
 10
499.2890873868964
 20
446.7665887137264
 10
499.2890873868964
 20
446.7665887137264
 10
499.2890873868964
 20
444.7807887638919
 10
499.2890873868964
 20
444.7807887638919
 10
499.2890873868964
 20
444.7807887638919
 10
499.2890873868964
 20
444.4452887723673
 10
499.2890873868964
 20
444.4452887723673
 10
499.2890873868964
 20
444.4452887723673
 10
498.9520873954098
 20
444.4418887724532
 10
498.9520873954098
 20
444.4418887724532
 10
498.9520873954098
 20
444.4418887724532
 10
498.5458874056712
 20
444.4359999999997
 10
498.5458874056712
 20
444.4359999999997
 10
498.5458874056712
 20
444.4359999999997
 10
498.5458874056712
 20
442.9896888091389
 10
498.5458874056712
 20
442.9896888091389
 10
498.5458874056712
 20
442.9896888091389
 10
499.0751873923
 20
442.9896888091389
 10
499.0751873923
 20
442.9896888091389
 10
499.0751873923
 20
442.9896888091389
 10
499.0751873923
 20
440.2924888772759
 10
499.0751873923
 20
440.2924888772759
 10
499.0751873923
 20
440.2924888772759
 10
498.3808874098395
 20
439.0190000000002
 10
498.3808874098395
 20
439.0190000000002
 10
498.3808874098395
 20
439.0190000000002
 10
497.892587422175
 20
439.0190000000002
 10
497.892587422175
 20
439.0190000000002
 10
497.892587422175
 20
439.0190000000002
 10
498.3554874104811
 20
438.2226889295634
 10
498.3554874104811
 20
438.2226889295634
 10
498.6063874041429
 20
437.2567889539641
 10
497.7050874269116
 20
436.8534889641523
 10
497.0448874435897
 20
437.0351889595622
 10
497.0448874435897
 20
437.0351889595622
 10
495.3114874873791
 20
434.5375890226569
 10
495.3114874873791
 20
434.5375890226569
 10
495.3114874873791
 20
434.5375890226569
 10
495.3114874873791
 20
434.2538890298238
 10
495.3114874873791
 20
434.2538890298238
 10
495.3114874873791
 20
434.2538890298238
 10
494.6435875042516
 20
433.4735890495358
 10
494.6435875042516
 20
433.4735890495358
 10
494.6435875042516
 20
433.4735890495358
 10
492.6366875549502
 20
433.4735890495358
 10
492.6366875549502
 20
433.4735890495358
 10
492.6386875548997
 20
433.3540000000003
 10
492.6366875549502
 20
433.2333890556038
 10
492.6347875549982
 20
433.1127890586504
 10
492.4833875588229
 20
433.1127890586504
 10
492.3310875626703
 20
433.1127890586504
 10
492.179687566495
 20
433.1127890586504
 10
492.1757875665935
 20
435.1903890061658
 10
490.875
 20
436.7191889675451
 10
488.3515876632009
 20
436.4115889753157
 10
488.3515876632009
 20
436.4115889753157
 10
488.3515876632009
 20
437.5141889474617
 10
488.3515876632009
 20
437.5141889474617
 10
488.3515876632009
 20
437.5141889474617
 10
487.3760000000002
 20
437.5141889474617
 10
487.3760000000002
 20
437.5141889474617
 10
487.3760000000002
 20
437.5141889474617
 10
487.3760000000002
 20
443.2953888014163
 10
487.3760000000002
 20
443.2953888014163
 10
487.3760000000002
 20
443.2953888014163
 10
487.7978876771886
 20
444.0893887813581
 10
487.7978876771886
 20
444.0893887813581
 10
487.7978876771886
 20
444.0893887813581
 10
493.8349999999991
 20
444.0893887813581
 10
493.8349999999991
 20
444.0893887813581
 10
494.5878875056587
 20
442.7084888162426
 10
494.9804874957408
 20
441.3007888518041
 10
495.2167874897714
 20
439.8822888876384
 10
495.2167874897714
 20
439.8822888876384
 10
488.421887661425
 20
439.8822888876384
 10
488.421887661425
 20
439.8822888876384
 10
488.421887661425
 20
439.8822888876384
 10
488.421887661425
 20
439.6601888932491
 10
488.421887661425
 20
439.6601888932491
 10
488.421887661425
 20
439.6601888932491
 10
495.2255874895491
 20
439.6601888932491
 10
495.2255874895491
 20
439.6601888932491
 10
495.2255874895491
 20
439.6601888932491
 10
495.2636874885866
 20
438.2450889289976
 10
495.2636874885866
 20
438.2450889289976
 10
495.2636874885866
 20
438.2450889289976
 10
494.9081874975673
 20
437.5141889474617
 10
494.9081874975673
 20
437.5141889474617
 10
494.9081874975673
 20
437.5141889474617
 10
494.7782875008488
 20
437.5141889474617
 10
494.7782875008488
 20
437.5141889474617
 10
494.7782875008488
 20
437.5141889474617
 10
494.7782875008488
 20
437.5141889474617
 10
494.7782875008488
 20
437.5141889474617
 97
        0
 92
        1
 93
        1
 72
     4
 94
        3
 73
     0
 74
     1
 95
       23
 96
       19
 40
0.0
 40
0.0
 40
0.0
 40
0.0
 40
1.0
 40
1.0
 40
1.0
 40
2.0
 40
2.0
 40
2.0
 40
3.0
 40
3.0
 40
3.0
 40
4.0
 40
4.0
 40
4.0
 40
5.0
 40
5.0
 40
5.0
 40
6.0
 40
6.0
 40
6.0
 40
6.0
 10
495.2733874883415
 20
436.8407889644732
 10
495.2733874883415
 20
436.8407889644732
 10
495.3114874873791
 20
436.79
 10
495.3114874873791
 20
436.79
 10
495.3114874873791
 20
436.79
 10
495.3114874873791
 20
435.1337890075956
 10
495.3114874873791
 20
435.1337890075956
 10
495.3114874873791
 20
435.1337890075956
 10
496.7333874514588
 20
437.1815889558638
 10
496.7333874514588
 20
437.1815889558638
 10
496.6640874532095
 20
437.2313889546058
 10
496.6015874547884
 20
437.2920000000004
 10
496.5526874560237
 20
437.3612889513242
 10
496.5526874560237
 20
437.3612889513242
 10
495.2733874883415
 20
436.8407889644732
 10
495.2733874883415
 20
436.8407889644732
 10
495.2733874883415
 20
436.8407889644732
 10
495.2733874883415
 20
436.8407889644732
 10
495.2733874883415
 20
436.8407889644732
 97
        0
 92
        1
 93
        6
 72
     1
 10
472.4765880642371
 20
445.7665887389885
 11
472.4335880653234
 21
446.670888716144
 72
     1
 10
472.4335880653234
 20
446.670888716144
 11
469.7421881333139
 21
446.6957887155149
 72
     1
 10
469.7421881333139
 20
446.6957887155149
 11
469.6806881348675
 21
445.8627887365583
 72
     1
 10
469.6806881348675
 20
445.8627887365583
 11
472.2733880693704
 21
445.8627887365583
 72
     1
 10
472.2733880693704
 20
445.8627887365583
 11
472.4296880654219
 21
445.8627887365583
 72
     1
 10
472.4296880654219
 20
445.8627887365583
 11
472.4765880642371
 21
445.7665887389885
 97
        0
 92
        1
 93
        4
 72
     1
 10
472.4022880661141
 20
447.3510886989607
 11
472.3476880674934
 21
448.517088669505
 72
     1
 10
472.3476880674934
 20
448.517088669505
 11
469.875
 21
448.517088669505
 72
     1
 10
469.875
 20
448.517088669505
 11
469.7919999999995
 21
447.375
 72
     1
 10
469.7919999999995
 20
447.375
 11
472.4022880661141
 21
447.3510886989607
 97
        0
 92
        1
 93
        3
 72
     1
 10
495.9745874706277
 20
446.4540887216208
 11
495.9745874706277
 21
445.1195887553331
 72
     1
 10
495.9745874706277
 20
445.1195887553331
 11
497.9013874219527
 21
446.4364887220654
 72
     1
 10
497.9013874219527
 20
446.4364887220654
 11
495.9745874706277
 21
446.4540887216208
 97
        0
 92
        1
 93
        3
 72
     1
 10
498.6073874041176
 20
446.3861887233361
 11
496.7099999999991
 21
445.0917887560354
 72
     1
 10
496.7099999999991
 20
445.0917887560354
 11
498.6073874041176
 21
445.116188755419
 72
     1
 10
498.6073874041176
 20
445.116188755419
 11
498.6073874041176
 21
446.3861887233361
 97
        0
 92
        1
 93
        3
 72
     1
 10
495.5194874821245
 20
445.0766887564168
 11
495.5194874821245
 21
446.3549999999996
 72
     1
 10
495.5194874821245
 20
446.3549999999996
 11
493.6112875303297
 21
445.0512887570585
 72
     1
 10
493.6112875303297
 20
445.0512887570585
 11
495.5194874821245
 21
445.0766887564168
 97
        0
 92
        1
 93
        3
 72
     1
 10
492.9345875474246
 20
446.4818887209185
 11
492.9345875474246
 21
445.1195887553331
 72
     1
 10
492.9345875474246
 20
445.1195887553331
 11
494.9022874977163
 21
446.4643887213606
 72
     1
 10
494.9022874977163
 20
446.4643887213606
 11
492.9345875474246
 21
446.4818887209185
 97
        0
 92
        1
 93
        3
 72
     1
 10
492.4804875588961
 20
445.0365887574299
 11
492.4804875588961
 21
446.4320887221766
 72
     1
 10
492.4804875588961
 20
446.4320887221766
 11
490.3983876114944
 21
445.0097887581069
 72
     1
 10
490.3983876114944
 20
445.0097887581069
 11
492.4804875588961
 21
445.0365887574299
 97
        0
 92
        1
 93
        3
 72
     1
 10
489.7821876270609
 20
446.5116887201657
 11
489.7821876270609
 21
445.1195887553331
 72
     1
 10
489.7821876270609
 20
445.1195887553331
 11
491.7919999999995
 21
446.493188720633
 72
     1
 10
491.7919999999995
 20
446.493188720633
 11
489.7821876270609
 21
446.5116887201657
 97
        0
 92
        1
 93
        3
 72
     1
 10
489.3280876385325
 20
444.9955887584656
 11
489.3280876385325
 21
446.4306887222119
 72
     1
 10
489.3280876385325
 20
446.4306887222119
 11
487.1845876926818
 21
444.9677887591679
 72
     1
 10
487.1845876926818
 20
444.9677887591679
 11
489.3280876385325
 21
444.9955887584656
 97
        0
 92
        1
 93
        3
 72
     1
 10
486.62888770672
 20
446.54
 11
486.62888770672
 21
445.1195887553331
 72
     1
 10
486.62888770672
 20
445.1195887553331
 11
488.6815876548644
 21
446.5219999999999
 72
     1
 10
488.6815876548644
 20
446.5219999999999
 11
486.62888770672
 21
446.54
 97
        0
 92
        1
 93
        4
 72
     1
 10
486.1757877181662
 20
444.9550887594887
 11
486.1757877181662
 21
446.544888719327
 72
     1
 10
486.1757877181662
 20
446.544888719327
 11
486.1679999999997
 21
446.544888719327
 72
     1
 10
486.1679999999997
 20
446.544888719327
 11
483.7948877783128
 21
444.9237887602794
 72
     1
 10
483.7948877783128
 20
444.9237887602794
 11
486.1757877181662
 21
444.9550887594887
 97
        0
 92
        1
 93
        3
 72
     1
 10
483.3046877906963
 20
446.5707887186727
 11
483.3046877906963
 21
445.1195887553331
 72
     1
 10
483.3046877906963
 20
445.1195887553331
 11
485.4003877377545
 21
446.5512887191653
 72
     1
 10
485.4003877377545
 20
446.5512887191653
 11
483.3046877906963
 21
446.5707887186727
 97
        0
 92
        1
 93
        3
 72
     1
 10
482.8495878021931
 20
444.9115887605876
 11
482.8495878021931
 21
446.5395887194609
 72
     1
 10
482.8495878021931
 20
446.5395887194609
 11
480.4208878635473
 21
444.8798887613884
 72
     1
 10
480.4208878635473
 20
444.8798887613884
 11
482.8495878021931
 21
444.9115887605876
 97
        0
 92
        1
 93
        3
 72
     1
 10
479.9940878743291
 20
446.6015887178946
 11
479.9940878743291
 21
445.1195887553331
 72
     1
 10
479.9940878743291
 20
445.1195887553331
 11
482.1347878202505
 21
446.5820000000003
 72
     1
 10
482.1347878202505
 20
446.5820000000003
 11
479.9940878743291
 21
446.6015887178946
 97
        0
 92
        1
 93
        3
 72
     1
 10
479.5409999999993
 20
444.8686887616714
 11
479.5409999999993
 21
446.4955887205724
 72
     1
 10
479.5409999999993
 20
446.4955887205724
 11
477.1112879471548
 21
444.8363887624873
 72
     1
 10
477.1112879471548
 20
444.8363887624873
 11
479.5409999999993
 21
444.8686887616714
 97
        0
 92
        1
 93
        3
 72
     1
 10
476.7470879563552
 20
446.6312887171443
 11
476.7470879563552
 21
445.1195887553331
 72
     1
 10
476.7470879563552
 20
445.1195887553331
 11
478.9315879011701
 21
446.6103887176723
 72
     1
 10
478.9315879011701
 20
446.6103887176723
 11
476.7470879563552
 21
446.6312887171443
 97
        0
 92
        1
 93
        3
 72
     1
 10
476.2929999999997
 20
444.826188762745
 11
476.2929999999997
 21
446.5429999999997
 72
     1
 10
476.2929999999997
 20
446.5429999999997
 11
473.730488032561
 21
444.7929999999997
 72
     1
 10
473.730488032561
 20
444.7929999999997
 11
476.2929999999997
 21
444.826188762745
 97
        0
 92
        1
 93
        3
 72
     1
 10
473.1581880470185
 20
446.6645887163031
 11
473.1581880470185
 21
445.0287887576269
 72
     1
 10
473.1581880470185
 20
445.0287887576269
 11
475.5204879873418
 21
446.6420887168715
 72
     1
 10
475.5204879873418
 20
446.6420887168715
 11
473.1581880470185
 21
446.6645887163031
 97
        0
 92
        1
 93
        4
 72
     1
 10
498.0370874185246
 20
444.4296887727614
 11
497.4237874340179
 21
444.4213887729711
 72
     1
 10
497.4237874340179
 20
444.4213887729711
 11
497.4237874340179
 21
442.9896888091389
 72
     1
 10
497.4237874340179
 20
442.9896888091389
 11
498.0370874185246
 21
442.9896888091389
 72
     1
 10
498.0370874185246
 20
442.9896888091389
 11
498.0370874185246
 21
444.4296887727614
 97
        0
 92
        1
 93
        4
 72
     1
 10
468.7167881592177
 20
444.6806887664206
 11
468.7167881592177
 21
442.2484888278632
 72
     1
 10
468.7167881592177
 20
442.2484888278632
 11
469.6366881359791
 21
441.7792888397162
 72
     1
 10
469.6366881359791
 20
441.7792888397162
 11
469.6366881359791
 21
444.6806887664206
 72
     1
 10
469.6366881359791
 20
444.6806887664206
 11
468.7167881592177
 21
444.6806887664206
 97
        0
 92
        1
 93
        1
 72
     4
 94
        3
 73
     0
 74
     1
 95
       20
 96
       16
 40
0.0
 40
0.0
 40
0.0
 40
0.0
 40
1.0
 40
1.0
 40
1.0
 40
2.0
 40
2.0
 40
2.0
 40
3.0
 40
3.0
 40
3.0
 40
4.0
 40
4.0
 40
4.0
 40
5.0
 40
5.0
 40
5.0
 40
5.0
 10
470.0448881256671
 20
444.6806887664206
 10
470.0448881256671
 20
444.6806887664206
 10
470.0448881256671
 20
441.6854888420858
 10
470.0448881256671
 20
441.6854888420858
 10
470.0448881256671
 20
441.6854888420858
 10
472.5517880623374
 20
441.6854888420858
 10
472.5517880623374
 20
441.6854888420858
 10
472.6190880606373
 20
442.9765888094698
 10
472.4726880643357
 20
443.773388789341
 10
472.1151880733669
 20
444.6806887664206
 10
472.1151880733669
 20
444.6806887664206
 10
470.0448881256671
 20
444.6806887664206
 10
470.0448881256671
 20
444.6806887664206
 10
470.0448881256671
 20
444.6806887664206
 10
470.0448881256671
 20
444.6806887664206
 10
470.0448881256671
 20
444.6806887664206
 97
        0
 92
        1
 93
        1
 72
     4
 94
        3
 73
     0
 74
     1
 95
       35
 96
       31
 40
0.0
 40
0.0
 40
0.0
 40
0.0
 40
1.0
 40
1.0
 40
1.0
 40
2.0
 40
2.0
 40
2.0
 40
3.0
 40
3.0
 40
3.0
 40
4.0
 40
4.0
 40
4.0
 40
5.0
 40
5.0
 40
5.0
 40
6.0
 40
6.0
 40
6.0
 40
7.0
 40
7.0
 40
7.0
 40
8.0
 40
8.0
 40
8.0
 40
9.0
 40
9.0
 40
9.0
 40
10.0
 40
10.0
 40
10.0
 40
10.0
 10
489.2520000000004
 20
443.1288888056224
 10
489.2520000000004
 20
443.1288888056224
 10
489.2520000000004
 20
440.7787888649909
 10
489.2520000000004
 20
440.7787888649909
 10
489.2520000000004
 20
440.7787888649909
 10
494.060487518982
 20
440.1474888809389
 10
494.060487518982
 20
440.1474888809389
 10
493.9755875211267
 20
441.1034888567883
 10
493.7587875266036
 20
442.0233888335497
 10
493.3397875371884
 20
442.888188811703
 10
493.3397875371884
 20
442.888188811703
 10
493.3397875371884
 20
441.8437888380868
 10
493.3397875371884
 20
441.8437888380868
 10
493.3397875371884
 20
441.7523888403957
 10
493.2655875390628
 20
441.6757888423308
 10
493.1718875414299
 20
441.6757888423308
 10
493.1718875414299
 20
441.6757888423308
 10
492.5604875568752
 20
441.6757888423308
 10
492.5604875568752
 20
441.6757888423308
 10
492.4667875592422
 20
441.6757888423308
 10
492.3925875611167
 20
441.7523888403957
 10
492.3925875611167
 20
441.8437888380868
 10
492.3925875611167
 20
441.8437888380868
 10
492.3925875611167
 20
443.1288888056224
 10
492.3925875611167
 20
443.1288888056224
 10
492.3925875611167
 20
443.1288888056224
 10
489.2520000000004
 20
443.1288888056224
 10
489.2520000000004
 20
443.1288888056224
 10
489.2520000000004
 20
443.1288888056224
 10
489.2520000000004
 20
443.1288888056224
 10
489.2520000000004
 20
443.1288888056224
 97
        0
 92
        1
 93
        4
 72
     1
 10
492.9784875463156
 20
434.378889026666
 11
492.9784875463156
 21
434.0868890340425
 72
     1
 10
492.9784875463156
 20
434.0868890340425
 11
494.4267875097285
 21
434.0868890340425
 72
     1
 10
494.4267875097285
 20
434.0868890340425
 11
494.4267875097285
 21
434.378889026666
 72
     1
 10
494.4267875097285
 20
434.378889026666
 11
492.9784875463156
 21
434.378889026666
 97
        0
 92
        1
 93
        4
 72
     1
 10
492.6015875558369
 20
435.4804889988372
 11
492.6015875558369
 21
435.1880000000001
 72
     1
 10
492.6015875558369
 20
435.1880000000001
 11
494.4267875097285
 21
435.1880000000001
 72
     1
 10
494.4267875097285
 20
435.1880000000001
 11
494.4267875097285
 21
435.4804889988372
 72
     1
 10
494.4267875097285
 20
435.4804889988372
 11
492.6015875558369
 21
435.4804889988372
 97
        0
 92
        1
 93
        4
 72
     1
 10
491.9188875730833
 20
436.5526889717512
 11
491.9188875730833
 21
436.2606889791277
 72
     1
 10
491.9188875730833
 20
436.2606889791277
 11
494.4267875097285
 21
436.2606889791277
 72
     1
 10
494.4267875097285
 20
436.2606889791277
 11
494.4267875097285
 21
436.5526889717512
 72
     1
 10
494.4267875097285
 20
436.5526889717512
 11
491.9188875730833
 21
436.5526889717512
 97
        0
 92
        1
 93
        1
 72
     4
 94
        3
 73
     0
 74
     1
 95
       32
 96
       28
 40
0.0
 40
0.0
 40
0.0
 40
0.0
 40
1.0
 40
1.0
 40
1.0
 40
2.0
 40
2.0
 40
2.0
 40
3.0
 40
3.0
 40
3.0
 40
4.0
 40
4.0
 40
4.0
 40
5.0
 40
5.0
 40
5.0
 40
6.0
 40
6.0
 40
6.0
 40
7.0
 40
7.0
 40
7.0
 40
8.0
 40
8.0
 40
8.0
 40
9.0
 40
9.0
 40
9.0
 40
9.0
 10
467.2401881965197
 20
435.8559999999998
 10
466.4823882156634
 20
435.8559999999998
 10
465.7958882330058
 20
435.5487889971118
 10
465.2987882455636
 20
435.0512890096797
 10
464.8026882580962
 20
434.5546890222249
 10
464.4950882658668
 20
433.8681890395674
 10
464.4950882658668
 20
433.110389058711
 10
464.4950882658668
 20
432.3524890778572
 10
464.8026882580962
 20
431.6660000000002
 10
465.2987882455636
 20
431.1693891077448
 10
465.7958882330058
 20
430.6728891202874
 10
466.4823882156634
 20
430.3651891280606
 10
467.2401881965197
 20
430.3651891280606
 10
467.9979999999996
 20
430.3651891280606
 10
468.6854881600084
 20
430.6728891202874
 10
469.1815881474758
 20
431.1693891077448
 10
469.678688134918
 20
431.6660000000002
 10
469.9853881271702
 20
432.3524890778572
 10
469.9853881271702
 20
433.110389058711
 10
469.9853881271702
 20
433.8681890395674
 10
469.678688134918
 20
434.5546890222249
 10
469.1815881474758
 20
435.0512890096797
 10
468.6854881600084
 20
435.5487889971118
 10
467.9979999999996
 20
435.8559999999998
 10
467.2401881965197
 20
435.8559999999998
 10
467.2401881965197
 20
435.8559999999998
 10
467.2401881965197
 20
435.8559999999998
 10
467.2401881965197
 20
435.8559999999998
 97
        0
 92
        1
 93
        1
 72
     4
 94
        3
 73
     0
 74
     1
 95
       20
 96
       16
 40
0.0
 40
0.0
 40
0.0
 40
0.0
 40
1.0
 40
1.0
 40
1.0
 40
2.0
 40
2.0
 40
2.0
 40
3.0
 40
3.0
 40
3.0
 40
4.0
 40
4.0
 40
4.0
 40
5.0
 40
5.0
 40
5.0
 40
5.0
 10
466.3632882186721
 20
433.2436890553436
 10
466.2890882205465
 20
433.2436890553436
 10
466.2274882221027
 20
433.1835890568618
 10
466.2274882221027
 20
433.1083890587615
 10
466.2274882221027
 20
433.0336890606486
 10
466.2890882205465
 20
432.9726890621896
 10
466.3632882186721
 20
432.9726890621896
 10
466.4374882167976
 20
432.9726890621896
 10
466.4989999999998
 20
433.0336890606486
 10
466.4989999999998
 20
433.1083890587615
 10
466.4989999999998
 20
433.1835890568618
 10
466.4374882167976
 20
433.2436890553436
 10
466.3632882186721
 20
433.2436890553436
 10
466.3632882186721
 20
433.2436890553436
 10
466.3632882186721
 20
433.2436890553436
 10
466.3632882186721
 20
433.2436890553436
 97
        0
 92
        1
 93
        1
 72
     4
 94
        3
 73
     0
 74
     1
 95
       20
 96
       16
 40
0.0
 40
0.0
 40
0.0
 40
0.0
 40
1.0
 40
1.0
 40
1.0
 40
2.0
 40
2.0
 40
2.0
 40
3.0
 40
3.0
 40
3.0
 40
4.0
 40
4.0
 40
4.0
 40
5.0
 40
5.0
 40
5.0
 40
5.0
 10
466.5253882145771
 20
432.5853890719736
 10
466.5790882132205
 20
432.6381890706398
 10
466.6650000000009
 20
432.6381890706398
 10
466.7177882097167
 20
432.5853890719736
 10
466.7714882083601
 20
432.5316890733302
 10
466.7714882083601
 20
432.4462890754876
 10
466.7177882097167
 20
432.3925890768442
 10
466.6650000000009
 20
432.339789078178
 10
466.5790882132205
 20
432.339789078178
 10
466.5253882145771
 20
432.3925890768442
 10
466.4726882159084
 20
432.4462890754876
 10
466.4726882159084
 20
432.5316890733302
 10
466.5253882145771
 20
432.5853890719736
 10
466.5253882145771
 20
432.5853890719736
 10
466.5253882145771
 20
432.5853890719736
 10
466.5253882145771
 20
432.5853890719736
 97
        0
 92
        1
 93
        1
 72
     4
 94
        3
 73
     0
 74
     1
 95
       20
 96
       16
 40
0.0
 40
0.0
 40
0.0
 40
0.0
 40
1.0
 40
1.0
 40
1.0
 40
2.0
 40
2.0
 40
2.0
 40
3.0
 40
3.0
 40
3.0
 40
4.0
 40
4.0
 40
4.0
 40
5.0
 40
5.0
 40
5.0
 40
5.0
 10
467.1073881998745
 20
432.2338890808533
 10
467.1073881998745
 20
432.3080890789788
 10
467.1679999999997
 20
432.3690890774378
 10
467.243188196444
 20
432.3690890774378
 10
467.3183881945442
 20
432.3690890774378
 10
467.3788881930159
 20
432.3080890789788
 10
467.3788881930159
 20
432.2338890808533
 10
467.3788881930159
 20
432.158689082753
 10
467.3183881945442
 20
432.0980890842839
 10
467.243188196444
 20
432.0980890842839
 10
467.1679999999997
 20
432.0980890842839
 10
467.1073881998745
 20
432.158689082753
 10
467.1073881998745
 20
432.2338890808533
 10
467.1073881998745
 20
432.2338890808533
 10
467.1073881998745
 20
432.2338890808533
 10
467.1073881998745
 20
432.2338890808533
 97
        0
 92
        1
 93
        1
 72
     4
 94
        3
 73
     0
 74
     1
 95
       20
 96
       16
 40
0.0
 40
0.0
 40
0.0
 40
0.0
 40
1.0
 40
1.0
 40
1.0
 40
2.0
 40
2.0
 40
2.0
 40
3.0
 40
3.0
 40
3.0
 40
4.0
 40
4.0
 40
4.0
 40
5.0
 40
5.0
 40
5.0
 40
5.0
 10
467.7665881832218
 20
432.3959999999997
 10
467.7138881845531
 20
432.448689075427
 10
467.7138881845531
 20
432.5351890732418
 10
467.7665881832218
 20
432.5878890719105
 10
467.8192881818904
 20
432.6415890705539
 10
467.9052881797179
 20
432.6415890705539
 10
467.9590000000007
 20
432.5878890719105
 10
468.01168817703
 20
432.5351890732418
 10
468.01168817703
 20
432.448689075427
 10
467.9590000000007
 20
432.3959999999997
 10
467.9052881797179
 20
432.3432890780896
 10
467.8192881818904
 20
432.3432890780896
 10
467.7665881832218
 20
432.3959999999997
 10
467.7665881832218
 20
432.3959999999997
 10
467.7665881832218
 20
432.3959999999997
 10
467.7665881832218
 20
432.3959999999997
 97
        0
 92
        1
 93
        1
 72
     4
 94
        3
 73
     0
 74
     1
 95
       20
 96
       16
 40
0.0
 40
0.0
 40
0.0
 40
0.0
 40
1.0
 40
1.0
 40
1.0
 40
2.0
 40
2.0
 40
2.0
 40
3.0
 40
3.0
 40
3.0
 40
4.0
 40
4.0
 40
4.0
 40
5.0
 40
5.0
 40
5.0
 40
5.0
 10
468.1171881743649
 20
432.9770890620784
 10
468.1933881724399
 20
432.9770890620784
 10
468.2528881709368
 20
433.0380890605375
 10
468.2528881709368
 20
433.1132890586377
 10
468.2528881709368
 20
433.188489056738
 10
468.1933881724399
 20
433.249489055197
 10
468.1171881743649
 20
433.249489055197
 10
468.0429999999997
 20
433.249489055197
 10
467.9813881777955
 20
433.188489056738
 10
467.9813881777955
 20
433.1132890586377
 10
467.9813881777955
 20
433.0380890605375
 10
468.0429999999997
 20
432.9770890620784
 10
468.1171881743649
 20
432.9770890620784
 10
468.1171881743649
 20
432.9770890620784
 10
468.1171881743649
 20
432.9770890620784
 10
468.1171881743649
 20
432.9770890620784
 97
        0
 92
        1
 93
        1
 72
     4
 94
        3
 73
     0
 74
     1
 95
       20
 96
       16
 40
0.0
 40
0.0
 40
0.0
 40
0.0
 40
1.0
 40
1.0
 40
1.0
 40
2.0
 40
2.0
 40
2.0
 40
3.0
 40
3.0
 40
3.0
 40
4.0
 40
4.0
 40
4.0
 40
5.0
 40
5.0
 40
5.0
 40
5.0
 10
467.9550881784598
 20
433.6366890454156
 10
468.0087881771033
 20
433.6894890440817
 10
468.0087881771033
 20
433.7758890418991
 10
467.9550881784598
 20
433.8285890405677
 10
467.9022881797937
 20
433.8812890392364
 10
467.8163881819637
 20
433.8812890392364
 10
467.763688183295
 20
433.8285890405677
 10
467.7099999999991
 20
433.7758890418991
 10
467.7099999999991
 20
433.6894890440817
 10
467.763688183295
 20
433.6366890454156
 10
467.8163881819637
 20
433.5839999999998
 10
467.9022881797937
 20
433.5839999999998
 10
467.9550881784598
 20
433.6366890454156
 10
467.9550881784598
 20
433.6366890454156
 10
467.9550881784598
 20
433.6366890454156
 10
467.9550881784598
 20
433.6366890454156
 97
        0
 92
        1
 93
        1
 72
     4
 94
        3
 73
     0
 74
     1
 95
       20
 96
       16
 40
0.0
 40
0.0
 40
0.0
 40
0.0
 40
1.0
 40
1.0
 40
1.0
 40
2.0
 40
2.0
 40
2.0
 40
3.0
 40
3.0
 40
3.0
 40
4.0
 40
4.0
 40
4.0
 40
5.0
 40
5.0
 40
5.0
 40
5.0
 10
467.3729999999996
 20
433.987789036546
 10
467.3729999999996
 20
434.0630000000001
 10
467.3124881946933
 20
434.1239999999998
 10
467.2382881965677
 20
434.1239999999998
 10
467.1640881984422
 20
434.1239999999998
 10
467.1024881999983
 20
434.0630000000001
 10
467.1024881999983
 20
433.987789036546
 10
467.1024881999983
 20
433.9130890384331
 10
467.1640881984422
 20
433.8515890399867
 10
467.2382881965677
 20
433.8515890399867
 10
467.3124881946933
 20
433.8515890399867
 10
467.3729999999996
 20
433.9130890384331
 10
467.3729999999996
 20
433.987789036546
 10
467.3729999999996
 20
433.987789036546
 10
467.3729999999996
 20
433.987789036546
 10
467.3729999999996
 20
433.987789036546
 97
        0
 92
        1
 93
        1
 72
     4
 94
        3
 73
     0
 74
     1
 95
       20
 96
       16
 40
0.0
 40
0.0
 40
0.0
 40
0.0
 40
1.0
 40
1.0
 40
1.0
 40
2.0
 40
2.0
 40
2.0
 40
3.0
 40
3.0
 40
3.0
 40
4.0
 40
4.0
 40
4.0
 40
5.0
 40
5.0
 40
5.0
 40
5.0
 10
466.7147882097925
 20
433.8246890406663
 10
466.6620882111238
 20
433.8788890392971
 10
466.5761882132938
 20
433.8788890392971
 10
466.5224882146504
 20
433.8246890406663
 10
466.4687882160069
 20
433.7719999999999
 10
466.4687882160069
 20
433.6859999999997
 10
466.5224882146504
 20
433.6332890455014
 10
466.5761882132938
 20
433.5800890468454
 10
466.6620882111238
 20
433.5800890468454
 10
466.7147882097925
 20
433.6332890455014
 10
466.7675882084586
 20
433.6859999999997
 10
466.7675882084586
 20
433.7719999999999
 10
466.7147882097925
 20
433.8246890406663
 10
466.7147882097925
 20
433.8246890406663
 10
466.7147882097925
 20
433.8246890406663
 10
466.7147882097925
 20
433.8246890406663
 97
        0
 92
        1
 93
        1
 72
     4
 94
        3
 73
     0
 74
     1
 95
       32
 96
       28
 40
0.0
 40
0.0
 40
0.0
 40
0.0
 40
1.0
 40
1.0
 40
1.0
 40
2.0
 40
2.0
 40
2.0
 40
3.0
 40
3.0
 40
3.0
 40
4.0
 40
4.0
 40
4.0
 40
5.0
 40
5.0
 40
5.0
 40
6.0
 40
6.0
 40
6.0
 40
7.0
 40
7.0
 40
7.0
 40
8.0
 40
8.0
 40
8.0
 40
9.0
 40
9.0
 40
9.0
 40
9.0
 10
468.0400000000009
 20
433.9101890385064
 10
467.8358881814711
 20
434.1146890333403
 10
467.5526881886253
 20
434.2406890301572
 10
467.2401881965197
 20
434.2406890301572
 10
466.9276882044142
 20
434.2406890301572
 10
466.6454882115431
 20
434.1146890333403
 10
466.4413882166991
 20
433.9101890385064
 10
466.2362882218804
 20
433.705589043675
 10
466.1103882250609
 20
433.4228890508166
 10
466.1103882250609
 20
433.110389058711
 10
466.1103882250609
 20
432.7982890665953
 10
466.2362882218804
 20
432.5155890737369
 10
466.4413882166991
 20
432.3114890788929
 10
466.6454882115431
 20
432.1068890840615
 10
466.9276882044142
 20
431.9804890872547
 10
467.2401881965197
 20
431.9804890872547
 10
467.5526881886253
 20
431.9804890872547
 10
467.8358881814711
 20
432.1068890840615
 10
468.0400000000009
 20
432.3114890788929
 10
468.2440881711591
 20
432.5155890737369
 10
468.3710881679508
 20
432.7982890665953
 10
468.3710881679508
 20
433.110389058711
 10
468.3710881679508
 20
433.4228890508166
 10
468.2440881711591
 20
433.705589043675
 10
468.0400000000009
 20
433.9101890385064
 10
468.0400000000009
 20
433.9101890385064
 10
468.0400000000009
 20
433.9101890385064
 10
468.0400000000009
 20
433.9101890385064
 97
        0
 92
        1
 93
        1
 72
     4
 94
        3
 73
     0
 74
     1
 95
       32
 96
       28
 40
0.0
 40
0.0
 40
0.0
 40
0.0
 40
1.0
 40
1.0
 40
1.0
 40
2.0
 40
2.0
 40
2.0
 40
3.0
 40
3.0
 40
3.0
 40
4.0
 40
4.0
 40
4.0
 40
5.0
 40
5.0
 40
5.0
 40
6.0
 40
6.0
 40
6.0
 40
7.0
 40
7.0
 40
7.0
 40
8.0
 40
8.0
 40
8.0
 40
9.0
 40
9.0
 40
9.0
 40
9.0
 10
473.9726880264425
 20
435.8559999999998
 10
473.2147880455886
 20
435.8559999999998
 10
472.5282880629311
 20
435.5487889971118
 10
472.0312880754864
 20
435.0512890096797
 10
471.5351880880189
 20
434.5546890222249
 10
471.2274880957921
 20
433.8681890395674
 10
471.2274880957921
 20
433.110389058711
 10
471.2274880957921
 20
432.3524890778572
 10
471.5351880880189
 20
431.6660000000002
 10
472.0312880754864
 20
431.1693891077448
 10
472.5282880629311
 20
430.6728891202874
 10
473.2147880455886
 20
430.3651891280606
 10
473.9726880264425
 20
430.3651891280606
 10
474.7304880072988
 20
430.3651891280606
 10
475.4159999999993
 20
430.6728891202874
 10
475.9140879773986
 20
431.1693891077448
 10
476.4110879648433
 20
431.6660000000002
 10
476.7167879571207
 20
432.3524890778572
 10
476.7167879571207
 20
433.110389058711
 10
476.7167879571207
 20
433.8681890395674
 10
476.4110879648433
 20
434.5546890222249
 10
475.9140879773986
 20
435.0512890096797
 10
475.4159999999993
 20
435.5487889971118
 10
474.7304880072988
 20
435.8559999999998
 10
473.9726880264425
 20
435.8559999999998
 10
473.9726880264425
 20
435.8559999999998
 10
473.9726880264425
 20
435.8559999999998
 10
473.9726880264425
 20
435.8559999999998
 97
        0
 92
        1
 93
        1
 72
     4
 94
        3
 73
     0
 74
     1
 95
       20
 96
       16
 40
0.0
 40
0.0
 40
0.0
 40
0.0
 40
1.0
 40
1.0
 40
1.0
 40
2.0
 40
2.0
 40
2.0
 40
3.0
 40
3.0
 40
3.0
 40
4.0
 40
4.0
 40
4.0
 40
5.0
 40
5.0
 40
5.0
 40
5.0
 10
473.0956880485974
 20
433.2436890553436
 10
473.0214880504718
 20
433.2436890553436
 10
472.9599999999991
 20
433.1835890568618
 10
472.9599999999991
 20
433.1083890587615
 10
472.9599999999991
 20
433.0336890606486
 10
473.0214880504718
 20
432.9726890621896
 10
473.0956880485974
 20
432.9726890621896
 10
473.1698880467229
 20
432.9726890621896
 10
473.230488045192
 20
433.0336890606486
 10
473.230488045192
 20
433.1083890587615
 10
473.230488045192
 20
433.1835890568618
 10
473.1698880467229
 20
433.2436890553436
 10
473.0956880485974
 20
433.2436890553436
 10
473.0956880485974
 20
433.2436890553436
 10
473.0956880485974
 20
433.2436890553436
 10
473.0956880485974
 20
433.2436890553436
 97
        0
 92
        1
 93
        1
 72
     4
 94
        3
 73
     0
 74
     1
 95
       20
 96
       16
 40
0.0
 40
0.0
 40
0.0
 40
0.0
 40
1.0
 40
1.0
 40
1.0
 40
2.0
 40
2.0
 40
2.0
 40
3.0
 40
3.0
 40
3.0
 40
4.0
 40
4.0
 40
4.0
 40
5.0
 40
5.0
 40
5.0
 40
5.0
 10
473.2577880445024
 20
432.5853890719736
 10
473.3104880431711
 20
432.6381890706398
 10
473.3964880409985
 20
432.6381890706398
 10
473.4501880396419
 20
432.5853890719736
 10
473.5038880382854
 20
432.5316890733302
 10
473.5038880382854
 20
432.4462890754876
 10
473.4501880396419
 20
432.3925890768442
 10
473.3964880409985
 20
432.339789078178
 10
473.3104880431711
 20
432.339789078178
 10
473.2577880445024
 20
432.3925890768442
 10
473.2050880458337
 20
432.4462890754876
 10
473.2050880458337
 20
432.5316890733302
 10
473.2577880445024
 20
432.5853890719736
 10
473.2577880445024
 20
432.5853890719736
 10
473.2577880445024
 20
432.5853890719736
 10
473.2577880445024
 20
432.5853890719736
 97
        0
 92
        1
 93
        1
 72
     4
 94
        3
 73
     0
 74
     1
 95
       20
 96
       16
 40
0.0
 40
0.0
 40
0.0
 40
0.0
 40
1.0
 40
1.0
 40
1.0
 40
2.0
 40
2.0
 40
2.0
 40
3.0
 40
3.0
 40
3.0
 40
4.0
 40
4.0
 40
4.0
 40
5.0
 40
5.0
 40
5.0
 40
5.0
 10
473.8397880297998
 20
432.2338890808533
 10
473.8397880297998
 20
432.3080890789788
 10
473.9003880282689
 20
432.3690890774378
 10
473.9745880263945
 20
432.3690890774378
 10
474.0507880244695
 20
432.3690890774378
 10
474.1112880229412
 20
432.3080890789788
 10
474.1112880229412
 20
432.2338890808533
 10
474.1112880229412
 20
432.158689082753
 10
474.0507880244695
 20
432.0980890842839
 10
473.9745880263945
 20
432.0980890842839
 10
473.9003880282689
 20
432.0980890842839
 10
473.8397880297998
 20
432.158689082753
 10
473.8397880297998
 20
432.2338890808533
 10
473.8397880297998
 20
432.2338890808533
 10
473.8397880297998
 20
432.2338890808533
 10
473.8397880297998
 20
432.2338890808533
 97
        0
 92
        1
 93
        1
 72
     4
 94
        3
 73
     0
 74
     1
 95
       20
 96
       16
 40
0.0
 40
0.0
 40
0.0
 40
0.0
 40
1.0
 40
1.0
 40
1.0
 40
2.0
 40
2.0
 40
2.0
 40
3.0
 40
3.0
 40
3.0
 40
4.0
 40
4.0
 40
4.0
 40
5.0
 40
5.0
 40
5.0
 40
5.0
 10
474.4979999999996
 20
432.3959999999997
 10
474.4452880145036
 20
432.448689075427
 10
474.4452880145036
 20
432.5351890732418
 10
474.4979999999996
 20
432.5878890719105
 10
474.5507880118384
 20
432.6415890705539
 10
474.6376880096432
 20
432.6415890705539
 10
474.6903880083119
 20
432.5878890719105
 10
474.7440880069553
 20
432.5351890732418
 10
474.743188006978
 20
432.448689075427
 10
474.6903880083119
 20
432.3959999999997
 10
474.6376880096432
 20
432.3432890780896
 10
474.5507880118384
 20
432.3432890780896
 10
474.4979999999996
 20
432.3959999999997
 10
474.4979999999996
 20
432.3959999999997
 10
474.4979999999996
 20
432.3959999999997
 10
474.4979999999996
 20
432.3959999999997
 97
        0
 92
        1
 93
        1
 72
     4
 94
        3
 73
     0
 74
     1
 95
       20
 96
       16
 40
0.0
 40
0.0
 40
0.0
 40
0.0
 40
1.0
 40
1.0
 40
1.0
 40
2.0
 40
2.0
 40
2.0
 40
3.0
 40
3.0
 40
3.0
 40
4.0
 40
4.0
 40
4.0
 40
5.0
 40
5.0
 40
5.0
 40
5.0
 10
474.8495880042901
 20
432.9770890620784
 10
474.9247880023904
 20
432.9770890620784
 10
474.9853880008595
 20
433.0380890605375
 10
474.9853880008595
 20
433.1132890586377
 10
474.9853880008595
 20
433.188489056738
 10
474.9247880023904
 20
433.249489055197
 10
474.8495880042901
 20
433.249489055197
 10
474.7743880061898
 20
433.249489055197
 10
474.7138880077182
 20
433.188489056738
 10
474.7138880077182
 20
433.1132890586377
 10
474.7138880077182
 20
433.0380890605375
 10
474.7743880061898
 20
432.9770890620784
 10
474.8495880042901
 20
432.9770890620784
 10
474.8495880042901
 20
432.9770890620784
 10
474.8495880042901
 20
432.9770890620784
 10
474.8495880042901
 20
432.9770890620784
 97
        0
 92
        1
 93
        1
 72
     4
 94
        3
 73
     0
 74
     1
 95
       20
 96
       16
 40
0.0
 40
0.0
 40
0.0
 40
0.0
 40
1.0
 40
1.0
 40
1.0
 40
2.0
 40
2.0
 40
2.0
 40
3.0
 40
3.0
 40
3.0
 40
4.0
 40
4.0
 40
4.0
 40
5.0
 40
5.0
 40
5.0
 40
5.0
 10
474.6874880083851
 20
433.6366890454156
 10
474.7401880070538
 20
433.6894890440817
 10
474.7401880070538
 20
433.7758890418991
 10
474.6874880083851
 20
433.8285890405677
 10
474.6337880097417
 20
433.8812890392364
 10
474.548788011889
 20
433.8812890392364
 10
474.4940880132708
 20
433.8285890405677
 10
474.4413880146021
 20
433.7758890418991
 10
474.4413880146021
 20
433.6894890440817
 10
474.4940880132708
 20
433.6366890454156
 10
474.548788011889
 20
433.5839999999998
 10
474.6337880097417
 20
433.5839999999998
 10
474.6874880083851
 20
433.6366890454156
 10
474.6874880083851
 20
433.6366890454156
 10
474.6874880083851
 20
433.6366890454156
 10
474.6874880083851
 20
433.6366890454156
 97
        0
 92
        1
 93
        1
 72
     4
 94
        3
 73
     0
 74
     1
 95
       20
 96
       16
 40
0.0
 40
0.0
 40
0.0
 40
0.0
 40
1.0
 40
1.0
 40
1.0
 40
2.0
 40
2.0
 40
2.0
 40
3.0
 40
3.0
 40
3.0
 40
4.0
 40
4.0
 40
4.0
 40
5.0
 40
5.0
 40
5.0
 40
5.0
 10
474.1054880230877
 20
433.987789036546
 10
474.1054880230877
 20
434.0630000000001
 10
474.0448880246186
 20
434.1239999999998
 10
473.970688026493
 20
434.1239999999998
 10
473.894488028418
 20
434.1239999999998
 10
473.8340000000007
 20
434.0630000000001
 10
473.8340000000007
 20
433.987789036546
 10
473.8340000000007
 20
433.9130890384331
 10
473.894488028418
 20
433.8515890399867
 10
473.970688026493
 20
433.8515890399867
 10
474.0448880246186
 20
433.8515890399867
 10
474.1054880230877
 20
433.9130890384331
 10
474.1054880230877
 20
433.987789036546
 10
474.1054880230877
 20
433.987789036546
 10
474.1054880230877
 20
433.987789036546
 10
474.1054880230877
 20
433.987789036546
 97
        0
 92
        1
 93
        1
 72
     4
 94
        3
 73
     0
 74
     1
 95
       20
 96
       16
 40
0.0
 40
0.0
 40
0.0
 40
0.0
 40
1.0
 40
1.0
 40
1.0
 40
2.0
 40
2.0
 40
2.0
 40
3.0
 40
3.0
 40
3.0
 40
4.0
 40
4.0
 40
4.0
 40
5.0
 40
5.0
 40
5.0
 40
5.0
 10
473.4472880397152
 20
433.8246890406663
 10
473.392588041097
 20
433.8788890392971
 10
473.3085880432191
 20
433.8788890392971
 10
473.2538880446009
 20
433.8246890406663
 10
473.2011880459322
 20
433.7719999999999
 10
473.2011880459322
 20
433.6859999999997
 10
473.2538880446009
 20
433.6332890455014
 10
473.3085880432191
 20
433.5800890468454
 10
473.392588041097
 20
433.5800890468454
 10
473.4472880397152
 20
433.6332890455014
 10
473.5
 20
433.6859999999997
 10
473.5
 20
433.7719999999999
 10
473.4472880397152
 20
433.8246890406663
 10
473.4472880397152
 20
433.8246890406663
 10
473.4472880397152
 20
433.8246890406663
 10
473.4472880397152
 20
433.8246890406663
 97
        0
 92
        1
 93
        1
 72
     4
 94
        3
 73
     0
 74
     1
 95
       32
 96
       28
 40
0.0
 40
0.0
 40
0.0
 40
0.0
 40
1.0
 40
1.0
 40
1.0
 40
2.0
 40
2.0
 40
2.0
 40
3.0
 40
3.0
 40
3.0
 40
4.0
 40
4.0
 40
4.0
 40
5.0
 40
5.0
 40
5.0
 40
6.0
 40
6.0
 40
6.0
 40
7.0
 40
7.0
 40
7.0
 40
8.0
 40
8.0
 40
8.0
 40
9.0
 40
9.0
 40
9.0
 40
9.0
 10
474.7714880062631
 20
433.9101890385064
 10
474.5663880114444
 20
434.1146890333403
 10
474.2851880185481
 20
434.2406890301572
 10
473.9726880264425
 20
434.2406890301572
 10
473.6601880343369
 20
434.2406890301572
 10
473.3770000000004
 20
434.1146890333403
 10
473.1737880466244
 20
433.9101890385064
 10
472.9687880518031
 20
433.705589043675
 10
472.8417880550114
 20
433.4228890508166
 10
472.8417880550114
 20
433.110389058711
 10
472.8417880550114
 20
432.7982890665953
 10
472.9687880518031
 20
432.5155890737369
 10
473.1737880466244
 20
432.3114890788929
 10
473.3770000000004
 20
432.1068890840615
 10
473.6601880343369
 20
431.9804890872547
 10
473.9726880264425
 20
431.9804890872547
 10
474.2851880185481
 20
431.9804890872547
 10
474.5663880114444
 20
432.1068890840615
 10
474.7714880062631
 20
432.3114890788929
 10
474.9765880010818
 20
432.5155890737369
 10
475.1024879979013
 20
432.7982890665953
 10
475.1024879979013
 20
433.110389058711
 10
475.1024879979013
 20
433.4228890508166
 10
474.9765880010818
 20
433.705589043675
 10
474.7714880062631
 20
433.9101890385064
 10
474.7714880062631
 20
433.9101890385064
 10
474.7714880062631
 20
433.9101890385064
 10
474.7714880062631
 20
433.9101890385064
 97
        0
 92
        1
 93
        1
 72
     4
 94
        3
 73
     0
 74
     1
 95
       32
 96
       28
 40
0.0
 40
0.0
 40
0.0
 40
0.0
 40
1.0
 40
1.0
 40
1.0
 40
2.0
 40
2.0
 40
2.0
 40
3.0
 40
3.0
 40
3.0
 40
4.0
 40
4.0
 40
4.0
 40
5.0
 40
5.0
 40
5.0
 40
6.0
 40
6.0
 40
6.0
 40
7.0
 40
7.0
 40
7.0
 40
8.0
 40
8.0
 40
8.0
 40
9.0
 40
9.0
 40
9.0
 40
9.0
 10
488.9784876473641
 20
435.8559999999998
 10
488.2206876665077
 20
435.8559999999998
 10
487.5351876838249
 20
435.5487889971118
 10
487.0380876963827
 20
435.0512890096797
 10
486.5409999999993
 20
434.5546890222249
 10
486.2343877166859
 20
433.8681890395674
 10
486.2343877166859
 20
433.110389058711
 10
486.2343877166859
 20
432.3524890778572
 10
486.5409999999993
 20
431.6660000000002
 10
487.0380876963827
 20
431.1693891077448
 10
487.5351876838249
 20
430.6728891202874
 10
488.2206876665077
 20
430.3651891280606
 10
488.9784876473641
 20
430.3651891280606
 10
489.7362876282205
 20
430.3651891280606
 10
490.4237876108527
 20
430.6728891202874
 10
490.9198875983202
 20
431.1693891077448
 10
491.4159999999993
 20
431.6660000000002
 10
491.7245875779918
 20
432.3524890778572
 10
491.7245875779918
 20
433.110389058711
 10
491.7245875779918
 20
433.8681890395674
 10
491.4159999999993
 20
434.5546890222249
 10
490.9198875983202
 20
435.0512890096797
 10
490.4237876108527
 20
435.5487889971118
 10
489.7362876282205
 20
435.8559999999998
 10
488.9784876473641
 20
435.8559999999998
 10
488.9784876473641
 20
435.8559999999998
 10
488.9784876473641
 20
435.8559999999998
 10
488.9784876473641
 20
435.8559999999998
 97
        0
 92
        1
 93
        1
 72
     4
 94
        3
 73
     0
 74
     1
 95
       20
 96
       16
 40
0.0
 40
0.0
 40
0.0
 40
0.0
 40
1.0
 40
1.0
 40
1.0
 40
2.0
 40
2.0
 40
2.0
 40
3.0
 40
3.0
 40
3.0
 40
4.0
 40
4.0
 40
4.0
 40
5.0
 40
5.0
 40
5.0
 40
5.0
 10
488.1015876695164
 20
433.2436890553436
 10
488.0263876714162
 20
433.2436890553436
 10
487.9667876729218
 20
433.1835890568618
 10
487.9667876729218
 20
433.1083890587615
 10
487.9667876729218
 20
433.0336890606486
 10
488.0263876714162
 20
432.9726890621896
 10
488.1015876695164
 20
432.9726890621896
 10
488.1767876676167
 20
432.9726890621896
 10
488.2382876660631
 20
433.0336890606486
 10
488.2382876660631
 20
433.1083890587615
 10
488.2382876660631
 20
433.1835890568618
 10
488.1767876676167
 20
433.2436890553436
 10
488.1015876695164
 20
433.2436890553436
 10
488.1015876695164
 20
433.2436890553436
 10
488.1015876695164
 20
433.2436890553436
 10
488.1015876695164
 20
433.2436890553436
 97
        0
 92
        1
 93
        1
 72
     4
 94
        3
 73
     0
 74
     1
 95
       20
 96
       16
 40
0.0
 40
0.0
 40
0.0
 40
0.0
 40
1.0
 40
1.0
 40
1.0
 40
2.0
 40
2.0
 40
2.0
 40
3.0
 40
3.0
 40
3.0
 40
4.0
 40
4.0
 40
4.0
 40
5.0
 40
5.0
 40
5.0
 40
5.0
 10
488.2645876653987
 20
432.5853890719736
 10
488.3173876640649
 20
432.6381890706398
 10
488.4042876618696
 20
432.6381890706398
 10
488.4570000000003
 20
432.5853890719736
 10
488.5097876592044
 20
432.5316890733302
 10
488.5097876592044
 20
432.4462890754876
 10
488.4570000000003
 20
432.3925890768442
 10
488.4042876618696
 20
432.339789078178
 10
488.3173876640649
 20
432.339789078178
 10
488.2645876653987
 20
432.3925890768442
 10
488.21188766673
 20
432.4462890754876
 10
488.21188766673
 20
432.5316890733302
 10
488.2645876653987
 20
432.5853890719736
 10
488.2645876653987
 20
432.5853890719736
 10
488.2645876653987
 20
432.5853890719736
 10
488.2645876653987
 20
432.5853890719736
 97
        0
 92
        1
 93
        1
 72
     4
 94
        3
 73
     0
 74
     1
 95
       20
 96
       16
 40
0.0
 40
0.0
 40
0.0
 40
0.0
 40
1.0
 40
1.0
 40
1.0
 40
2.0
 40
2.0
 40
2.0
 40
3.0
 40
3.0
 40
3.0
 40
4.0
 40
4.0
 40
4.0
 40
5.0
 40
5.0
 40
5.0
 40
5.0
 10
488.8456876507189
 20
432.2338890808533
 10
488.8456876507189
 20
432.3080890789788
 10
488.906287649188
 20
432.3690890774378
 10
488.9823876472656
 20
432.3690890774378
 10
489.0565876453911
 20
432.3690890774378
 10
489.1171876438602
 20
432.3080890789788
 10
489.1171876438602
 20
432.2338890808533
 10
489.1171876438602
 20
432.158689082753
 10
489.0565876453911
 20
432.0980890842839
 10
488.9823876472656
 20
432.0980890842839
 10
488.906287649188
 20
432.0980890842839
 10
488.8456876507189
 20
432.158689082753
 10
488.8456876507189
 20
432.2338890808533
 10
488.8456876507189
 20
432.2338890808533
 10
488.8456876507189
 20
432.2338890808533
 10
488.8456876507189
 20
432.2338890808533
 97
        0
 92
        1
 93
        1
 72
     4
 94
        3
 73
     0
 74
     1
 95
       20
 96
       16
 40
0.0
 40
0.0
 40
0.0
 40
0.0
 40
1.0
 40
1.0
 40
1.0
 40
2.0
 40
2.0
 40
2.0
 40
3.0
 40
3.0
 40
3.0
 40
4.0
 40
4.0
 40
4.0
 40
5.0
 40
5.0
 40
5.0
 40
5.0
 10
489.5058876340408
 20
432.3959999999997
 10
489.4520876353999
 20
432.448689075427
 10
489.4520876353999
 20
432.5351890732418
 10
489.5058876340408
 20
432.5878890719105
 10
489.5585876327095
 20
432.6415890705539
 10
489.6444876305395
 20
432.6415890705539
 10
489.6972876292057
 20
432.5878890719105
 10
489.75
 20
432.5351890732418
 10
489.75
 20
432.448689075427
 10
489.6972876292057
 20
432.3959999999997
 10
489.6444876305395
 20
432.3432890780896
 10
489.5585876327095
 20
432.3432890780896
 10
489.5058876340408
 20
432.3959999999997
 10
489.5058876340408
 20
432.3959999999997
 10
489.5058876340408
 20
432.3959999999997
 10
489.5058876340408
 20
432.3959999999997
 97
        0
 92
        1
 93
        1
 72
     4
 94
        3
 73
     0
 74
     1
 95
       20
 96
       16
 40
0.0
 40
0.0
 40
0.0
 40
0.0
 40
1.0
 40
1.0
 40
1.0
 40
2.0
 40
2.0
 40
2.0
 40
3.0
 40
3.0
 40
3.0
 40
4.0
 40
4.0
 40
4.0
 40
5.0
 40
5.0
 40
5.0
 40
5.0
 10
489.8563876251865
 20
432.9770890620784
 10
489.9315876232868
 20
432.9770890620784
 10
489.9921876217559
 20
433.0380890605375
 10
489.9921876217559
 20
433.1132890586377
 10
489.9921876217559
 20
433.188489056738
 10
489.9315876232868
 20
433.249489055197
 10
489.8563876251865
 20
433.249489055197
 10
489.7812876270837
 20
433.249489055197
 10
489.7206876286145
 20
433.188489056738
 10
489.7206876286145
 20
433.1132890586377
 10
489.7206876286145
 20
433.0380890605375
 10
489.7812876270837
 20
432.9770890620784
 10
489.8563876251865
 20
432.9770890620784
 10
489.8563876251865
 20
432.9770890620784
 10
489.8563876251865
 20
432.9770890620784
 10
489.8563876251865
 20
432.9770890620784
 97
        0
 92
        1
 93
        1
 72
     4
 94
        3
 73
     0
 74
     1
 95
       20
 96
       16
 40
0.0
 40
0.0
 40
0.0
 40
0.0
 40
1.0
 40
1.0
 40
1.0
 40
2.0
 40
2.0
 40
2.0
 40
3.0
 40
3.0
 40
3.0
 40
4.0
 40
4.0
 40
4.0
 40
5.0
 40
5.0
 40
5.0
 40
5.0
 10
489.6933876293042
 20
433.6366890454156
 10
489.7460876279729
 20
433.6894890440817
 10
489.7460876279729
 20
433.7758890418991
 10
489.6933876293042
 20
433.8285890405677
 10
489.640587630638
 20
433.8812890392364
 10
489.5546876328081
 20
433.8812890392364
 10
489.5020000000004
 20
433.8285890405677
 10
489.4491876354732
 20
433.7758890418991
 10
489.4491876354732
 20
433.6894890440817
 10
489.5020000000004
 20
433.6366890454156
 10
489.5546876328081
 20
433.5839999999998
 10
489.640587630638
 20
433.5839999999998
 10
489.6933876293042
 20
433.6366890454156
 10
489.6933876293042
 20
433.6366890454156
 10
489.6933876293042
 20
433.6366890454156
 10
489.6933876293042
 20
433.6366890454156
 97
        0
 92
        1
 93
        1
 72
     4
 94
        3
 73
     0
 74
     1
 95
       20
 96
       16
 40
0.0
 40
0.0
 40
0.0
 40
0.0
 40
1.0
 40
1.0
 40
1.0
 40
2.0
 40
2.0
 40
2.0
 40
3.0
 40
3.0
 40
3.0
 40
4.0
 40
4.0
 40
4.0
 40
5.0
 40
5.0
 40
5.0
 40
5.0
 10
489.1132876439588
 20
433.987789036546
 10
489.1132876439588
 20
434.0630000000001
 10
489.0507876455376
 20
434.1239999999998
 10
488.9765876474121
 20
434.1239999999998
 10
488.9013876493118
 20
434.1239999999998
 10
488.8407876508427
 20
434.0630000000001
 10
488.8407876508427
 20
433.987789036546
 10
488.8407876508427
 20
433.9130890384331
 10
488.9013876493118
 20
433.8515890399867
 10
488.9765876474121
 20
433.8515890399867
 10
489.0507876455376
 20
433.8515890399867
 10
489.1132876439588
 20
433.9130890384331
 10
489.1132876439588
 20
433.987789036546
 10
489.1132876439588
 20
433.987789036546
 10
489.1132876439588
 20
433.987789036546
 10
489.1132876439588
 20
433.987789036546
 97
        0
 92
        1
 93
        1
 72
     4
 94
        3
 73
     0
 74
     1
 95
       20
 96
       16
 40
0.0
 40
0.0
 40
0.0
 40
0.0
 40
1.0
 40
1.0
 40
1.0
 40
2.0
 40
2.0
 40
2.0
 40
3.0
 40
3.0
 40
3.0
 40
4.0
 40
4.0
 40
4.0
 40
5.0
 40
5.0
 40
5.0
 40
5.0
 10
488.4530876606368
 20
433.8246890406663
 10
488.4003876619681
 20
433.8788890392971
 10
488.3144876641381
 20
433.8788890392971
 10
488.2606876654972
 20
433.8246890406663
 10
488.2090000000007
 20
433.7719999999999
 10
488.2090000000007
 20
433.6859999999997
 10
488.2606876654972
 20
433.6332890455014
 10
488.3144876641381
 20
433.5800890468454
 10
488.4003876619681
 20
433.5800890468454
 10
488.4530876606368
 20
433.6332890455014
 10
488.5067876592802
 20
433.6859999999997
 10
488.5067876592802
 20
433.7719999999999
 10
488.4530876606368
 20
433.8246890406663
 10
488.4530876606368
 20
433.8246890406663
 10
488.4530876606368
 20
433.8246890406663
 10
488.4530876606368
 20
433.8246890406663
 97
        0
 92
        1
 93
        1
 72
     4
 94
        3
 73
     0
 74
     1
 95
       29
 96
       25
 40
0.0
 40
0.0
 40
0.0
 40
0.0
 40
1.0
 40
1.0
 40
1.0
 40
2.0
 40
2.0
 40
2.0
 40
3.0
 40
3.0
 40
3.0
 40
4.0
 40
4.0
 40
4.0
 40
5.0
 40
5.0
 40
5.0
 40
6.0
 40
6.0
 40
6.0
 40
7.0
 40
7.0
 40
7.0
 40
8.0
 40
8.0
 40
8.0
 40
8.0
 10
489.7792876271342
 20
433.9101890385064
 10
489.5741876323154
 20
434.1146890333403
 10
489.2909999999993
 20
434.2406890301572
 10
488.9784876473641
 20
434.2406890301572
 10
488.6659999999993
 20
434.2406890301572
 10
488.3847876623622
 20
434.1146890333403
 10
488.1796876675435
 20
433.9101890385064
 10
487.9755876726995
 20
433.705589043675
 10
487.8485876759078
 20
433.4228890508166
 10
487.8485876759078
 20
433.110389058711
 10
487.8485876759078
 20
432.7982890665953
 10
487.9755876726995
 20
432.5155890737369
 10
488.1796876675435
 20
432.3114890788929
 10
488.3847876623622
 20
432.1068890840615
 10
488.6659999999993
 20
431.9804890872547
 10
488.9784876473641
 20
431.9804890872547
 10
489.2909999999993
 20
431.9804890872547
 10
489.5741876323154
 20
432.1068890840615
 10
489.7792876271342
 20
432.3114890788929
 10
489.9823876220034
 20
432.5155890737369
 10
490.1093876187952
 20
432.7982890665953
 10
490.1093876187952
 20
433.110389058711
 10
490.1093876187952
 20
433.4228890508166
 10
489.9823876220034
 20
433.705589043675
 10
489.7792876271342
 20
433.9101890385064
 97
        0
 75
     0
 76
     1
 98
        0
  0
SPLINE
  5
4F
330
14
100
AcDbEntity
  8
Layer 1
370
     0
100
AcDbSpline
210
0.0
220
0.0
230
1.0
 70
    11
 71
     3
 72
   329
 73
   325
 74
     0
 42
0.000000001
 43
0.0000000001
 40
0.0
 40
0.0
 40
0.0
 40
0.0
 40
1.0
 40
1.0
 40
1.0
 40
2.0
 40
2.0
 40
2.0
 40
3.0
 40
3.0
 40
3.0
 40
4.0
 40
4.0
 40
4.0
 40
5.0
 40
5.0
 40
5.0
 40
6.0
 40
6.0
 40
6.0
 40
7.0
 40
7.0
 40
7.0
 40
8.0
 40
8.0
 40
8.0
 40
9.0
 40
9.0
 40
9.0
 40
10.0
 40
10.0
 40
10.0
 40
11.0
 40
11.0
 40
11.0
 40
12.0
 40
12.0
 40
12.0
 40
13.0
 40
13.0
 40
13.0
 40
14.0
 40
14.0
 40
14.0
 40
15.0
 40
15.0
 40
15.0
 40
16.0
 40
16.0
 40
16.0
 40
17.0
 40
17.0
 40
17.0
 40
18.0
 40
18.0
 40
18.0
 40
19.0
 40
19.0
 40
19.0
 40
20.0
 40
20.0
 40
20.0
 40
21.0
 40
21.0
 40
21.0
 40
22.0
 40
22.0
 40
22.0
 40
23.0
 40
23.0
 40
23.0
 40
24.0
 40
24.0
 40
24.0
 40
25.0
 40
25.0
 40
25.0
 40
26.0
 40
26.0
 40
26.0
 40
27.0
 40
27.0
 40
27.0
 40
28.0
 40
28.0
 40
28.0
 40
29.0
 40
29.0
 40
29.0
 40
30.0
 40
30.0
 40
30.0
 40
31.0
 40
31.0
 40
31.0
 40
32.0
 40
32.0
 40
32.0
 40
33.0
 40
33.0
 40
33.0
 40
34.0
 40
34.0
 40
34.0
 40
35.0
 40
35.0
 40
35.0
 40
36.0
 40
36.0
 40
36.0
 40
37.0
 40
37.0
 40
37.0
 40
38.0
 40
38.0
 40
38.0
 40
39.0
 40
39.0
 40
39.0
 40
40.0
 40
40.0
 40
40.0
 40
41.0
 40
41.0
 40
41.0
 40
42.0
 40
42.0
 40
42.0
 40
43.0
 40
43.0
 40
43.0
 40
44.0
 40
44.0
 40
44.0
 40
45.0
 40
45.0
 40
45.0
 40
46.0
 40
46.0
 40
46.0
 40
47.0
 40
47.0
 40
47.0
 40
48.0
 40
48.0
 40
48.0
 40
49.0
 40
49.0
 40
49.0
 40
50.0
 40
50.0
 40
50.0
 40
51.0
 40
51.0
 40
51.0
 40
52.0
 40
52.0
 40
52.0
 40
53.0
 40
53.0
 40
53.0
 40
54.0
 40
54.0
 40
54.0
 40
55.0
 40
55.0
 40
55.0
 40
56.0
 40
56.0
 40
56.0
 40
57.0
 40
57.0
 40
57.0
 40
58.0
 40
58.0
 40
58.0
 40
59.0
 40
59.0
 40
59.0
 40
60.0
 40
60.0
 40
60.0
 40
61.0
 40
61.0
 40
61.0
 40
62.0
 40
62.0
 40
62.0
 40
63.0
 40
63.0
 40
63.0
 40
64.0
 40
64.0
 40
64.0
 40
65.0
 40
65.0
 40
65.0
 40
66.0
 40
66.0
 40
66.0
 40
67.0
 40
67.0
 40
67.0
 40
68.0
 40
68.0
 40
68.0
 40
69.0
 40
69.0
 40
69.0
 40
70.0
 40
70.0
 40
70.0
 40
71.0
 40
71.0
 40
71.0
 40
72.0
 40
72.0
 40
72.0
 40
73.0
 40
73.0
 40
73.0
 40
74.0
 40
74.0
 40
74.0
 40
75.0
 40
75.0
 40
75.0
 40
76.0
 40
76.0
 40
76.0
 40
77.0
 40
77.0
 40
77.0
 40
78.0
 40
78.0
 40
78.0
 40
79.0
 40
79.0
 40
79.0
 40
80.0
 40
80.0
 40
80.0
 40
81.0
 40
81.0
 40
81.0
 40
82.0
 40
82.0
 40
82.0
 40
83.0
 40
83.0
 40
83.0
 40
84.0
 40
84.0
 40
84.0
 40
85.0
 40
85.0
 40
85.0
 40
86.0
 40
86.0
 40
86.0
 40
87.0
 40
87.0
 40
87.0
 40
88.0
 40
88.0
 40
88.0
 40
89.0
 40
89.0
 40
89.0
 40
90.0
 40
90.0
 40
90.0
 40
91.0
 40
91.0
 40
91.0
 40
92.0
 40
92.0
 40
92.0
 40
93.0
 40
93.0
 40
93.0
 40
94.0
 40
94.0
 40
94.0
 40
95.0
 40
95.0
 40
95.0
 40
96.0
 40
96.0
 40
96.0
 40
97.0
 40
97.0
 40
97.0
 40
98.0
 40
98.0
 40
98.0
 40
99.0
 40
99.0
 40
99.0
 40
100.0
 40
100.0
 40
100.0
 40
101.0
 40
101.0
 40
101.0
 40
102.0
 40
102.0
 40
102.0
 40
103.0
 40
103.0
 40
103.0
 40
104.0
 40
104.0
 40
104.0
 40
105.0
 40
105.0
 40
105.0
 40
106.0
 40
106.0
 40
106.0
 40
107.0
 40
107.0
 40
107.0
 40
108.0
 40
108.0
 40
108.0
 40
108.0
 10
494.7782875008488
 20
437.5141889474617
 30
0.0
 10
494.7782875008488
 20
437.5141889474617
 30
0.0
 10
495.0644874936188
 20
437.1229999999996
 30
0.0
 10
495.0644874936188
 20
437.1229999999996
 30
0.0
 10
495.0644874936188
 20
437.1229999999996
 30
0.0
 10
496.4198874593785
 20
437.6752889433919
 30
0.0
 10
496.4198874593785
 20
437.6752889433919
 30
0.0
 10
496.4179999999997
 20
437.6928889429473
 30
0.0
 10
496.4159999999993
 20
437.7103889425052
 30
0.0
 10
496.414087459525
 20
437.7290000000003
 30
0.0
 10
496.5155874569609
 20
437.9237889371143
 30
0.0
 10
496.6171874543943
 20
438.1171889322286
 30
0.0
 10
496.7196874518049
 20
438.3109999999997
 30
0.0
 10
496.7694874505469
 20
438.1210889321301
 30
0.0
 10
496.8397874487709
 20
437.9794889357072
 30
0.0
 10
496.9218874466969
 20
437.8793889382359
 30
0.0
 10
496.9218874466969
 20
437.8793889382359
 30
0.0
 10
497.3808874351016
 20
438.0663889335119
 30
0.0
 10
497.3808874351016
 20
438.0663889335119
 30
0.0
 10
497.3808874351016
 20
438.0663889335119
 30
0.0
 10
497.5800874300694
 20
437.8163889398274
 30
0.0
 10
497.5800874300694
 20
437.8163889398274
 30
0.0
 10
497.6669999999995
 20
437.9145889373467
 30
0.0
 10
497.7157874266413
 20
438.0590889336963
 30
0.0
 10
497.6962874271339
 20
438.2338889292805
 30
0.0
 10
497.6347874286876
 20
438.3461889264436
 30
0.0
 10
497.5712874302917
 20
438.4594889235814
 30
0.0
 10
497.5097874318453
 20
438.5712889207571
 30
0.0
 10
497.4628874330301
 20
438.6566889185997
 30
0.0
 10
497.4140874342629
 20
438.7416889164524
 30
0.0
 10
497.3671874354477
 20
438.8266889143051
 30
0.0
 10
497.3671874354477
 20
438.8266889143051
 30
0.0
 10
497.3397874361399
 20
439.0190000000002
 30
0.0
 10
497.3397874361399
 20
439.0190000000002
 30
0.0
 10
497.3397874361399
 20
439.0190000000002
 30
0.0
 10
496.9472874460553
 20
439.0190000000002
 30
0.0
 10
496.9472874460553
 20
439.0190000000002
 30
0.0
 10
496.9472874460553
 20
439.0190000000002
 30
0.0
 10
496.2948874625363
 20
440.2924888772759
 30
0.0
 10
496.2948874625363
 20
440.2924888772759
 30
0.0
 10
496.2948874625363
 20
440.2924888772759
 30
0.0
 10
496.2948874625363
 20
442.9896888091389
 30
0.0
 10
496.2948874625363
 20
442.9896888091389
 30
0.0
 10
496.2948874625363
 20
442.9896888091389
 30
0.0
 10
496.9120874469445
 20
442.9896888091389
 30
0.0
 10
496.9120874469445
 20
442.9896888091389
 30
0.0
 10
496.9120874469445
 20
442.9896888091389
 30
0.0
 10
496.9120874469445
 20
444.415
 30
0.0
 10
496.9120874469445
 20
444.415
 30
0.0
 10
496.9120874469445
 20
444.415
 30
0.0
 10
473.1308880477081
 20
444.1005887810752
 30
0.0
 10
473.1308880477081
 20
444.1005887810752
 30
0.0
 10
473.154288047117
 20
444.0150887832351
 30
0.0
 10
473.1776880465259
 20
443.9281887854304
 30
0.0
 10
473.1991880459827
 20
443.8412887876257
 30
0.0
 10
473.3671880417387
 20
443.1723888045235
 30
0.0
 10
473.4491880396672
 20
442.4570000000003
 30
0.0
 10
473.4042880408015
 20
441.6723888424167
 30
0.0
 10
473.4042880408015
 20
441.6723888424167
 30
0.0
 10
473.402288040852
 20
441.6400888432327
 30
0.0
 10
473.402288040852
 20
441.6400888432327
 30
0.0
 10
473.402288040852
 20
441.6400888432327
 30
0.0
 10
473.3905880411476
 20
441.6073888440587
 30
0.0
 10
473.3905880411476
 20
441.6073888440587
 30
0.0
 10
473.3905880411476
 20
441.6073888440587
 30
0.0
 10
472.7080000000005
 20
439.5526888959648
 30
0.0
 10
472.7080000000005
 20
439.5526888959648
 30
0.0
 10
472.7080000000005
 20
439.5526888959648
 30
0.0
 10
473.3397880424309
 20
439.5526888959648
 30
0.0
 10
473.3397880424309
 20
439.5526888959648
 30
0.0
 10
473.3397880424309
 20
439.5526888959648
 30
0.0
 10
473.3397880424309
 20
438.7582889160331
 30
0.0
 10
473.3397880424309
 20
438.7582889160331
 30
0.0
 10
473.3397880424309
 20
438.7582889160331
 30
0.0
 10
470.5020000000004
 20
438.7582889160331
 30
0.0
 10
470.5020000000004
 20
438.7582889160331
 30
0.0
 10
470.5020000000004
 20
438.7582889160331
 30
0.0
 10
470.5020000000004
 20
436.9584889614998
 30
0.0
 10
470.5020000000004
 20
436.9584889614998
 30
0.0
 10
470.5020000000004
 20
436.9584889614998
 30
0.0
 10
487.121087694286
 20
436.9413889619318
 30
0.0
 10
487.121087694286
 20
436.9413889619318
 30
0.0
 10
487.121087694286
 20
436.9413889619318
 30
0.0
 10
487.121087694286
 20
436.5190000000002
 30
0.0
 10
487.121087694286
 20
436.5190000000002
 30
0.0
 10
487.3866876875763
 20
436.6552889691593
 30
0.0
 10
487.6815876801265
 20
436.7645889663982
 30
0.0
 10
488.0067876719113
 20
436.8480889642888
 30
0.0
 10
488.0067876719113
 20
436.6913889682473
 30
0.0
 10
488.0067876719113
 20
436.5346889722059
 30
0.0
 10
488.0067876719113
 20
436.3783889761544
 30
0.0
 10
486.3837877129117
 20
435.8622889891922
 30
0.0
 10
485.7812877281322
 20
434.6278890203757
 30
0.0
 10
485.8388877266771
 20
432.9306890632506
 30
0.0
 10
485.6698877309464
 20
432.9306890632506
 30
0.0
 10
485.4989999999998
 20
432.9306890632506
 30
0.0
 10
485.3300877395304
 20
432.9306890632506
 30
0.0
 10
485.3261877396289
 20
433.1264890583043
 30
0.0
 10
485.3300877395304
 20
433.314489053555
 30
0.0
 10
485.3417877392349
 20
433.4950890489927
 30
0.0
 10
485.3417877392349
 20
433.4950890489927
 30
0.0
 10
477.4091879396292
 20
433.4950890489927
 30
0.0
 10
477.4091879396292
 20
433.4950890489927
 30
0.0
 10
477.4101879396039
 20
433.4198890508924
 30
0.0
 10
477.4101879396039
 20
433.3441890528047
 30
0.0
 10
477.4101879396039
 20
433.2670890547524
 30
0.0
 10
477.4228879392831
 20
433.1640890573544
 30
0.0
 10
477.4354879389648
 20
433.0604890599716
 30
0.0
 10
477.4452879387172
 20
432.9555890626216
 30
0.0
 10
477.4452879387172
 20
432.9555890626216
 30
0.0
 10
476.9716879506814
 20
432.9066890638569
 30
0.0
 10
476.9716879506814
 20
432.9066890638569
 30
0.0
 10
476.9062879523335
 20
433.5424890477952
 30
0.0
 10
476.7948879551477
 20
434.1381890327466
 30
0.0
 10
476.6347879591922
 20
434.693789018711
 30
0.0
 10
476.4882879628931
 20
435.1986890059561
 30
0.0
 10
476.3017879676045
 20
435.6713889940147
 30
0.0
 10
476.0741879733541
 20
436.1098889829373
 30
0.0
 10
476.0741879733541
 20
436.1098889829373
 30
0.0
 10
472.1239999999998
 20
436.1098889829373
 30
0.0
 10
472.1239999999998
 20
436.1098889829373
 30
0.0
 10
471.8573880798795
 20
435.7333889924485
 30
0.0
 10
471.605488086243
 20
435.2592890044252
 30
0.0
 10
471.4022880913762
 20
434.7060890184002
 30
0.0
 10
471.2070000000003
 20
434.1718890318953
 30
0.0
 10
471.0585881000588
 20
433.5663890471915
 30
0.0
 10
470.9882881018348
 20
432.9057890638796
 30
0.0
 10
470.9882881018348
 20
432.9057890638796
 30
0.0
 10
470.6083881114319
 20
432.9467890628439
 30
0.0
 10
470.6083881114319
 20
432.9467890628439
 30
0.0
 10
470.6083881114319
 20
432.9467890628439
 30
0.0
 10
470.2226881211755
 20
432.9066890638569
 30
0.0
 10
470.2226881211755
 20
432.9066890638569
 30
0.0
 10
470.1562881228529
 20
433.5424890477952
 30
0.0
 10
470.0458881256418
 20
434.1381890327466
 30
0.0
 10
469.8847881297115
 20
434.693789018711
 30
0.0
 10
469.7392881333872
 20
435.1986890059561
 30
0.0
 10
469.5526881381011
 20
435.6713889940147
 30
0.0
 10
469.3241881438735
 20
436.1098889829373
 30
0.0
 10
469.3241881438735
 20
436.1098889829373
 30
0.0
 10
465.375
 20
436.1098889829373
 30
0.0
 10
465.375
 20
436.1098889829373
 30
0.0
 10
465.1093882503483
 20
435.7333889924485
 30
0.0
 10
464.8573882567143
 20
435.2592890044252
 30
0.0
 10
464.6542882618451
 20
434.7060890184002
 30
0.0
 10
464.4590000000007
 20
434.1718890318953
 30
0.0
 10
464.3104882705302
 20
433.5663890471915
 30
0.0
 10
464.2392882723288
 20
432.9057890638796
 30
0.0
 10
464.2392882723288
 20
432.9057890638796
 30
0.0
 10
464.0028882783008
 20
432.9306890632506
 30
0.0
 10
464.0028882783008
 20
432.9306890632506
 30
0.0
 10
464.0028882783008
 20
432.9306890632506
 30
0.0
 10
463.7606882844193
 20
432.9306890632506
 30
0.0
 10
463.7606882844193
 20
432.9306890632506
 30
0.0
 10
463.7567882845178
 20
433.1264890583043
 30
0.0
 10
463.761688284394
 20
433.314489053555
 30
0.0
 10
463.7753882840479
 20
433.4950890489927
 30
0.0
 10
463.7753882840479
 20
433.4950890489927
 30
0.0
 10
463.0780883016632
 20
433.4950890489927
 30
0.0
 10
463.0780883016632
 20
433.4950890489927
 30
0.0
 10
463.0780883016632
 20
433.4950890489927
 30
0.0
 10
463.0780883016632
 20
435.5907889960508
 30
0.0
 10
463.0780883016632
 20
435.5907889960508
 30
0.0
 10
463.0780883016632
 20
435.5907889960508
 30
0.0
 10
464.0409999999993
 20
435.5907889960508
 30
0.0
 10
464.0409999999993
 20
435.5907889960508
 30
0.0
 10
464.0409999999993
 20
435.5907889960508
 30
0.0
 10
464.0409999999993
 20
436.9647889613407
 30
0.0
 10
464.0409999999993
 20
436.9647889613407
 30
0.0
 10
464.0409999999993
 20
436.9647889613407
 30
0.0
 10
466.8397882066347
 20
436.9618889614139
 30
0.0
 10
466.8397882066347
 20
436.9618889614139
 30
0.0
 10
466.8397882066347
 20
436.9618889614139
 30
0.0
 10
466.8397882066347
 20
438.7582889160331
 30
0.0
 10
466.8397882066347
 20
438.7582889160331
 30
0.0
 10
466.8397882066347
 20
438.7582889160331
 30
0.0
 10
463.5820000000003
 20
438.7582889160331
 30
0.0
 10
463.5820000000003
 20
438.7582889160331
 30
0.0
 10
463.5820000000003
 20
438.7582889160331
 30
0.0
 10
463.5820000000003
 20
439.5526888959648
 30
0.0
 10
463.5820000000003
 20
439.5526888959648
 30
0.0
 10
463.5820000000003
 20
439.5526888959648
 30
0.0
 10
464.0224882778057
 20
439.5526888959648
 30
0.0
 10
464.0224882778057
 20
439.5526888959648
 30
0.0
 10
464.0224882778057
 20
439.5526888959648
 30
0.0
 10
464.0224882778057
 20
442.3764888246296
 30
0.0
 10
464.0224882778057
 20
442.3764888246296
 30
0.0
 10
464.0224882778057
 20
442.3764888246296
 30
0.0
 10
467.125
 20
442.3764888246296
 30
0.0
 10
467.125
 20
442.3764888246296
 30
0.0
 10
467.125
 20
442.3764888246296
 30
0.0
 10
467.125
 20
445.6127887428738
 30
0.0
 10
467.125
 20
445.6127887428738
 30
0.0
 10
467.125
 20
445.6127887428738
 30
0.0
 10
467.125
 20
445.8627887365583
 30
0.0
 10
467.125
 20
445.8627887365583
 30
0.0
 10
467.125
 20
445.8627887365583
 30
0.0
 10
467.375
 20
445.8627887365583
 30
0.0
 10
467.375
 20
445.8627887365583
 30
0.0
 10
467.375
 20
445.8627887365583
 30
0.0
 10
469.0517881507549
 20
445.8627887365583
 30
0.0
 10
469.0517881507549
 20
445.8627887365583
 30
0.0
 10
469.0517881507549
 20
445.8627887365583
 30
0.0
 10
469.2743881451315
 20
448.8852886602035
 30
0.0
 10
469.2743881451315
 20
448.8852886602035
 30
0.0
 10
469.2743881451315
 20
448.8852886602035
 30
0.0
 10
469.2968881445631
 20
449.1991886522737
 30
0.0
 10
469.2968881445631
 20
449.1991886522737
 30
0.0
 10
469.2968881445631
 20
449.1991886522737
 30
0.0
 10
469.5858881372624
 20
449.1991886522737
 30
0.0
 10
469.5858881372624
 20
449.1991886522737
 30
0.0
 10
469.5858881372624
 20
449.1991886522737
 30
0.0
 10
472.6435880600184
 20
449.1991886522737
 30
0.0
 10
472.6435880600184
 20
449.1991886522737
 30
0.0
 10
472.6435880600184
 20
449.1991886522737
 30
0.0
 10
472.9413880524953
 20
449.1991886522737
 30
0.0
 10
472.9413880524953
 20
449.1991886522737
 30
0.0
 10
472.9413880524953
 20
449.1991886522737
 30
0.0
 10
472.9570000000003
 20
448.8754886604511
 30
0.0
 10
472.9570000000003
 20
448.8754886604511
 30
0.0
 10
472.9570000000003
 20
448.8754886604511
 30
0.0
 10
473.0282880503
 20
447.3451886991097
 30
0.0
 10
473.0282880503
 20
447.3451886991097
 30
0.0
 10
473.0282880503
 20
447.3451886991097
 30
0.0
 10
498.9511873954325
 20
447.1063887051423
 30
0.0
 10
498.9511873954325
 20
447.1063887051423
 30
0.0
 10
498.9511873954325
 20
447.1063887051423
 30
0.0
 10
499.2890873868964
 20
447.1034887052156
 30
0.0
 10
499.2890873868964
 20
447.1034887052156
 30
0.0
 10
499.2890873868964
 20
447.1034887052156
 30
0.0
 10
499.2890873868964
 20
446.7665887137264
 30
0.0
 10
499.2890873868964
 20
446.7665887137264
 30
0.0
 10
499.2890873868964
 20
446.7665887137264
 30
0.0
 10
499.2890873868964
 20
444.7807887638919
 30
0.0
 10
499.2890873868964
 20
444.7807887638919
 30
0.0
 10
499.2890873868964
 20
444.7807887638919
 30
0.0
 10
499.2890873868964
 20
444.4452887723673
 30
0.0
 10
499.2890873868964
 20
444.4452887723673
 30
0.0
 10
499.2890873868964
 20
444.4452887723673
 30
0.0
 10
498.9520873954098
 20
444.4418887724532
 30
0.0
 10
498.9520873954098
 20
444.4418887724532
 30
0.0
 10
498.9520873954098
 20
444.4418887724532
 30
0.0
 10
498.5458874056712
 20
444.4359999999997
 30
0.0
 10
498.5458874056712
 20
444.4359999999997
 30
0.0
 10
498.5458874056712
 20
444.4359999999997
 30
0.0
 10
498.5458874056712
 20
442.9896888091389
 30
0.0
 10
498.5458874056712
 20
442.9896888091389
 30
0.0
 10
498.5458874056712
 20
442.9896888091389
 30
0.0
 10
499.0751873923
 20
442.9896888091389
 30
0.0
 10
499.0751873923
 20
442.9896888091389
 30
0.0
 10
499.0751873923
 20
442.9896888091389
 30
0.0
 10
499.0751873923
 20
440.2924888772759
 30
0.0
 10
499.0751873923
 20
440.2924888772759
 30
0.0
 10
499.0751873923
 20
440.2924888772759
 30
0.0
 10
498.3808874098395
 20
439.0190000000002
 30
0.0
 10
498.3808874098395
 20
439.0190000000002
 30
0.0
 10
498.3808874098395
 20
439.0190000000002
 30
0.0
 10
497.892587422175
 20
439.0190000000002
 30
0.0
 10
497.892587422175
 20
439.0190000000002
 30
0.0
 10
497.892587422175
 20
439.0190000000002
 30
0.0
 10
498.3554874104811
 20
438.2226889295634
 30
0.0
 10
498.3554874104811
 20
438.2226889295634
 30
0.0
 10
498.6063874041429
 20
437.2567889539641
 30
0.0
 10
497.7050874269116
 20
436.8534889641523
 30
0.0
 10
497.0448874435897
 20
437.0351889595622
 30
0.0
 10
497.0448874435897
 20
437.0351889595622
 30
0.0
 10
495.3114874873791
 20
434.5375890226569
 30
0.0
 10
495.3114874873791
 20
434.5375890226569
 30
0.0
 10
495.3114874873791
 20
434.5375890226569
 30
0.0
 10
495.3114874873791
 20
434.2538890298238
 30
0.0
 10
495.3114874873791
 20
434.2538890298238
 30
0.0
 10
495.3114874873791
 20
434.2538890298238
 30
0.0
 10
494.6435875042516
 20
433.4735890495358
 30
0.0
 10
494.6435875042516
 20
433.4735890495358
 30
0.0
 10
494.6435875042516
 20
433.4735890495358
 30
0.0
 10
492.6366875549502
 20
433.4735890495358
 30
0.0
 10
492.6366875549502
 20
433.4735890495358
 30
0.0
 10
492.6386875548997
 20
433.3540000000003
 30
0.0
 10
492.6366875549502
 20
433.2333890556038
 30
0.0
 10
492.6347875549982
 20
433.1127890586504
 30
0.0
 10
492.4833875588229
 20
433.1127890586504
 30
0.0
 10
492.3310875626703
 20
433.1127890586504
 30
0.0
 10
492.179687566495
 20
433.1127890586504
 30
0.0
 10
492.1757875665935
 20
435.1903890061658
 30
0.0
 10
490.875
 20
436.7191889675451
 30
0.0
 10
488.3515876632009
 20
436.4115889753157
 30
0.0
 10
488.3515876632009
 20
436.4115889753157
 30
0.0
 10
488.3515876632009
 20
437.5141889474617
 30
0.0
 10
488.3515876632009
 20
437.5141889474617
 30
0.0
 10
488.3515876632009
 20
437.5141889474617
 30
0.0
 10
487.3760000000002
 20
437.5141889474617
 30
0.0
 10
487.3760000000002
 20
437.5141889474617
 30
0.0
 10
487.3760000000002
 20
437.5141889474617
 30
0.0
 10
487.3760000000002
 20
443.2953888014163
 30
0.0
 10
487.3760000000002
 20
443.2953888014163
 30
0.0
 10
487.3760000000002
 20
443.2953888014163
 30
0.0
 10
487.7978876771886
 20
444.0893887813581
 30
0.0
 10
487.7978876771886
 20
444.0893887813581
 30
0.0
 10
487.7978876771886
 20
444.0893887813581
 30
0.0
 10
493.8349999999991
 20
444.0893887813581
 30
0.0
 10
493.8349999999991
 20
444.0893887813581
 30
0.0
 10
494.5878875056587
 20
442.7084888162426
 30
0.0
 10
494.9804874957408
 20
441.3007888518041
 30
0.0
 10
495.2167874897714
 20
439.8822888876384
 30
0.0
 10
495.2167874897714
 20
439.8822888876384
 30
0.0
 10
488.421887661425
 20
439.8822888876384
 30
0.0
 10
488.421887661425
 20
439.8822888876384
 30
0.0
 10
488.421887661425
 20
439.8822888876384
 30
0.0
 10
488.421887661425
 20
439.6601888932491
 30
0.0
 10
488.421887661425
 20
439.6601888932491
 30
0.0
 10
488.421887661425
 20
439.6601888932491
 30
0.0
 10
495.2255874895491
 20
439.6601888932491
 30
0.0
 10
495.2255874895491
 20
439.6601888932491
 30
0.0
 10
495.2255874895491
 20
439.6601888932491
 30
0.0
 10
495.2636874885866
 20
438.2450889289976
 30
0.0
 10
495.2636874885866
 20
438.2450889289976
 30
0.0
 10
495.2636874885866
 20
438.2450889289976
 30
0.0
 10
494.9081874975673
 20
437.5141889474617
 30
0.0
 10
494.9081874975673
 20
437.5141889474617
 30
0.0
 10
494.9081874975673
 20
437.5141889474617
 30
0.0
 10
494.7782875008488
 20
437.5141889474617
 30
0.0
 10
494.7782875008488
 20
437.5141889474617
 30
0.0
 10
494.7782875008488
 20
437.5141889474617
 30
0.0
 10
494.7782875008488
 20
437.5141889474617
 30
0.0
 10
494.7782875008488
 20
437.5141889474617
 30
0.0
  0
POLYLINE
  5
50
330
14
100
AcDbEntity
  8
Layer 1
370
     0
100
AcDb2dPolyline
 66
     1
 10
0.0
 20
0.0
 30
0.0
  0
VERTEX
  5
51
330
50
100
AcDbEntity
  8
Layer 1
370
     0
100
AcDbVertex
100
AcDb2dVertex
 10
498.0370874185246
 20
444.4296887727614
 30
0.0
  0
VERTEX
  5
52
330
50
100
AcDbEntity
  8
Layer 1
370
     0
100
AcDbVertex
100
AcDb2dVertex
 10
497.4237874340179
 20
444.4213887729711
 30
0.0
  0
VERTEX
  5
53
330
50
100
AcDbEntity
  8
Layer 1
370
     0
100
AcDbVertex
100
AcDb2dVertex
 10
497.4237874340179
 20
442.9896888091389
 30
0.0
  0
VERTEX
  5
54
330
50
100
AcDbEntity
  8
Layer 1
370
     0
100
AcDbVertex
100
AcDb2dVertex
 10
498.0370874185246
 20
442.9896888091389
 30
0.0
  0
VERTEX
  5
55
330
50
100
AcDbEntity
  8
Layer 1
370
     0
100
AcDbVertex
100
AcDb2dVertex
 10
498.0370874185246
 20
444.4296887727614
 30
0.0
  0
VERTEX
  5
56
330
50
100
AcDbEntity
  8
Layer 1
370
     0
100
AcDbVertex
100
AcDb2dVertex
 10
498.0370874185246
 20
444.4296887727614
 30
0.0
  0
SEQEND
  5
57
330
50
100
AcDbEntity
  8
Layer 1
370
     0
  0
POLYLINE
  5
58
330
14
100
AcDbEntity
  8
Layer 1
370
     0
100
AcDb2dPolyline
 66
     1
 10
0.0
 20
0.0
 30
0.0
  0
VERTEX
  5
59
330
58
100
AcDbEntity
  8
Layer 1
370
     0
100
AcDbVertex
100
AcDb2dVertex
 10
495.5194874821245
 20
445.0766887564168
 30
0.0
  0
VERTEX
  5
5A
330
58
100
AcDbEntity
  8
Layer 1
370
     0
100
AcDbVertex
100
AcDb2dVertex
 10
495.5194874821245
 20
446.3549999999996
 30
0.0
  0
VERTEX
  5
5B
330
58
100
AcDbEntity
  8
Layer 1
370
     0
100
AcDbVertex
100
AcDb2dVertex
 10
493.6112875303297
 20
445.0512887570585
 30
0.0
  0
VERTEX
  5
5C
330
58
100
AcDbEntity
  8
Layer 1
370
     0
100
AcDbVertex
100
AcDb2dVertex
 10
495.5194874821245
 20
445.0766887564168
 30
0.0
  0
VERTEX
  5
5D
330
58
100
AcDbEntity
  8
Layer 1
370
     0
100
AcDbVertex
100
AcDb2dVertex
 10
495.5194874821245
 20
445.0766887564168
 30
0.0
  0
SEQEND
  5
5E
330
58
100
AcDbEntity
  8
Layer 1
370
     0
  0
POLYLINE
  5
5F
330
14
100
AcDbEntity
  8
Layer 1
370
     0
100
AcDb2dPolyline
 66
     1
 10
0.0
 20
0.0
 30
0.0
  0
VERTEX
  5
60
330
5F
100
AcDbEntity
  8
Layer 1
370
     0
100
AcDbVertex
100
AcDb2dVertex
 10
498.6073874041176
 20
446.3861887233361
 30
0.0
  0
VERTEX
  5
61
330
5F
100
AcDbEntity
  8
Layer 1
370
     0
100
AcDbVertex
100
AcDb2dVertex
 10
496.7099999999991
 20
445.0917887560354
 30
0.0
  0
VERTEX
  5
62
330
5F
100
AcDbEntity
  8
Layer 1
370
     0
100
AcDbVertex
100
AcDb2dVertex
 10
498.6073874041176
 20
445.116188755419
 30
0.0
  0
VERTEX
  5
63
330
5F
100
AcDbEntity
  8
Layer 1
370
     0
100
AcDbVertex
100
AcDb2dVertex
 10
498.6073874041176
 20
446.3861887233361
 30
0.0
  0
VERTEX
  5
64
330
5F
100
AcDbEntity
  8
Layer 1
370
     0
100
AcDbVertex
100
AcDb2dVertex
 10
498.6073874041176
 20
446.3861887233361
 30
0.0
  0
SEQEND
  5
65
330
5F
100
AcDbEntity
  8
Layer 1
370
     0
  0
POLYLINE
  5
66
330
14
100
AcDbEntity
  8
Layer 1
370
     0
100
AcDb2dPolyline
 66
     1
 10
0.0
 20
0.0
 30
0.0
  0
VERTEX
  5
67
330
66
100
AcDbEntity
  8
Layer 1
370
     0
100
AcDbVertex
100
AcDb2dVertex
 10
495.9745874706277
 20
446.4540887216208
 30
0.0
  0
VERTEX
  5
68
330
66
100
AcDbEntity
  8
Layer 1
370
     0
100
AcDbVertex
100
AcDb2dVertex
 10
495.9745874706277
 20
445.1195887553331
 30
0.0
  0
VERTEX
  5
69
330
66
100
AcDbEntity
  8
Layer 1
370
     0
100
AcDbVertex
100
AcDb2dVertex
 10
497.9013874219527
 20
446.4364887220654
 30
0.0
  0
VERTEX
  5
6A
330
66
100
AcDbEntity
  8
Layer 1
370
     0
100
AcDbVertex
100
AcDb2dVertex
 10
495.9745874706277
 20
446.4540887216208
 30
0.0
  0
VERTEX
  5
6B
330
66
100
AcDbEntity
  8
Layer 1
370
     0
100
AcDbVertex
100
AcDb2dVertex
 10
495.9745874706277
 20
446.4540887216208
 30
0.0
  0
SEQEND
  5
6C
330
66
100
AcDbEntity
  8
Layer 1
370
     0
  0
SPLINE
  5
6D
330
14
100
AcDbEntity
  8
Layer 1
370
     0
100
AcDbSpline
210
0.0
220
0.0
230
1.0
 70
    11
 71
     3
 72
    23
 73
    19
 74
     0
 42
0.000000001
 43
0.0000000001
 40
0.0
 40
0.0
 40
0.0
 40
0.0
 40
1.0
 40
1.0
 40
1.0
 40
2.0
 40
2.0
 40
2.0
 40
3.0
 40
3.0
 40
3.0
 40
4.0
 40
4.0
 40
4.0
 40
5.0
 40
5.0
 40
5.0
 40
6.0
 40
6.0
 40
6.0
 40
6.0
 10
495.2733874883415
 20
436.8407889644732
 30
0.0
 10
495.2733874883415
 20
436.8407889644732
 30
0.0
 10
495.3114874873791
 20
436.79
 30
0.0
 10
495.3114874873791
 20
436.79
 30
0.0
 10
495.3114874873791
 20
436.79
 30
0.0
 10
495.3114874873791
 20
435.1337890075956
 30
0.0
 10
495.3114874873791
 20
435.1337890075956
 30
0.0
 10
495.3114874873791
 20
435.1337890075956
 30
0.0
 10
496.7333874514588
 20
437.1815889558638
 30
0.0
 10
496.7333874514588
 20
437.1815889558638
 30
0.0
 10
496.6640874532095
 20
437.2313889546058
 30
0.0
 10
496.6015874547884
 20
437.2920000000004
 30
0.0
 10
496.5526874560237
 20
437.3612889513242
 30
0.0
 10
496.5526874560237
 20
437.3612889513242
 30
0.0
 10
495.2733874883415
 20
436.8407889644732
 30
0.0
 10
495.2733874883415
 20
436.8407889644732
 30
0.0
 10
495.2733874883415
 20
436.8407889644732
 30
0.0
 10
495.2733874883415
 20
436.8407889644732
 30
0.0
 10
495.2733874883415
 20
436.8407889644732
 30
0.0
  0
SPLINE
  5
6E
330
14
100
AcDbEntity
  8
Layer 1
370
     0
100
AcDbSpline
210
0.0
220
0.0
230
1.0
 70
    11
 71
     3
 72
    29
 73
    25
 74
     0
 42
0.000000001
 43
0.0000000001
 40
0.0
 40
0.0
 40
0.0
 40
0.0
 40
1.0
 40
1.0
 40
1.0
 40
2.0
 40
2.0
 40
2.0
 40
3.0
 40
3.0
 40
3.0
 40
4.0
 40
4.0
 40
4.0
 40
5.0
 40
5.0
 40
5.0
 40
6.0
 40
6.0
 40
6.0
 40
7.0
 40
7.0
 40
7.0
 40
8.0
 40
8.0
 40
8.0
 40
8.0
 10
489.7792876271342
 20
433.9101890385064
 30
0.0
 10
489.5741876323154
 20
434.1146890333403
 30
0.0
 10
489.2909999999993
 20
434.2406890301572
 30
0.0
 10
488.9784876473641
 20
434.2406890301572
 30
0.0
 10
488.6659999999993
 20
434.2406890301572
 30
0.0
 10
488.3847876623622
 20
434.1146890333403
 30
0.0
 10
488.1796876675435
 20
433.9101890385064
 30
0.0
 10
487.9755876726995
 20
433.705589043675
 30
0.0
 10
487.8485876759078
 20
433.4228890508166
 30
0.0
 10
487.8485876759078
 20
433.110389058711
 30
0.0
 10
487.8485876759078
 20
432.7982890665953
 30
0.0
 10
487.9755876726995
 20
432.5155890737369
 30
0.0
 10
488.1796876675435
 20
432.3114890788929
 30
0.0
 10
488.3847876623622
 20
432.1068890840615
 30
0.0
 10
488.6659999999993
 20
431.9804890872547
 30
0.0
 10
488.9784876473641
 20
431.9804890872547
 30
0.0
 10
489.2909999999993
 20
431.9804890872547
 30
0.0
 10
489.5741876323154
 20
432.1068890840615
 30
0.0
 10
489.7792876271342
 20
432.3114890788929
 30
0.0
 10
489.9823876220034
 20
432.5155890737369
 30
0.0
 10
490.1093876187952
 20
432.7982890665953
 30
0.0
 10
490.1093876187952
 20
433.110389058711
 30
0.0
 10
490.1093876187952
 20
433.4228890508166
 30
0.0
 10
489.9823876220034
 20
433.705589043675
 30
0.0
 10
489.7792876271342
 20
433.9101890385064
 30
0.0
  0
SPLINE
  5
6F
330
14
100
AcDbEntity
  8
Layer 1
370
     0
100
AcDbSpline
210
0.0
220
0.0
230
1.0
 70
    11
 71
     3
 72
    20
 73
    16
 74
     0
 42
0.000000001
 43
0.0000000001
 40
0.0
 40
0.0
 40
0.0
 40
0.0
 40
1.0
 40
1.0
 40
1.0
 40
2.0
 40
2.0
 40
2.0
 40
3.0
 40
3.0
 40
3.0
 40
4.0
 40
4.0
 40
4.0
 40
5.0
 40
5.0
 40
5.0
 40
5.0
 10
488.4530876606368
 20
433.8246890406663
 30
0.0
 10
488.4003876619681
 20
433.8788890392971
 30
0.0
 10
488.3144876641381
 20
433.8788890392971
 30
0.0
 10
488.2606876654972
 20
433.8246890406663
 30
0.0
 10
488.2090000000007
 20
433.7719999999999
 30
0.0
 10
488.2090000000007
 20
433.6859999999997
 30
0.0
 10
488.2606876654972
 20
433.6332890455014
 30
0.0
 10
488.3144876641381
 20
433.5800890468454
 30
0.0
 10
488.4003876619681
 20
433.5800890468454
 30
0.0
 10
488.4530876606368
 20
433.6332890455014
 30
0.0
 10
488.5067876592802
 20
433.6859999999997
 30
0.0
 10
488.5067876592802
 20
433.7719999999999
 30
0.0
 10
488.4530876606368
 20
433.8246890406663
 30
0.0
 10
488.4530876606368
 20
433.8246890406663
 30
0.0
 10
488.4530876606368
 20
433.8246890406663
 30
0.0
 10
488.4530876606368
 20
433.8246890406663
 30
0.0
  0
SPLINE
  5
70
330
14
100
AcDbEntity
  8
Layer 1
370
     0
100
AcDbSpline
210
0.0
220
0.0
230
1.0
 70
    11
 71
     3
 72
    20
 73
    16
 74
     0
 42
0.000000001
 43
0.0000000001
 40
0.0
 40
0.0
 40
0.0
 40
0.0
 40
1.0
 40
1.0
 40
1.0
 40
2.0
 40
2.0
 40
2.0
 40
3.0
 40
3.0
 40
3.0
 40
4.0
 40
4.0
 40
4.0
 40
5.0
 40
5.0
 40
5.0
 40
5.0
 10
489.1132876439588
 20
433.987789036546
 30
0.0
 10
489.1132876439588
 20
434.0630000000001
 30
0.0
 10
489.0507876455376
 20
434.1239999999998
 30
0.0
 10
488.9765876474121
 20
434.1239999999998
 30
0.0
 10
488.9013876493118
 20
434.1239999999998
 30
0.0
 10
488.8407876508427
 20
434.0630000000001
 30
0.0
 10
488.8407876508427
 20
433.987789036546
 30
0.0
 10
488.8407876508427
 20
433.9130890384331
 30
0.0
 10
488.9013876493118
 20
433.8515890399867
 30
0.0
 10
488.9765876474121
 20
433.8515890399867
 30
0.0
 10
489.0507876455376
 20
433.8515890399867
 30
0.0
 10
489.1132876439588
 20
433.9130890384331
 30
0.0
 10
489.1132876439588
 20
433.987789036546
 30
0.0
 10
489.1132876439588
 20
433.987789036546
 30
0.0
 10
489.1132876439588
 20
433.987789036546
 30
0.0
 10
489.1132876439588
 20
433.987789036546
 30
0.0
  0
SPLINE
  5
71
330
14
100
AcDbEntity
  8
Layer 1
370
     0
100
AcDbSpline
210
0.0
220
0.0
230
1.0
 70
    11
 71
     3
 72
    20
 73
    16
 74
     0
 42
0.000000001
 43
0.0000000001
 40
0.0
 40
0.0
 40
0.0
 40
0.0
 40
1.0
 40
1.0
 40
1.0
 40
2.0
 40
2.0
 40
2.0
 40
3.0
 40
3.0
 40
3.0
 40
4.0
 40
4.0
 40
4.0
 40
5.0
 40
5.0
 40
5.0
 40
5.0
 10
489.6933876293042
 20
433.6366890454156
 30
0.0
 10
489.7460876279729
 20
433.6894890440817
 30
0.0
 10
489.7460876279729
 20
433.7758890418991
 30
0.0
 10
489.6933876293042
 20
433.8285890405677
 30
0.0
 10
489.640587630638
 20
433.8812890392364
 30
0.0
 10
489.5546876328081
 20
433.8812890392364
 30
0.0
 10
489.5020000000004
 20
433.8285890405677
 30
0.0
 10
489.4491876354732
 20
433.7758890418991
 30
0.0
 10
489.4491876354732
 20
433.6894890440817
 30
0.0
 10
489.5020000000004
 20
433.6366890454156
 30
0.0
 10
489.5546876328081
 20
433.5839999999998
 30
0.0
 10
489.640587630638
 20
433.5839999999998
 30
0.0
 10
489.6933876293042
 20
433.6366890454156
 30
0.0
 10
489.6933876293042
 20
433.6366890454156
 30
0.0
 10
489.6933876293042
 20
433.6366890454156
 30
0.0
 10
489.6933876293042
 20
433.6366890454156
 30
0.0
  0
SPLINE
  5
72
330
14
100
AcDbEntity
  8
Layer 1
370
     0
100
AcDbSpline
210
0.0
220
0.0
230
1.0
 70
    11
 71
     3
 72
    20
 73
    16
 74
     0
 42
0.000000001
 43
0.0000000001
 40
0.0
 40
0.0
 40
0.0
 40
0.0
 40
1.0
 40
1.0
 40
1.0
 40
2.0
 40
2.0
 40
2.0
 40
3.0
 40
3.0
 40
3.0
 40
4.0
 40
4.0
 40
4.0
 40
5.0
 40
5.0
 40
5.0
 40
5.0
 10
489.8563876251865
 20
432.9770890620784
 30
0.0
 10
489.9315876232868
 20
432.9770890620784
 30
0.0
 10
489.9921876217559
 20
433.0380890605375
 30
0.0
 10
489.9921876217559
 20
433.1132890586377
 30
0.0
 10
489.9921876217559
 20
433.188489056738
 30
0.0
 10
489.9315876232868
 20
433.249489055197
 30
0.0
 10
489.8563876251865
 20
433.249489055197
 30
0.0
 10
489.7812876270837
 20
433.249489055197
 30
0.0
 10
489.7206876286145
 20
433.188489056738
 30
0.0
 10
489.7206876286145
 20
433.1132890586377
 30
0.0
 10
489.7206876286145
 20
433.0380890605375
 30
0.0
 10
489.7812876270837
 20
432.9770890620784
 30
0.0
 10
489.8563876251865
 20
432.9770890620784
 30
0.0
 10
489.8563876251865
 20
432.9770890620784
 30
0.0
 10
489.8563876251865
 20
432.9770890620784
 30
0.0
 10
489.8563876251865
 20
432.9770890620784
 30
0.0
  0
SPLINE
  5
73
330
14
100
AcDbEntity
  8
Layer 1
370
     0
100
AcDbSpline
210
0.0
220
0.0
230
1.0
 70
    11
 71
     3
 72
    20
 73
    16
 74
     0
 42
0.000000001
 43
0.0000000001
 40
0.0
 40
0.0
 40
0.0
 40
0.0
 40
1.0
 40
1.0
 40
1.0
 40
2.0
 40
2.0
 40
2.0
 40
3.0
 40
3.0
 40
3.0
 40
4.0
 40
4.0
 40
4.0
 40
5.0
 40
5.0
 40
5.0
 40
5.0
 10
489.5058876340408
 20
432.3959999999997
 30
0.0
 10
489.4520876353999
 20
432.448689075427
 30
0.0
 10
489.4520876353999
 20
432.5351890732418
 30
0.0
 10
489.5058876340408
 20
432.5878890719105
 30
0.0
 10
489.5585876327095
 20
432.6415890705539
 30
0.0
 10
489.6444876305395
 20
432.6415890705539
 30
0.0
 10
489.6972876292057
 20
432.5878890719105
 30
0.0
 10
489.75
 20
432.5351890732418
 30
0.0
 10
489.75
 20
432.448689075427
 30
0.0
 10
489.6972876292057
 20
432.3959999999997
 30
0.0
 10
489.6444876305395
 20
432.3432890780896
 30
0.0
 10
489.5585876327095
 20
432.3432890780896
 30
0.0
 10
489.5058876340408
 20
432.3959999999997
 30
0.0
 10
489.5058876340408
 20
432.3959999999997
 30
0.0
 10
489.5058876340408
 20
432.3959999999997
 30
0.0
 10
489.5058876340408
 20
432.3959999999997
 30
0.0
  0
SPLINE
  5
74
330
14
100
AcDbEntity
  8
Layer 1
370
     0
100
AcDbSpline
210
0.0
220
0.0
230
1.0
 70
    11
 71
     3
 72
    20
 73
    16
 74
     0
 42
0.000000001
 43
0.0000000001
 40
0.0
 40
0.0
 40
0.0
 40
0.0
 40
1.0
 40
1.0
 40
1.0
 40
2.0
 40
2.0
 40
2.0
 40
3.0
 40
3.0
 40
3.0
 40
4.0
 40
4.0
 40
4.0
 40
5.0
 40
5.0
 40
5.0
 40
5.0
 10
488.8456876507189
 20
432.2338890808533
 30
0.0
 10
488.8456876507189
 20
432.3080890789788
 30
0.0
 10
488.906287649188
 20
432.3690890774378
 30
0.0
 10
488.9823876472656
 20
432.3690890774378
 30
0.0
 10
489.0565876453911
 20
432.3690890774378
 30
0.0
 10
489.1171876438602
 20
432.3080890789788
 30
0.0
 10
489.1171876438602
 20
432.2338890808533
 30
0.0
 10
489.1171876438602
 20
432.158689082753
 30
0.0
 10
489.0565876453911
 20
432.0980890842839
 30
0.0
 10
488.9823876472656
 20
432.0980890842839
 30
0.0
 10
488.906287649188
 20
432.0980890842839
 30
0.0
 10
488.8456876507189
 20
432.158689082753
 30
0.0
 10
488.8456876507189
 20
432.2338890808533
 30
0.0
 10
488.8456876507189
 20
432.2338890808533
 30
0.0
 10
488.8456876507189
 20
432.2338890808533
 30
0.0
 10
488.8456876507189
 20
432.2338890808533
 30
0.0
  0
SPLINE
  5
75
330
14
100
AcDbEntity
  8
Layer 1
370
     0
100
AcDbSpline
210
0.0
220
0.0
230
1.0
 70
    11
 71
     3
 72
    20
 73
    16
 74
     0
 42
0.000000001
 43
0.0000000001
 40
0.0
 40
0.0
 40
0.0
 40
0.0
 40
1.0
 40
1.0
 40
1.0
 40
2.0
 40
2.0
 40
2.0
 40
3.0
 40
3.0
 40
3.0
 40
4.0
 40
4.0
 40
4.0
 40
5.0
 40
5.0
 40
5.0
 40
5.0
 10
488.2645876653987
 20
432.5853890719736
 30
0.0
 10
488.3173876640649
 20
432.6381890706398
 30
0.0
 10
488.4042876618696
 20
432.6381890706398
 30
0.0
 10
488.4570000000003
 20
432.5853890719736
 30
0.0
 10
488.5097876592044
 20
432.5316890733302
 30
0.0
 10
488.5097876592044
 20
432.4462890754876
 30
0.0
 10
488.4570000000003
 20
432.3925890768442
 30
0.0
 10
488.4042876618696
 20
432.339789078178
 30
0.0
 10
488.3173876640649
 20
432.339789078178
 30
0.0
 10
488.2645876653987
 20
432.3925890768442
 30
0.0
 10
488.21188766673
 20
432.4462890754876
 30
0.0
 10
488.21188766673
 20
432.5316890733302
 30
0.0
 10
488.2645876653987
 20
432.5853890719736
 30
0.0
 10
488.2645876653987
 20
432.5853890719736
 30
0.0
 10
488.2645876653987
 20
432.5853890719736
 30
0.0
 10
488.2645876653987
 20
432.5853890719736
 30
0.0
  0
SPLINE
  5
76
330
14
100
AcDbEntity
  8
Layer 1
370
     0
100
AcDbSpline
210
0.0
220
0.0
230
1.0
 70
    11
 71
     3
 72
    20
 73
    16
 74
     0
 42
0.000000001
 43
0.0000000001
 40
0.0
 40
0.0
 40
0.0
 40
0.0
 40
1.0
 40
1.0
 40
1.0
 40
2.0
 40
2.0
 40
2.0
 40
3.0
 40
3.0
 40
3.0
 40
4.0
 40
4.0
 40
4.0
 40
5.0
 40
5.0
 40
5.0
 40
5.0
 10
488.1015876695164
 20
433.2436890553436
 30
0.0
 10
488.0263876714162
 20
433.2436890553436
 30
0.0
 10
487.9667876729218
 20
433.1835890568618
 30
0.0
 10
487.9667876729218
 20
433.1083890587615
 30
0.0
 10
487.9667876729218
 20
433.0336890606486
 30
0.0
 10
488.0263876714162
 20
432.9726890621896
 30
0.0
 10
488.1015876695164
 20
432.9726890621896
 30
0.0
 10
488.1767876676167
 20
432.9726890621896
 30
0.0
 10
488.2382876660631
 20
433.0336890606486
 30
0.0
 10
488.2382876660631
 20
433.1083890587615
 30
0.0
 10
488.2382876660631
 20
433.1835890568618
 30
0.0
 10
488.1767876676167
 20
433.2436890553436
 30
0.0
 10
488.1015876695164
 20
433.2436890553436
 30
0.0
 10
488.1015876695164
 20
433.2436890553436
 30
0.0
 10
488.1015876695164
 20
433.2436890553436
 30
0.0
 10
488.1015876695164
 20
433.2436890553436
 30
0.0
  0
SPLINE
  5
77
330
14
100
AcDbEntity
  8
Layer 1
370
     0
100
AcDbSpline
210
0.0
220
0.0
230
1.0
 70
    11
 71
     3
 72
    32
 73
    28
 74
     0
 42
0.000000001
 43
0.0000000001
 40
0.0
 40
0.0
 40
0.0
 40
0.0
 40
1.0
 40
1.0
 40
1.0
 40
2.0
 40
2.0
 40
2.0
 40
3.0
 40
3.0
 40
3.0
 40
4.0
 40
4.0
 40
4.0
 40
5.0
 40
5.0
 40
5.0
 40
6.0
 40
6.0
 40
6.0
 40
7.0
 40
7.0
 40
7.0
 40
8.0
 40
8.0
 40
8.0
 40
9.0
 40
9.0
 40
9.0
 40
9.0
 10
488.9784876473641
 20
435.8559999999998
 30
0.0
 10
488.2206876665077
 20
435.8559999999998
 30
0.0
 10
487.5351876838249
 20
435.5487889971118
 30
0.0
 10
487.0380876963827
 20
435.0512890096797
 30
0.0
 10
486.5409999999993
 20
434.5546890222249
 30
0.0
 10
486.2343877166859
 20
433.8681890395674
 30
0.0
 10
486.2343877166859
 20
433.110389058711
 30
0.0
 10
486.2343877166859
 20
432.3524890778572
 30
0.0
 10
486.5409999999993
 20
431.6660000000002
 30
0.0
 10
487.0380876963827
 20
431.1693891077448
 30
0.0
 10
487.5351876838249
 20
430.6728891202874
 30
0.0
 10
488.2206876665077
 20
430.3651891280606
 30
0.0
 10
488.9784876473641
 20
430.3651891280606
 30
0.0
 10
489.7362876282205
 20
430.3651891280606
 30
0.0
 10
490.4237876108527
 20
430.6728891202874
 30
0.0
 10
490.9198875983202
 20
431.1693891077448
 30
0.0
 10
491.4159999999993
 20
431.6660000000002
 30
0.0
 10
491.7245875779918
 20
432.3524890778572
 30
0.0
 10
491.7245875779918
 20
433.110389058711
 30
0.0
 10
491.7245875779918
 20
433.8681890395674
 30
0.0
 10
491.4159999999993
 20
434.5546890222249
 30
0.0
 10
490.9198875983202
 20
435.0512890096797
 30
0.0
 10
490.4237876108527
 20
435.5487889971118
 30
0.0
 10
489.7362876282205
 20
435.8559999999998
 30
0.0
 10
488.9784876473641
 20
435.8559999999998
 30
0.0
 10
488.9784876473641
 20
435.8559999999998
 30
0.0
 10
488.9784876473641
 20
435.8559999999998
 30
0.0
 10
488.9784876473641
 20
435.8559999999998
 30
0.0
  0
POLYLINE
  5
78
330
14
100
AcDbEntity
  8
Layer 1
370
     0
100
AcDb2dPolyline
 66
     1
 10
0.0
 20
0.0
 30
0.0
  0
VERTEX
  5
79
330
78
100
AcDbEntity
  8
Layer 1
370
     0
100
AcDbVertex
100
AcDb2dVertex
 10
482.8495878021931
 20
444.9115887605876
 30
0.0
  0
VERTEX
  5
7A
330
78
100
AcDbEntity
  8
Layer 1
370
     0
100
AcDbVertex
100
AcDb2dVertex
 10
482.8495878021931
 20
446.5395887194609
 30
0.0
  0
VERTEX
  5
7B
330
78
100
AcDbEntity
  8
Layer 1
370
     0
100
AcDbVertex
100
AcDb2dVertex
 10
480.4208878635473
 20
444.8798887613884
 30
0.0
  0
VERTEX
  5
7C
330
78
100
AcDbEntity
  8
Layer 1
370
     0
100
AcDbVertex
100
AcDb2dVertex
 10
482.8495878021931
 20
444.9115887605876
 30
0.0
  0
VERTEX
  5
7D
330
78
100
AcDbEntity
  8
Layer 1
370
     0
100
AcDbVertex
100
AcDb2dVertex
 10
482.8495878021931
 20
444.9115887605876
 30
0.0
  0
SEQEND
  5
7E
330
78
100
AcDbEntity
  8
Layer 1
370
     0
  0
POLYLINE
  5
7F
330
14
100
AcDbEntity
  8
Layer 1
370
     0
100
AcDb2dPolyline
 66
     1
 10
0.0
 20
0.0
 30
0.0
  0
VERTEX
  5
80
330
7F
100
AcDbEntity
  8
Layer 1
370
     0
100
AcDbVertex
100
AcDb2dVertex
 10
483.3046877906963
 20
446.5707887186727
 30
0.0
  0
VERTEX
  5
81
330
7F
100
AcDbEntity
  8
Layer 1
370
     0
100
AcDbVertex
100
AcDb2dVertex
 10
483.3046877906963
 20
445.1195887553331
 30
0.0
  0
VERTEX
  5
82
330
7F
100
AcDbEntity
  8
Layer 1
370
     0
100
AcDbVertex
100
AcDb2dVertex
 10
485.4003877377545
 20
446.5512887191653
 30
0.0
  0
VERTEX
  5
83
330
7F
100
AcDbEntity
  8
Layer 1
370
     0
100
AcDbVertex
100
AcDb2dVertex
 10
483.3046877906963
 20
446.5707887186727
 30
0.0
  0
VERTEX
  5
84
330
7F
100
AcDbEntity
  8
Layer 1
370
     0
100
AcDbVertex
100
AcDb2dVertex
 10
483.3046877906963
 20
446.5707887186727
 30
0.0
  0
SEQEND
  5
85
330
7F
100
AcDbEntity
  8
Layer 1
370
     0
  0
POLYLINE
  5
86
330
14
100
AcDbEntity
  8
Layer 1
370
     0
100
AcDb2dPolyline
 66
     1
 10
0.0
 20
0.0
 30
0.0
  0
VERTEX
  5
87
330
86
100
AcDbEntity
  8
Layer 1
370
     0
100
AcDbVertex
100
AcDb2dVertex
 10
486.1757877181662
 20
444.9550887594887
 30
0.0
  0
VERTEX
  5
88
330
86
100
AcDbEntity
  8
Layer 1
370
     0
100
AcDbVertex
100
AcDb2dVertex
 10
486.1757877181662
 20
446.544888719327
 30
0.0
  0
VERTEX
  5
89
330
86
100
AcDbEntity
  8
Layer 1
370
     0
100
AcDbVertex
100
AcDb2dVertex
 10
486.1679999999997
 20
446.544888719327
 30
0.0
  0
VERTEX
  5
8A
330
86
100
AcDbEntity
  8
Layer 1
370
     0
100
AcDbVertex
100
AcDb2dVertex
 10
483.7948877783128
 20
444.9237887602794
 30
0.0
  0
VERTEX
  5
8B
330
86
100
AcDbEntity
  8
Layer 1
370
     0
100
AcDbVertex
100
AcDb2dVertex
 10
486.1757877181662
 20
444.9550887594887
 30
0.0
  0
VERTEX
  5
8C
330
86
100
AcDbEntity
  8
Layer 1
370
     0
100
AcDbVertex
100
AcDb2dVertex
 10
486.1757877181662
 20
444.9550887594887
 30
0.0
  0
SEQEND
  5
8D
330
86
100
AcDbEntity
  8
Layer 1
370
     0
  0
POLYLINE
  5
8E
330
14
100
AcDbEntity
  8
Layer 1
370
     0
100
AcDb2dPolyline
 66
     1
 10
0.0
 20
0.0
 30
0.0
  0
VERTEX
  5
8F
330
8E
100
AcDbEntity
  8
Layer 1
370
     0
100
AcDbVertex
100
AcDb2dVertex
 10
486.62888770672
 20
446.54
 30
0.0
  0
VERTEX
  5
90
330
8E
100
AcDbEntity
  8
Layer 1
370
     0
100
AcDbVertex
100
AcDb2dVertex
 10
486.62888770672
 20
445.1195887553331
 30
0.0
  0
VERTEX
  5
91
330
8E
100
AcDbEntity
  8
Layer 1
370
     0
100
AcDbVertex
100
AcDb2dVertex
 10
488.6815876548644
 20
446.5219999999999
 30
0.0
  0
VERTEX
  5
92
330
8E
100
AcDbEntity
  8
Layer 1
370
     0
100
AcDbVertex
100
AcDb2dVertex
 10
486.62888770672
 20
446.54
 30
0.0
  0
VERTEX
  5
93
330
8E
100
AcDbEntity
  8
Layer 1
370
     0
100
AcDbVertex
100
AcDb2dVertex
 10
486.62888770672
 20
446.54
 30
0.0
  0
SEQEND
  5
94
330
8E
100
AcDbEntity
  8
Layer 1
370
     0
  0
POLYLINE
  5
95
330
14
100
AcDbEntity
  8
Layer 1
370
     0
100
AcDb2dPolyline
 66
     1
 10
0.0
 20
0.0
 30
0.0
  0
VERTEX
  5
96
330
95
100
AcDbEntity
  8
Layer 1
370
     0
100
AcDbVertex
100
AcDb2dVertex
 10
489.3280876385325
 20
444.9955887584656
 30
0.0
  0
VERTEX
  5
97
330
95
100
AcDbEntity
  8
Layer 1
370
     0
100
AcDbVertex
100
AcDb2dVertex
 10
489.3280876385325
 20
446.4306887222119
 30
0.0
  0
VERTEX
  5
98
330
95
100
AcDbEntity
  8
Layer 1
370
     0
100
AcDbVertex
100
AcDb2dVertex
 10
487.1845876926818
 20
444.9677887591679
 30
0.0
  0
VERTEX
  5
99
330
95
100
AcDbEntity
  8
Layer 1
370
     0
100
AcDbVertex
100
AcDb2dVertex
 10
489.3280876385325
 20
444.9955887584656
 30
0.0
  0
VERTEX
  5
9A
330
95
100
AcDbEntity
  8
Layer 1
370
     0
100
AcDbVertex
100
AcDb2dVertex
 10
489.3280876385325
 20
444.9955887584656
 30
0.0
  0
SEQEND
  5
9B
330
95
100
AcDbEntity
  8
Layer 1
370
     0
  0
POLYLINE
  5
9C
330
14
100
AcDbEntity
  8
Layer 1
370
     0
100
AcDb2dPolyline
 66
     1
 10
0.0
 20
0.0
 30
0.0
  0
VERTEX
  5
9D
330
9C
100
AcDbEntity
  8
Layer 1
370
     0
100
AcDbVertex
100
AcDb2dVertex
 10
489.7821876270609
 20
446.5116887201657
 30
0.0
  0
VERTEX
  5
9E
330
9C
100
AcDbEntity
  8
Layer 1
370
     0
100
AcDbVertex
100
AcDb2dVertex
 10
489.7821876270609
 20
445.1195887553331
 30
0.0
  0
VERTEX
  5
9F
330
9C
100
AcDbEntity
  8
Layer 1
370
     0
100
AcDbVertex
100
AcDb2dVertex
 10
491.7919999999995
 20
446.493188720633
 30
0.0
  0
VERTEX
  5
A0
330
9C
100
AcDbEntity
  8
Layer 1
370
     0
100
AcDbVertex
100
AcDb2dVertex
 10
489.7821876270609
 20
446.5116887201657
 30
0.0
  0
VERTEX
  5
A1
330
9C
100
AcDbEntity
  8
Layer 1
370
     0
100
AcDbVertex
100
AcDb2dVertex
 10
489.7821876270609
 20
446.5116887201657
 30
0.0
  0
SEQEND
  5
A2
330
9C
100
AcDbEntity
  8
Layer 1
370
     0
  0
POLYLINE
  5
A3
330
14
100
AcDbEntity
  8
Layer 1
370
     0
100
AcDb2dPolyline
 66
     1
 10
0.0
 20
0.0
 30
0.0
  0
VERTEX
  5
A4
330
A3
100
AcDbEntity
  8
Layer 1
370
     0
100
AcDbVertex
100
AcDb2dVertex
 10
492.4804875588961
 20
445.0365887574299
 30
0.0
  0
VERTEX
  5
A5
330
A3
100
AcDbEntity
  8
Layer 1
370
     0
100
AcDbVertex
100
AcDb2dVertex
 10
492.4804875588961
 20
446.4320887221766
 30
0.0
  0
VERTEX
  5
A6
330
A3
100
AcDbEntity
  8
Layer 1
370
     0
100
AcDbVertex
100
AcDb2dVertex
 10
490.3983876114944
 20
445.0097887581069
 30
0.0
  0
VERTEX
  5
A7
330
A3
100
AcDbEntity
  8
Layer 1
370
     0
100
AcDbVertex
100
AcDb2dVertex
 10
492.4804875588961
 20
445.0365887574299
 30
0.0
  0
VERTEX
  5
A8
330
A3
100
AcDbEntity
  8
Layer 1
370
     0
100
AcDbVertex
100
AcDb2dVertex
 10
492.4804875588961
 20
445.0365887574299
 30
0.0
  0
SEQEND
  5
A9
330
A3
100
AcDbEntity
  8
Layer 1
370
     0
  0
POLYLINE
  5
AA
330
14
100
AcDbEntity
  8
Layer 1
370
     0
100
AcDb2dPolyline
 66
     1
 10
0.0
 20
0.0
 30
0.0
  0
VERTEX
  5
AB
330
AA
100
AcDbEntity
  8
Layer 1
370
     0
100
AcDbVertex
100
AcDb2dVertex
 10
491.9188875730833
 20
436.5526889717512
 30
0.0
  0
VERTEX
  5
AC
330
AA
100
AcDbEntity
  8
Layer 1
370
     0
100
AcDbVertex
100
AcDb2dVertex
 10
491.9188875730833
 20
436.2606889791277
 30
0.0
  0
VERTEX
  5
AD
330
AA
100
AcDbEntity
  8
Layer 1
370
     0
100
AcDbVertex
100
AcDb2dVertex
 10
494.4267875097285
 20
436.2606889791277
 30
0.0
  0
VERTEX
  5
AE
330
AA
100
AcDbEntity
  8
Layer 1
370
     0
100
AcDbVertex
100
AcDb2dVertex
 10
494.4267875097285
 20
436.5526889717512
 30
0.0
  0
VERTEX
  5
AF
330
AA
100
AcDbEntity
  8
Layer 1
370
     0
100
AcDbVertex
100
AcDb2dVertex
 10
491.9188875730833
 20
436.5526889717512
 30
0.0
  0
VERTEX
  5
B0
330
AA
100
AcDbEntity
  8
Layer 1
370
     0
100
AcDbVertex
100
AcDb2dVertex
 10
491.9188875730833
 20
436.5526889717512
 30
0.0
  0
SEQEND
  5
B1
330
AA
100
AcDbEntity
  8
Layer 1
370
     0
  0
POLYLINE
  5
B2
330
14
100
AcDbEntity
  8
Layer 1
370
     0
100
AcDb2dPolyline
 66
     1
 10
0.0
 20
0.0
 30
0.0
  0
VERTEX
  5
B3
330
B2
100
AcDbEntity
  8
Layer 1
370
     0
100
AcDbVertex
100
AcDb2dVertex
 10
492.6015875558369
 20
435.4804889988372
 30
0.0
  0
VERTEX
  5
B4
330
B2
100
AcDbEntity
  8
Layer 1
370
     0
100
AcDbVertex
100
AcDb2dVertex
 10
492.6015875558369
 20
435.1880000000001
 30
0.0
  0
VERTEX
  5
B5
330
B2
100
AcDbEntity
  8
Layer 1
370
     0
100
AcDbVertex
100
AcDb2dVertex
 10
494.4267875097285
 20
435.1880000000001
 30
0.0
  0
VERTEX
  5
B6
330
B2
100
AcDbEntity
  8
Layer 1
370
     0
100
AcDbVertex
100
AcDb2dVertex
 10
494.4267875097285
 20
435.4804889988372
 30
0.0
  0
VERTEX
  5
B7
330
B2
100
AcDbEntity
  8
Layer 1
370
     0
100
AcDbVertex
100
AcDb2dVertex
 10
492.6015875558369
 20
435.4804889988372
 30
0.0
  0
VERTEX
  5
B8
330
B2
100
AcDbEntity
  8
Layer 1
370
     0
100
AcDbVertex
100
AcDb2dVertex
 10
492.6015875558369
 20
435.4804889988372
 30
0.0
  0
SEQEND
  5
B9
330
B2
100
AcDbEntity
  8
Layer 1
370
     0
  0
POLYLINE
  5
BA
330
14
100
AcDbEntity
  8
Layer 1
370
     0
100
AcDb2dPolyline
 66
     1
 10
0.0
 20
0.0
 30
0.0
  0
VERTEX
  5
BB
330
BA
100
AcDbEntity
  8
Layer 1
370
     0
100
AcDbVertex
100
AcDb2dVertex
 10
492.9784875463156
 20
434.378889026666
 30
0.0
  0
VERTEX
  5
BC
330
BA
100
AcDbEntity
  8
Layer 1
370
     0
100
AcDbVertex
100
AcDb2dVertex
 10
492.9784875463156
 20
434.0868890340425
 30
0.0
  0
VERTEX
  5
BD
330
BA
100
AcDbEntity
  8
Layer 1
370
     0
100
AcDbVertex
100
AcDb2dVertex
 10
494.4267875097285
 20
434.0868890340425
 30
0.0
  0
VERTEX
  5
BE
330
BA
100
AcDbEntity
  8
Layer 1
370
     0
100
AcDbVertex
100
AcDb2dVertex
 10
494.4267875097285
 20
434.378889026666
 30
0.0
  0
VERTEX
  5
BF
330
BA
100
AcDbEntity
  8
Layer 1
370
     0
100
AcDbVertex
100
AcDb2dVertex
 10
492.9784875463156
 20
434.378889026666
 30
0.0
  0
VERTEX
  5
C0
330
BA
100
AcDbEntity
  8
Layer 1
370
     0
100
AcDbVertex
100
AcDb2dVertex
 10
492.9784875463156
 20
434.378889026666
 30
0.0
  0
SEQEND
  5
C1
330
BA
100
AcDbEntity
  8
Layer 1
370
     0
  0
SPLINE
  5
C2
330
14
100
AcDbEntity
  8
Layer 1
370
     0
100
AcDbSpline
210
0.0
220
0.0
230
1.0
 70
    11
 71
     3
 72
    35
 73
    31
 74
     0
 42
0.000000001
 43
0.0000000001
 40
0.0
 40
0.0
 40
0.0
 40
0.0
 40
1.0
 40
1.0
 40
1.0
 40
2.0
 40
2.0
 40
2.0
 40
3.0
 40
3.0
 40
3.0
 40
4.0
 40
4.0
 40
4.0
 40
5.0
 40
5.0
 40
5.0
 40
6.0
 40
6.0
 40
6.0
 40
7.0
 40
7.0
 40
7.0
 40
8.0
 40
8.0
 40
8.0
 40
9.0
 40
9.0
 40
9.0
 40
10.0
 40
10.0
 40
10.0
 40
10.0
 10
489.2520000000004
 20
443.1288888056224
 30
0.0
 10
489.2520000000004
 20
443.1288888056224
 30
0.0
 10
489.2520000000004
 20
440.7787888649909
 30
0.0
 10
489.2520000000004
 20
440.7787888649909
 30
0.0
 10
489.2520000000004
 20
440.7787888649909
 30
0.0
 10
494.060487518982
 20
440.1474888809389
 30
0.0
 10
494.060487518982
 20
440.1474888809389
 30
0.0
 10
493.9755875211267
 20
441.1034888567883
 30
0.0
 10
493.7587875266036
 20
442.0233888335497
 30
0.0
 10
493.3397875371884
 20
442.888188811703
 30
0.0
 10
493.3397875371884
 20
442.888188811703
 30
0.0
 10
493.3397875371884
 20
441.8437888380868
 30
0.0
 10
493.3397875371884
 20
441.8437888380868
 30
0.0
 10
493.3397875371884
 20
441.7523888403957
 30
0.0
 10
493.2655875390628
 20
441.6757888423308
 30
0.0
 10
493.1718875414299
 20
441.6757888423308
 30
0.0
 10
493.1718875414299
 20
441.6757888423308
 30
0.0
 10
492.5604875568752
 20
441.6757888423308
 30
0.0
 10
492.5604875568752
 20
441.6757888423308
 30
0.0
 10
492.4667875592422
 20
441.6757888423308
 30
0.0
 10
492.3925875611167
 20
441.7523888403957
 30
0.0
 10
492.3925875611167
 20
441.8437888380868
 30
0.0
 10
492.3925875611167
 20
441.8437888380868
 30
0.0
 10
492.3925875611167
 20
443.1288888056224
 30
0.0
 10
492.3925875611167
 20
443.1288888056224
 30
0.0
 10
492.3925875611167
 20
443.1288888056224
 30
0.0
 10
489.2520000000004
 20
443.1288888056224
 30
0.0
 10
489.2520000000004
 20
443.1288888056224
 30
0.0
 10
489.2520000000004
 20
443.1288888056224
 30
0.0
 10
489.2520000000004
 20
443.1288888056224
 30
0.0
 10
489.2520000000004
 20
443.1288888056224
 30
0.0
  0
POLYLINE
  5
C3
330
14
100
AcDbEntity
  8
Layer 1
370
     0
100
AcDb2dPolyline
 66
     1
 10
0.0
 20
0.0
 30
0.0
  0
VERTEX
  5
C4
330
C3
100
AcDbEntity
  8
Layer 1
370
     0
100
AcDbVertex
100
AcDb2dVertex
 10
492.9345875474246
 20
446.4818887209185
 30
0.0
  0
VERTEX
  5
C5
330
C3
100
AcDbEntity
  8
Layer 1
370
     0
100
AcDbVertex
100
AcDb2dVertex
 10
492.9345875474246
 20
445.1195887553331
 30
0.0
  0
VERTEX
  5
C6
330
C3
100
AcDbEntity
  8
Layer 1
370
     0
100
AcDbVertex
100
AcDb2dVertex
 10
494.9022874977163
 20
446.4643887213606
 30
0.0
  0
VERTEX
  5
C7
330
C3
100
AcDbEntity
  8
Layer 1
370
     0
100
AcDbVertex
100
AcDb2dVertex
 10
492.9345875474246
 20
446.4818887209185
 30
0.0
  0
VERTEX
  5
C8
330
C3
100
AcDbEntity
  8
Layer 1
370
     0
100
AcDbVertex
100
AcDb2dVertex
 10
492.9345875474246
 20
446.4818887209185
 30
0.0
  0
SEQEND
  5
C9
330
C3
100
AcDbEntity
  8
Layer 1
370
     0
  0
SPLINE
  5
CA
330
14
100
AcDbEntity
  8
Layer 1
370
     0
100
AcDbSpline
210
0.0
220
0.0
230
1.0
 70
    11
 71
     3
 72
    20
 73
    16
 74
     0
 42
0.000000001
 43
0.0000000001
 40
0.0
 40
0.0
 40
0.0
 40
0.0
 40
1.0
 40
1.0
 40
1.0
 40
2.0
 40
2.0
 40
2.0
 40
3.0
 40
3.0
 40
3.0
 40
4.0
 40
4.0
 40
4.0
 40
5.0
 40
5.0
 40
5.0
 40
5.0
 10
470.0448881256671
 20
444.6806887664206
 30
0.0
 10
470.0448881256671
 20
444.6806887664206
 30
0.0
 10
470.0448881256671
 20
441.6854888420858
 30
0.0
 10
470.0448881256671
 20
441.6854888420858
 30
0.0
 10
470.0448881256671
 20
441.6854888420858
 30
0.0
 10
472.5517880623374
 20
441.6854888420858
 30
0.0
 10
472.5517880623374
 20
441.6854888420858
 30
0.0
 10
472.6190880606373
 20
442.9765888094698
 30
0.0
 10
472.4726880643357
 20
443.773388789341
 30
0.0
 10
472.1151880733669
 20
444.6806887664206
 30
0.0
 10
472.1151880733669
 20
444.6806887664206
 30
0.0
 10
470.0448881256671
 20
444.6806887664206
 30
0.0
 10
470.0448881256671
 20
444.6806887664206
 30
0.0
 10
470.0448881256671
 20
444.6806887664206
 30
0.0
 10
470.0448881256671
 20
444.6806887664206
 30
0.0
 10
470.0448881256671
 20
444.6806887664206
 30
0.0
  0
POLYLINE
  5
CB
330
14
100
AcDbEntity
  8
Layer 1
370
     0
100
AcDb2dPolyline
 66
     1
 10
0.0
 20
0.0
 30
0.0
  0
VERTEX
  5
CC
330
CB
100
AcDbEntity
  8
Layer 1
370
     0
100
AcDbVertex
100
AcDb2dVertex
 10
468.7167881592177
 20
444.6806887664206
 30
0.0
  0
VERTEX
  5
CD
330
CB
100
AcDbEntity
  8
Layer 1
370
     0
100
AcDbVertex
100
AcDb2dVertex
 10
468.7167881592177
 20
442.2484888278632
 30
0.0
  0
VERTEX
  5
CE
330
CB
100
AcDbEntity
  8
Layer 1
370
     0
100
AcDbVertex
100
AcDb2dVertex
 10
469.6366881359791
 20
441.7792888397162
 30
0.0
  0
VERTEX
  5
CF
330
CB
100
AcDbEntity
  8
Layer 1
370
     0
100
AcDbVertex
100
AcDb2dVertex
 10
469.6366881359791
 20
444.6806887664206
 30
0.0
  0
VERTEX
  5
D0
330
CB
100
AcDbEntity
  8
Layer 1
370
     0
100
AcDbVertex
100
AcDb2dVertex
 10
468.7167881592177
 20
444.6806887664206
 30
0.0
  0
VERTEX
  5
D1
330
CB
100
AcDbEntity
  8
Layer 1
370
     0
100
AcDbVertex
100
AcDb2dVertex
 10
468.7167881592177
 20
444.6806887664206
 30
0.0
  0
SEQEND
  5
D2
330
CB
100
AcDbEntity
  8
Layer 1
370
     0
  0
POLYLINE
  5
D3
330
14
100
AcDbEntity
  8
Layer 1
370
     0
100
AcDb2dPolyline
 66
     1
 10
0.0
 20
0.0
 30
0.0
  0
VERTEX
  5
D4
330
D3
100
AcDbEntity
  8
Layer 1
370
     0
100
AcDbVertex
100
AcDb2dVertex
 10
473.1581880470185
 20
446.6645887163031
 30
0.0
  0
VERTEX
  5
D5
330
D3
100
AcDbEntity
  8
Layer 1
370
     0
100
AcDbVertex
100
AcDb2dVertex
 10
473.1581880470185
 20
445.0287887576269
 30
0.0
  0
VERTEX
  5
D6
330
D3
100
AcDbEntity
  8
Layer 1
370
     0
100
AcDbVertex
100
AcDb2dVertex
 10
475.5204879873418
 20
446.6420887168715
 30
0.0
  0
VERTEX
  5
D7
330
D3
100
AcDbEntity
  8
Layer 1
370
     0
100
AcDbVertex
100
AcDb2dVertex
 10
473.1581880470185
 20
446.6645887163031
 30
0.0
  0
VERTEX
  5
D8
330
D3
100
AcDbEntity
  8
Layer 1
370
     0
100
AcDbVertex
100
AcDb2dVertex
 10
473.1581880470185
 20
446.6645887163031
 30
0.0
  0
SEQEND
  5
D9
330
D3
100
AcDbEntity
  8
Layer 1
370
     0
  0
POLYLINE
  5
DA
330
14
100
AcDbEntity
  8
Layer 1
370
     0
100
AcDb2dPolyline
 66
     1
 10
0.0
 20
0.0
 30
0.0
  0
VERTEX
  5
DB
330
DA
100
AcDbEntity
  8
Layer 1
370
     0
100
AcDbVertex
100
AcDb2dVertex
 10
476.2929999999997
 20
444.826188762745
 30
0.0
  0
VERTEX
  5
DC
330
DA
100
AcDbEntity
  8
Layer 1
370
     0
100
AcDbVertex
100
AcDb2dVertex
 10
476.2929999999997
 20
446.5429999999997
 30
0.0
  0
VERTEX
  5
DD
330
DA
100
AcDbEntity
  8
Layer 1
370
     0
100
AcDbVertex
100
AcDb2dVertex
 10
473.730488032561
 20
444.7929999999997
 30
0.0
  0
VERTEX
  5
DE
330
DA
100
AcDbEntity
  8
Layer 1
370
     0
100
AcDbVertex
100
AcDb2dVertex
 10
476.2929999999997
 20
444.826188762745
 30
0.0
  0
VERTEX
  5
DF
330
DA
100
AcDbEntity
  8
Layer 1
370
     0
100
AcDbVertex
100
AcDb2dVertex
 10
476.2929999999997
 20
444.826188762745
 30
0.0
  0
SEQEND
  5
E0
330
DA
100
AcDbEntity
  8
Layer 1
370
     0
  0
POLYLINE
  5
E1
330
14
100
AcDbEntity
  8
Layer 1
370
     0
100
AcDb2dPolyline
 66
     1
 10
0.0
 20
0.0
 30
0.0
  0
VERTEX
  5
E2
330
E1
100
AcDbEntity
  8
Layer 1
370
     0
100
AcDbVertex
100
AcDb2dVertex
 10
476.7470879563552
 20
446.6312887171443
 30
0.0
  0
VERTEX
  5
E3
330
E1
100
AcDbEntity
  8
Layer 1
370
     0
100
AcDbVertex
100
AcDb2dVertex
 10
476.7470879563552
 20
445.1195887553331
 30
0.0
  0
VERTEX
  5
E4
330
E1
100
AcDbEntity
  8
Layer 1
370
     0
100
AcDbVertex
100
AcDb2dVertex
 10
478.9315879011701
 20
446.6103887176723
 30
0.0
  0
VERTEX
  5
E5
330
E1
100
AcDbEntity
  8
Layer 1
370
     0
100
AcDbVertex
100
AcDb2dVertex
 10
476.7470879563552
 20
446.6312887171443
 30
0.0
  0
VERTEX
  5
E6
330
E1
100
AcDbEntity
  8
Layer 1
370
     0
100
AcDbVertex
100
AcDb2dVertex
 10
476.7470879563552
 20
446.6312887171443
 30
0.0
  0
SEQEND
  5
E7
330
E1
100
AcDbEntity
  8
Layer 1
370
     0
  0
POLYLINE
  5
E8
330
14
100
AcDbEntity
  8
Layer 1
370
     0
100
AcDb2dPolyline
 66
     1
 10
0.0
 20
0.0
 30
0.0
  0
VERTEX
  5
E9
330
E8
100
AcDbEntity
  8
Layer 1
370
     0
100
AcDbVertex
100
AcDb2dVertex
 10
479.5409999999993
 20
444.8686887616714
 30
0.0
  0
VERTEX
  5
EA
330
E8
100
AcDbEntity
  8
Layer 1
370
     0
100
AcDbVertex
100
AcDb2dVertex
 10
479.5409999999993
 20
446.4955887205724
 30
0.0
  0
VERTEX
  5
EB
330
E8
100
AcDbEntity
  8
Layer 1
370
     0
100
AcDbVertex
100
AcDb2dVertex
 10
477.1112879471548
 20
444.8363887624873
 30
0.0
  0
VERTEX
  5
EC
330
E8
100
AcDbEntity
  8
Layer 1
370
     0
100
AcDbVertex
100
AcDb2dVertex
 10
479.5409999999993
 20
444.8686887616714
 30
0.0
  0
VERTEX
  5
ED
330
E8
100
AcDbEntity
  8
Layer 1
370
     0
100
AcDbVertex
100
AcDb2dVertex
 10
479.5409999999993
 20
444.8686887616714
 30
0.0
  0
SEQEND
  5
EE
330
E8
100
AcDbEntity
  8
Layer 1
370
     0
  0
POLYLINE
  5
EF
330
14
100
AcDbEntity
  8
Layer 1
370
     0
100
AcDb2dPolyline
 66
     1
 10
0.0
 20
0.0
 30
0.0
  0
VERTEX
  5
F0
330
EF
100
AcDbEntity
  8
Layer 1
370
     0
100
AcDbVertex
100
AcDb2dVertex
 10
472.4765880642371
 20
445.7665887389885
 30
0.0
  0
VERTEX
  5
F1
330
EF
100
AcDbEntity
  8
Layer 1
370
     0
100
AcDbVertex
100
AcDb2dVertex
 10
472.4335880653234
 20
446.670888716144
 30
0.0
  0
VERTEX
  5
F2
330
EF
100
AcDbEntity
  8
Layer 1
370
     0
100
AcDbVertex
100
AcDb2dVertex
 10
469.7421881333139
 20
446.6957887155149
 30
0.0
  0
VERTEX
  5
F3
330
EF
100
AcDbEntity
  8
Layer 1
370
     0
100
AcDbVertex
100
AcDb2dVertex
 10
469.6806881348675
 20
445.8627887365583
 30
0.0
  0
VERTEX
  5
F4
330
EF
100
AcDbEntity
  8
Layer 1
370
     0
100
AcDbVertex
100
AcDb2dVertex
 10
472.2733880693704
 20
445.8627887365583
 30
0.0
  0
VERTEX
  5
F5
330
EF
100
AcDbEntity
  8
Layer 1
370
     0
100
AcDbVertex
100
AcDb2dVertex
 10
472.4296880654219
 20
445.8627887365583
 30
0.0
  0
VERTEX
  5
F6
330
EF
100
AcDbEntity
  8
Layer 1
370
     0
100
AcDbVertex
100
AcDb2dVertex
 10
472.4765880642371
 20
445.7665887389885
 30
0.0
  0
VERTEX
  5
F7
330
EF
100
AcDbEntity
  8
Layer 1
370
     0
100
AcDbVertex
100
AcDb2dVertex
 10
472.4765880642371
 20
445.7665887389885
 30
0.0
  0
SEQEND
  5
F8
330
EF
100
AcDbEntity
  8
Layer 1
370
     0
  0
SPLINE
  5
F9
330
14
100
AcDbEntity
  8
Layer 1
370
     0
100
AcDbSpline
210
0.0
220
0.0
230
1.0
 70
    11
 71
     3
 72
    32
 73
    28
 74
     0
 42
0.000000001
 43
0.0000000001
 40
0.0
 40
0.0
 40
0.0
 40
0.0
 40
1.0
 40
1.0
 40
1.0
 40
2.0
 40
2.0
 40
2.0
 40
3.0
 40
3.0
 40
3.0
 40
4.0
 40
4.0
 40
4.0
 40
5.0
 40
5.0
 40
5.0
 40
6.0
 40
6.0
 40
6.0
 40
7.0
 40
7.0
 40
7.0
 40
8.0
 40
8.0
 40
8.0
 40
9.0
 40
9.0
 40
9.0
 40
9.0
 10
474.7714880062631
 20
433.9101890385064
 30
0.0
 10
474.5663880114444
 20
434.1146890333403
 30
0.0
 10
474.2851880185481
 20
434.2406890301572
 30
0.0
 10
473.9726880264425
 20
434.2406890301572
 30
0.0
 10
473.6601880343369
 20
434.2406890301572
 30
0.0
 10
473.3770000000004
 20
434.1146890333403
 30
0.0
 10
473.1737880466244
 20
433.9101890385064
 30
0.0
 10
472.9687880518031
 20
433.705589043675
 30
0.0
 10
472.8417880550114
 20
433.4228890508166
 30
0.0
 10
472.8417880550114
 20
433.110389058711
 30
0.0
 10
472.8417880550114
 20
432.7982890665953
 30
0.0
 10
472.9687880518031
 20
432.5155890737369
 30
0.0
 10
473.1737880466244
 20
432.3114890788929
 30
0.0
 10
473.3770000000004
 20
432.1068890840615
 30
0.0
 10
473.6601880343369
 20
431.9804890872547
 30
0.0
 10
473.9726880264425
 20
431.9804890872547
 30
0.0
 10
474.2851880185481
 20
431.9804890872547
 30
0.0
 10
474.5663880114444
 20
432.1068890840615
 30
0.0
 10
474.7714880062631
 20
432.3114890788929
 30
0.0
 10
474.9765880010818
 20
432.5155890737369
 30
0.0
 10
475.1024879979013
 20
432.7982890665953
 30
0.0
 10
475.1024879979013
 20
433.110389058711
 30
0.0
 10
475.1024879979013
 20
433.4228890508166
 30
0.0
 10
474.9765880010818
 20
433.705589043675
 30
0.0
 10
474.7714880062631
 20
433.9101890385064
 30
0.0
 10
474.7714880062631
 20
433.9101890385064
 30
0.0
 10
474.7714880062631
 20
433.9101890385064
 30
0.0
 10
474.7714880062631
 20
433.9101890385064
 30
0.0
  0
SPLINE
  5
FA
330
14
100
AcDbEntity
  8
Layer 1
370
     0
100
AcDbSpline
210
0.0
220
0.0
230
1.0
 70
    11
 71
     3
 72
    20
 73
    16
 74
     0
 42
0.000000001
 43
0.0000000001
 40
0.0
 40
0.0
 40
0.0
 40
0.0
 40
1.0
 40
1.0
 40
1.0
 40
2.0
 40
2.0
 40
2.0
 40
3.0
 40
3.0
 40
3.0
 40
4.0
 40
4.0
 40
4.0
 40
5.0
 40
5.0
 40
5.0
 40
5.0
 10
473.4472880397152
 20
433.8246890406663
 30
0.0
 10
473.392588041097
 20
433.8788890392971
 30
0.0
 10
473.3085880432191
 20
433.8788890392971
 30
0.0
 10
473.2538880446009
 20
433.8246890406663
 30
0.0
 10
473.2011880459322
 20
433.7719999999999
 30
0.0
 10
473.2011880459322
 20
433.6859999999997
 30
0.0
 10
473.2538880446009
 20
433.6332890455014
 30
0.0
 10
473.3085880432191
 20
433.5800890468454
 30
0.0
 10
473.392588041097
 20
433.5800890468454
 30
0.0
 10
473.4472880397152
 20
433.6332890455014
 30
0.0
 10
473.5
 20
433.6859999999997
 30
0.0
 10
473.5
 20
433.7719999999999
 30
0.0
 10
473.4472880397152
 20
433.8246890406663
 30
0.0
 10
473.4472880397152
 20
433.8246890406663
 30
0.0
 10
473.4472880397152
 20
433.8246890406663
 30
0.0
 10
473.4472880397152
 20
433.8246890406663
 30
0.0
  0
SPLINE
  5
FB
330
14
100
AcDbEntity
  8
Layer 1
370
     0
100
AcDbSpline
210
0.0
220
0.0
230
1.0
 70
    11
 71
     3
 72
    20
 73
    16
 74
     0
 42
0.000000001
 43
0.0000000001
 40
0.0
 40
0.0
 40
0.0
 40
0.0
 40
1.0
 40
1.0
 40
1.0
 40
2.0
 40
2.0
 40
2.0
 40
3.0
 40
3.0
 40
3.0
 40
4.0
 40
4.0
 40
4.0
 40
5.0
 40
5.0
 40
5.0
 40
5.0
 10
474.1054880230877
 20
433.987789036546
 30
0.0
 10
474.1054880230877
 20
434.0630000000001
 30
0.0
 10
474.0448880246186
 20
434.1239999999998
 30
0.0
 10
473.970688026493
 20
434.1239999999998
 30
0.0
 10
473.894488028418
 20
434.1239999999998
 30
0.0
 10
473.8340000000007
 20
434.0630000000001
 30
0.0
 10
473.8340000000007
 20
433.987789036546
 30
0.0
 10
473.8340000000007
 20
433.9130890384331
 30
0.0
 10
473.894488028418
 20
433.8515890399867
 30
0.0
 10
473.970688026493
 20
433.8515890399867
 30
0.0
 10
474.0448880246186
 20
433.8515890399867
 30
0.0
 10
474.1054880230877
 20
433.9130890384331
 30
0.0
 10
474.1054880230877
 20
433.987789036546
 30
0.0
 10
474.1054880230877
 20
433.987789036546
 30
0.0
 10
474.1054880230877
 20
433.987789036546
 30
0.0
 10
474.1054880230877
 20
433.987789036546
 30
0.0
  0
SPLINE
  5
FC
330
14
100
AcDbEntity
  8
Layer 1
370
     0
100
AcDbSpline
210
0.0
220
0.0
230
1.0
 70
    11
 71
     3
 72
    20
 73
    16
 74
     0
 42
0.000000001
 43
0.0000000001
 40
0.0
 40
0.0
 40
0.0
 40
0.0
 40
1.0
 40
1.0
 40
1.0
 40
2.0
 40
2.0
 40
2.0
 40
3.0
 40
3.0
 40
3.0
 40
4.0
 40
4.0
 40
4.0
 40
5.0
 40
5.0
 40
5.0
 40
5.0
 10
474.6874880083851
 20
433.6366890454156
 30
0.0
 10
474.7401880070538
 20
433.6894890440817
 30
0.0
 10
474.7401880070538
 20
433.7758890418991
 30
0.0
 10
474.6874880083851
 20
433.8285890405677
 30
0.0
 10
474.6337880097417
 20
433.8812890392364
 30
0.0
 10
474.548788011889
 20
433.8812890392364
 30
0.0
 10
474.4940880132708
 20
433.8285890405677
 30
0.0
 10
474.4413880146021
 20
433.7758890418991
 30
0.0
 10
474.4413880146021
 20
433.6894890440817
 30
0.0
 10
474.4940880132708
 20
433.6366890454156
 30
0.0
 10
474.548788011889
 20
433.5839999999998
 30
0.0
 10
474.6337880097417
 20
433.5839999999998
 30
0.0
 10
474.6874880083851
 20
433.6366890454156
 30
0.0
 10
474.6874880083851
 20
433.6366890454156
 30
0.0
 10
474.6874880083851
 20
433.6366890454156
 30
0.0
 10
474.6874880083851
 20
433.6366890454156
 30
0.0
  0
SPLINE
  5
FD
330
14
100
AcDbEntity
  8
Layer 1
370
     0
100
AcDbSpline
210
0.0
220
0.0
230
1.0
 70
    11
 71
     3
 72
    20
 73
    16
 74
     0
 42
0.000000001
 43
0.0000000001
 40
0.0
 40
0.0
 40
0.0
 40
0.0
 40
1.0
 40
1.0
 40
1.0
 40
2.0
 40
2.0
 40
2.0
 40
3.0
 40
3.0
 40
3.0
 40
4.0
 40
4.0
 40
4.0
 40
5.0
 40
5.0
 40
5.0
 40
5.0
 10
474.8495880042901
 20
432.9770890620784
 30
0.0
 10
474.9247880023904
 20
432.9770890620784
 30
0.0
 10
474.9853880008595
 20
433.0380890605375
 30
0.0
 10
474.9853880008595
 20
433.1132890586377
 30
0.0
 10
474.9853880008595
 20
433.188489056738
 30
0.0
 10
474.9247880023904
 20
433.249489055197
 30
0.0
 10
474.8495880042901
 20
433.249489055197
 30
0.0
 10
474.7743880061898
 20
433.249489055197
 30
0.0
 10
474.7138880077182
 20
433.188489056738
 30
0.0
 10
474.7138880077182
 20
433.1132890586377
 30
0.0
 10
474.7138880077182
 20
433.0380890605375
 30
0.0
 10
474.7743880061898
 20
432.9770890620784
 30
0.0
 10
474.8495880042901
 20
432.9770890620784
 30
0.0
 10
474.8495880042901
 20
432.9770890620784
 30
0.0
 10
474.8495880042901
 20
432.9770890620784
 30
0.0
 10
474.8495880042901
 20
432.9770890620784
 30
0.0
  0
SPLINE
  5
FE
330
14
100
AcDbEntity
  8
Layer 1
370
     0
100
AcDbSpline
210
0.0
220
0.0
230
1.0
 70
    11
 71
     3
 72
    20
 73
    16
 74
     0
 42
0.000000001
 43
0.0000000001
 40
0.0
 40
0.0
 40
0.0
 40
0.0
 40
1.0
 40
1.0
 40
1.0
 40
2.0
 40
2.0
 40
2.0
 40
3.0
 40
3.0
 40
3.0
 40
4.0
 40
4.0
 40
4.0
 40
5.0
 40
5.0
 40
5.0
 40
5.0
 10
474.4979999999996
 20
432.3959999999997
 30
0.0
 10
474.4452880145036
 20
432.448689075427
 30
0.0
 10
474.4452880145036
 20
432.5351890732418
 30
0.0
 10
474.4979999999996
 20
432.5878890719105
 30
0.0
 10
474.5507880118384
 20
432.6415890705539
 30
0.0
 10
474.6376880096432
 20
432.6415890705539
 30
0.0
 10
474.6903880083119
 20
432.5878890719105
 30
0.0
 10
474.7440880069553
 20
432.5351890732418
 30
0.0
 10
474.743188006978
 20
432.448689075427
 30
0.0
 10
474.6903880083119
 20
432.3959999999997
 30
0.0
 10
474.6376880096432
 20
432.3432890780896
 30
0.0
 10
474.5507880118384
 20
432.3432890780896
 30
0.0
 10
474.4979999999996
 20
432.3959999999997
 30
0.0
 10
474.4979999999996
 20
432.3959999999997
 30
0.0
 10
474.4979999999996
 20
432.3959999999997
 30
0.0
 10
474.4979999999996
 20
432.3959999999997
 30
0.0
  0
SPLINE
  5
FF
330
14
100
AcDbEntity
  8
Layer 1
370
     0
100
AcDbSpline
210
0.0
220
0.0
230
1.0
 70
    11
 71
     3
 72
    20
 73
    16
 74
     0
 42
0.000000001
 43
0.0000000001
 40
0.0
 40
0.0
 40
0.0
 40
0.0
 40
1.0
 40
1.0
 40
1.0
 40
2.0
 40
2.0
 40
2.0
 40
3.0
 40
3.0
 40
3.0
 40
4.0
 40
4.0
 40
4.0
 40
5.0
 40
5.0
 40
5.0
 40
5.0
 10
473.8397880297998
 20
432.2338890808533
 30
0.0
 10
473.8397880297998
 20
432.3080890789788
 30
0.0
 10
473.9003880282689
 20
432.3690890774378
 30
0.0
 10
473.9745880263945
 20
432.3690890774378
 30
0.0
 10
474.0507880244695
 20
432.3690890774378
 30
0.0
 10
474.1112880229412
 20
432.3080890789788
 30
0.0
 10
474.1112880229412
 20
432.2338890808533
 30
0.0
 10
474.1112880229412
 20
432.158689082753
 30
0.0
 10
474.0507880244695
 20
432.0980890842839
 30
0.0
 10
473.9745880263945
 20
432.0980890842839
 30
0.0
 10
473.9003880282689
 20
432.0980890842839
 30
0.0
 10
473.8397880297998
 20
432.158689082753
 30
0.0
 10
473.8397880297998
 20
432.2338890808533
 30
0.0
 10
473.8397880297998
 20
432.2338890808533
 30
0.0
 10
473.8397880297998
 20
432.2338890808533
 30
0.0
 10
473.8397880297998
 20
432.2338890808533
 30
0.0
  0
SPLINE
  5
100
330
14
100
AcDbEntity
  8
Layer 1
370
     0
100
AcDbSpline
210
0.0
220
0.0
230
1.0
 70
    11
 71
     3
 72
    20
 73
    16
 74
     0
 42
0.000000001
 43
0.0000000001
 40
0.0
 40
0.0
 40
0.0
 40
0.0
 40
1.0
 40
1.0
 40
1.0
 40
2.0
 40
2.0
 40
2.0
 40
3.0
 40
3.0
 40
3.0
 40
4.0
 40
4.0
 40
4.0
 40
5.0
 40
5.0
 40
5.0
 40
5.0
 10
473.2577880445024
 20
432.5853890719736
 30
0.0
 10
473.3104880431711
 20
432.6381890706398
 30
0.0
 10
473.3964880409985
 20
432.6381890706398
 30
0.0
 10
473.4501880396419
 20
432.5853890719736
 30
0.0
 10
473.5038880382854
 20
432.5316890733302
 30
0.0
 10
473.5038880382854
 20
432.4462890754876
 30
0.0
 10
473.4501880396419
 20
432.3925890768442
 30
0.0
 10
473.3964880409985
 20
432.339789078178
 30
0.0
 10
473.3104880431711
 20
432.339789078178
 30
0.0
 10
473.2577880445024
 20
432.3925890768442
 30
0.0
 10
473.2050880458337
 20
432.4462890754876
 30
0.0
 10
473.2050880458337
 20
432.5316890733302
 30
0.0
 10
473.2577880445024
 20
432.5853890719736
 30
0.0
 10
473.2577880445024
 20
432.5853890719736
 30
0.0
 10
473.2577880445024
 20
432.5853890719736
 30
0.0
 10
473.2577880445024
 20
432.5853890719736
 30
0.0
  0
SPLINE
  5
101
330
14
100
AcDbEntity
  8
Layer 1
370
     0
100
AcDbSpline
210
0.0
220
0.0
230
1.0
 70
    11
 71
     3
 72
    20
 73
    16
 74
     0
 42
0.000000001
 43
0.0000000001
 40
0.0
 40
0.0
 40
0.0
 40
0.0
 40
1.0
 40
1.0
 40
1.0
 40
2.0
 40
2.0
 40
2.0
 40
3.0
 40
3.0
 40
3.0
 40
4.0
 40
4.0
 40
4.0
 40
5.0
 40
5.0
 40
5.0
 40
5.0
 10
473.0956880485974
 20
433.2436890553436
 30
0.0
 10
473.0214880504718
 20
433.2436890553436
 30
0.0
 10
472.9599999999991
 20
433.1835890568618
 30
0.0
 10
472.9599999999991
 20
433.1083890587615
 30
0.0
 10
472.9599999999991
 20
433.0336890606486
 30
0.0
 10
473.0214880504718
 20
432.9726890621896
 30
0.0
 10
473.0956880485974
 20
432.9726890621896
 30
0.0
 10
473.1698880467229
 20
432.9726890621896
 30
0.0
 10
473.230488045192
 20
433.0336890606486
 30
0.0
 10
473.230488045192
 20
433.1083890587615
 30
0.0
 10
473.230488045192
 20
433.1835890568618
 30
0.0
 10
473.1698880467229
 20
433.2436890553436
 30
0.0
 10
473.0956880485974
 20
433.2436890553436
 30
0.0
 10
473.0956880485974
 20
433.2436890553436
 30
0.0
 10
473.0956880485974
 20
433.2436890553436
 30
0.0
 10
473.0956880485974
 20
433.2436890553436
 30
0.0
  0
SPLINE
  5
102
330
14
100
AcDbEntity
  8
Layer 1
370
     0
100
AcDbSpline
210
0.0
220
0.0
230
1.0
 70
    11
 71
     3
 72
    20
 73
    16
 74
     0
 42
0.000000001
 43
0.0000000001
 40
0.0
 40
0.0
 40
0.0
 40
0.0
 40
1.0
 40
1.0
 40
1.0
 40
2.0
 40
2.0
 40
2.0
 40
3.0
 40
3.0
 40
3.0
 40
4.0
 40
4.0
 40
4.0
 40
5.0
 40
5.0
 40
5.0
 40
5.0
 10
467.3729999999996
 20
433.987789036546
 30
0.0
 10
467.3729999999996
 20
434.0630000000001
 30
0.0
 10
467.3124881946933
 20
434.1239999999998
 30
0.0
 10
467.2382881965677
 20
434.1239999999998
 30
0.0
 10
467.1640881984422
 20
434.1239999999998
 30
0.0
 10
467.1024881999983
 20
434.0630000000001
 30
0.0
 10
467.1024881999983
 20
433.987789036546
 30
0.0
 10
467.1024881999983
 20
433.9130890384331
 30
0.0
 10
467.1640881984422
 20
433.8515890399867
 30
0.0
 10
467.2382881965677
 20
433.8515890399867
 30
0.0
 10
467.3124881946933
 20
433.8515890399867
 30
0.0
 10
467.3729999999996
 20
433.9130890384331
 30
0.0
 10
467.3729999999996
 20
433.987789036546
 30
0.0
 10
467.3729999999996
 20
433.987789036546
 30
0.0
 10
467.3729999999996
 20
433.987789036546
 30
0.0
 10
467.3729999999996
 20
433.987789036546
 30
0.0
  0
SPLINE
  5
103
330
14
100
AcDbEntity
  8
Layer 1
370
     0
100
AcDbSpline
210
0.0
220
0.0
230
1.0
 70
    11
 71
     3
 72
    20
 73
    16
 74
     0
 42
0.000000001
 43
0.0000000001
 40
0.0
 40
0.0
 40
0.0
 40
0.0
 40
1.0
 40
1.0
 40
1.0
 40
2.0
 40
2.0
 40
2.0
 40
3.0
 40
3.0
 40
3.0
 40
4.0
 40
4.0
 40
4.0
 40
5.0
 40
5.0
 40
5.0
 40
5.0
 10
467.9550881784598
 20
433.6366890454156
 30
0.0
 10
468.0087881771033
 20
433.6894890440817
 30
0.0
 10
468.0087881771033
 20
433.7758890418991
 30
0.0
 10
467.9550881784598
 20
433.8285890405677
 30
0.0
 10
467.9022881797937
 20
433.8812890392364
 30
0.0
 10
467.8163881819637
 20
433.8812890392364
 30
0.0
 10
467.763688183295
 20
433.8285890405677
 30
0.0
 10
467.7099999999991
 20
433.7758890418991
 30
0.0
 10
467.7099999999991
 20
433.6894890440817
 30
0.0
 10
467.763688183295
 20
433.6366890454156
 30
0.0
 10
467.8163881819637
 20
433.5839999999998
 30
0.0
 10
467.9022881797937
 20
433.5839999999998
 30
0.0
 10
467.9550881784598
 20
433.6366890454156
 30
0.0
 10
467.9550881784598
 20
433.6366890454156
 30
0.0
 10
467.9550881784598
 20
433.6366890454156
 30
0.0
 10
467.9550881784598
 20
433.6366890454156
 30
0.0
  0
SPLINE
  5
104
330
14
100
AcDbEntity
  8
Layer 1
370
     0
100
AcDbSpline
210
0.0
220
0.0
230
1.0
 70
    11
 71
     3
 72
    20
 73
    16
 74
     0
 42
0.000000001
 43
0.0000000001
 40
0.0
 40
0.0
 40
0.0
 40
0.0
 40
1.0
 40
1.0
 40
1.0
 40
2.0
 40
2.0
 40
2.0
 40
3.0
 40
3.0
 40
3.0
 40
4.0
 40
4.0
 40
4.0
 40
5.0
 40
5.0
 40
5.0
 40
5.0
 10
468.1171881743649
 20
432.9770890620784
 30
0.0
 10
468.1933881724399
 20
432.9770890620784
 30
0.0
 10
468.2528881709368
 20
433.0380890605375
 30
0.0
 10
468.2528881709368
 20
433.1132890586377
 30
0.0
 10
468.2528881709368
 20
433.188489056738
 30
0.0
 10
468.1933881724399
 20
433.249489055197
 30
0.0
 10
468.1171881743649
 20
433.249489055197
 30
0.0
 10
468.0429999999997
 20
433.249489055197
 30
0.0
 10
467.9813881777955
 20
433.188489056738
 30
0.0
 10
467.9813881777955
 20
433.1132890586377
 30
0.0
 10
467.9813881777955
 20
433.0380890605375
 30
0.0
 10
468.0429999999997
 20
432.9770890620784
 30
0.0
 10
468.1171881743649
 20
432.9770890620784
 30
0.0
 10
468.1171881743649
 20
432.9770890620784
 30
0.0
 10
468.1171881743649
 20
432.9770890620784
 30
0.0
 10
468.1171881743649
 20
432.9770890620784
 30
0.0
  0
SPLINE
  5
105
330
14
100
AcDbEntity
  8
Layer 1
370
     0
100
AcDbSpline
210
0.0
220
0.0
230
1.0
 70
    11
 71
     3
 72
    20
 73
    16
 74
     0
 42
0.000000001
 43
0.0000000001
 40
0.0
 40
0.0
 40
0.0
 40
0.0
 40
1.0
 40
1.0
 40
1.0
 40
2.0
 40
2.0
 40
2.0
 40
3.0
 40
3.0
 40
3.0
 40
4.0
 40
4.0
 40
4.0
 40
5.0
 40
5.0
 40
5.0
 40
5.0
 10
467.7665881832218
 20
432.3959999999997
 30
0.0
 10
467.7138881845531
 20
432.448689075427
 30
0.0
 10
467.7138881845531
 20
432.5351890732418
 30
0.0
 10
467.7665881832218
 20
432.5878890719105
 30
0.0
 10
467.8192881818904
 20
432.6415890705539
 30
0.0
 10
467.9052881797179
 20
432.6415890705539
 30
0.0
 10
467.9590000000007
 20
432.5878890719105
 30
0.0
 10
468.01168817703
 20
432.5351890732418
 30
0.0
 10
468.01168817703
 20
432.448689075427
 30
0.0
 10
467.9590000000007
 20
432.3959999999997
 30
0.0
 10
467.9052881797179
 20
432.3432890780896
 30
0.0
 10
467.8192881818904
 20
432.3432890780896
 30
0.0
 10
467.7665881832218
 20
432.3959999999997
 30
0.0
 10
467.7665881832218
 20
432.3959999999997
 30
0.0
 10
467.7665881832218
 20
432.3959999999997
 30
0.0
 10
467.7665881832218
 20
432.3959999999997
 30
0.0
  0
SPLINE
  5
106
330
14
100
AcDbEntity
  8
Layer 1
370
     0
100
AcDbSpline
210
0.0
220
0.0
230
1.0
 70
    11
 71
     3
 72
    20
 73
    16
 74
     0
 42
0.000000001
 43
0.0000000001
 40
0.0
 40
0.0
 40
0.0
 40
0.0
 40
1.0
 40
1.0
 40
1.0
 40
2.0
 40
2.0
 40
2.0
 40
3.0
 40
3.0
 40
3.0
 40
4.0
 40
4.0
 40
4.0
 40
5.0
 40
5.0
 40
5.0
 40
5.0
 10
467.1073881998745
 20
432.2338890808533
 30
0.0
 10
467.1073881998745
 20
432.3080890789788
 30
0.0
 10
467.1679999999997
 20
432.3690890774378
 30
0.0
 10
467.243188196444
 20
432.3690890774378
 30
0.0
 10
467.3183881945442
 20
432.3690890774378
 30
0.0
 10
467.3788881930159
 20
432.3080890789788
 30
0.0
 10
467.3788881930159
 20
432.2338890808533
 30
0.0
 10
467.3788881930159
 20
432.158689082753
 30
0.0
 10
467.3183881945442
 20
432.0980890842839
 30
0.0
 10
467.243188196444
 20
432.0980890842839
 30
0.0
 10
467.1679999999997
 20
432.0980890842839
 30
0.0
 10
467.1073881998745
 20
432.158689082753
 30
0.0
 10
467.1073881998745
 20
432.2338890808533
 30
0.0
 10
467.1073881998745
 20
432.2338890808533
 30
0.0
 10
467.1073881998745
 20
432.2338890808533
 30
0.0
 10
467.1073881998745
 20
432.2338890808533
 30
0.0
  0
SPLINE
  5
107
330
14
100
AcDbEntity
  8
Layer 1
370
     0
100
AcDbSpline
210
0.0
220
0.0
230
1.0
 70
    11
 71
     3
 72
    32
 73
    28
 74
     0
 42
0.000000001
 43
0.0000000001
 40
0.0
 40
0.0
 40
0.0
 40
0.0
 40
1.0
 40
1.0
 40
1.0
 40
2.0
 40
2.0
 40
2.0
 40
3.0
 40
3.0
 40
3.0
 40
4.0
 40
4.0
 40
4.0
 40
5.0
 40
5.0
 40
5.0
 40
6.0
 40
6.0
 40
6.0
 40
7.0
 40
7.0
 40
7.0
 40
8.0
 40
8.0
 40
8.0
 40
9.0
 40
9.0
 40
9.0
 40
9.0
 10
473.9726880264425
 20
435.8559999999998
 30
0.0
 10
473.2147880455886
 20
435.8559999999998
 30
0.0
 10
472.5282880629311
 20
435.5487889971118
 30
0.0
 10
472.0312880754864
 20
435.0512890096797
 30
0.0
 10
471.5351880880189
 20
434.5546890222249
 30
0.0
 10
471.2274880957921
 20
433.8681890395674
 30
0.0
 10
471.2274880957921
 20
433.110389058711
 30
0.0
 10
471.2274880957921
 20
432.3524890778572
 30
0.0
 10
471.5351880880189
 20
431.6660000000002
 30
0.0
 10
472.0312880754864
 20
431.1693891077448
 30
0.0
 10
472.5282880629311
 20
430.6728891202874
 30
0.0
 10
473.2147880455886
 20
430.3651891280606
 30
0.0
 10
473.9726880264425
 20
430.3651891280606
 30
0.0
 10
474.7304880072988
 20
430.3651891280606
 30
0.0
 10
475.4159999999993
 20
430.6728891202874
 30
0.0
 10
475.9140879773986
 20
431.1693891077448
 30
0.0
 10
476.4110879648433
 20
431.6660000000002
 30
0.0
 10
476.7167879571207
 20
432.3524890778572
 30
0.0
 10
476.7167879571207
 20
433.110389058711
 30
0.0
 10
476.7167879571207
 20
433.8681890395674
 30
0.0
 10
476.4110879648433
 20
434.5546890222249
 30
0.0
 10
475.9140879773986
 20
435.0512890096797
 30
0.0
 10
475.4159999999993
 20
435.5487889971118
 30
0.0
 10
474.7304880072988
 20
435.8559999999998
 30
0.0
 10
473.9726880264425
 20
435.8559999999998
 30
0.0
 10
473.9726880264425
 20
435.8559999999998
 30
0.0
 10
473.9726880264425
 20
435.8559999999998
 30
0.0
 10
473.9726880264425
 20
435.8559999999998
 30
0.0
  0
SPLINE
  5
108
330
14
100
AcDbEntity
  8
Layer 1
370
     0
100
AcDbSpline
210
0.0
220
0.0
230
1.0
 70
    11
 71
     3
 72
    20
 73
    16
 74
     0
 42
0.000000001
 43
0.0000000001
 40
0.0
 40
0.0
 40
0.0
 40
0.0
 40
1.0
 40
1.0
 40
1.0
 40
2.0
 40
2.0
 40
2.0
 40
3.0
 40
3.0
 40
3.0
 40
4.0
 40
4.0
 40
4.0
 40
5.0
 40
5.0
 40
5.0
 40
5.0
 10
466.7147882097925
 20
433.8246890406663
 30
0.0
 10
466.6620882111238
 20
433.8788890392971
 30
0.0
 10
466.5761882132938
 20
433.8788890392971
 30
0.0
 10
466.5224882146504
 20
433.8246890406663
 30
0.0
 10
466.4687882160069
 20
433.7719999999999
 30
0.0
 10
466.4687882160069
 20
433.6859999999997
 30
0.0
 10
466.5224882146504
 20
433.6332890455014
 30
0.0
 10
466.5761882132938
 20
433.5800890468454
 30
0.0
 10
466.6620882111238
 20
433.5800890468454
 30
0.0
 10
466.7147882097925
 20
433.6332890455014
 30
0.0
 10
466.7675882084586
 20
433.6859999999997
 30
0.0
 10
466.7675882084586
 20
433.7719999999999
 30
0.0
 10
466.7147882097925
 20
433.8246890406663
 30
0.0
 10
466.7147882097925
 20
433.8246890406663
 30
0.0
 10
466.7147882097925
 20
433.8246890406663
 30
0.0
 10
466.7147882097925
 20
433.8246890406663
 30
0.0
  0
SPLINE
  5
109
330
14
100
AcDbEntity
  8
Layer 1
370
     0
100
AcDbSpline
210
0.0
220
0.0
230
1.0
 70
    11
 71
     3
 72
    20
 73
    16
 74
     0
 42
0.000000001
 43
0.0000000001
 40
0.0
 40
0.0
 40
0.0
 40
0.0
 40
1.0
 40
1.0
 40
1.0
 40
2.0
 40
2.0
 40
2.0
 40
3.0
 40
3.0
 40
3.0
 40
4.0
 40
4.0
 40
4.0
 40
5.0
 40
5.0
 40
5.0
 40
5.0
 10
466.5253882145771
 20
432.5853890719736
 30
0.0
 10
466.5790882132205
 20
432.6381890706398
 30
0.0
 10
466.6650000000009
 20
432.6381890706398
 30
0.0
 10
466.7177882097167
 20
432.5853890719736
 30
0.0
 10
466.7714882083601
 20
432.5316890733302
 30
0.0
 10
466.7714882083601
 20
432.4462890754876
 30
0.0
 10
466.7177882097167
 20
432.3925890768442
 30
0.0
 10
466.6650000000009
 20
432.339789078178
 30
0.0
 10
466.5790882132205
 20
432.339789078178
 30
0.0
 10
466.5253882145771
 20
432.3925890768442
 30
0.0
 10
466.4726882159084
 20
432.4462890754876
 30
0.0
 10
466.4726882159084
 20
432.5316890733302
 30
0.0
 10
466.5253882145771
 20
432.5853890719736
 30
0.0
 10
466.5253882145771
 20
432.5853890719736
 30
0.0
 10
466.5253882145771
 20
432.5853890719736
 30
0.0
 10
466.5253882145771
 20
432.5853890719736
 30
0.0
  0
SPLINE
  5
10A
330
14
100
AcDbEntity
  8
Layer 1
370
     0
100
AcDbSpline
210
0.0
220
0.0
230
1.0
 70
    11
 71
     3
 72
    20
 73
    16
 74
     0
 42
0.000000001
 43
0.0000000001
 40
0.0
 40
0.0
 40
0.0
 40
0.0
 40
1.0
 40
1.0
 40
1.0
 40
2.0
 40
2.0
 40
2.0
 40
3.0
 40
3.0
 40
3.0
 40
4.0
 40
4.0
 40
4.0
 40
5.0
 40
5.0
 40
5.0
 40
5.0
 10
466.3632882186721
 20
433.2436890553436
 30
0.0
 10
466.2890882205465
 20
433.2436890553436
 30
0.0
 10
466.2274882221027
 20
433.1835890568618
 30
0.0
 10
466.2274882221027
 20
433.1083890587615
 30
0.0
 10
466.2274882221027
 20
433.0336890606486
 30
0.0
 10
466.2890882205465
 20
432.9726890621896
 30
0.0
 10
466.3632882186721
 20
432.9726890621896
 30
0.0
 10
466.4374882167976
 20
432.9726890621896
 30
0.0
 10
466.4989999999998
 20
433.0336890606486
 30
0.0
 10
466.4989999999998
 20
433.1083890587615
 30
0.0
 10
466.4989999999998
 20
433.1835890568618
 30
0.0
 10
466.4374882167976
 20
433.2436890553436
 30
0.0
 10
466.3632882186721
 20
433.2436890553436
 30
0.0
 10
466.3632882186721
 20
433.2436890553436
 30
0.0
 10
466.3632882186721
 20
433.2436890553436
 30
0.0
 10
466.3632882186721
 20
433.2436890553436
 30
0.0
  0
SPLINE
  5
10B
330
14
100
AcDbEntity
  8
Layer 1
370
     0
100
AcDbSpline
210
0.0
220
0.0
230
1.0
 70
    11
 71
     3
 72
    32
 73
    28
 74
     0
 42
0.000000001
 43
0.0000000001
 40
0.0
 40
0.0
 40
0.0
 40
0.0
 40
1.0
 40
1.0
 40
1.0
 40
2.0
 40
2.0
 40
2.0
 40
3.0
 40
3.0
 40
3.0
 40
4.0
 40
4.0
 40
4.0
 40
5.0
 40
5.0
 40
5.0
 40
6.0
 40
6.0
 40
6.0
 40
7.0
 40
7.0
 40
7.0
 40
8.0
 40
8.0
 40
8.0
 40
9.0
 40
9.0
 40
9.0
 40
9.0
 10
468.0400000000009
 20
433.9101890385064
 30
0.0
 10
467.8358881814711
 20
434.1146890333403
 30
0.0
 10
467.5526881886253
 20
434.2406890301572
 30
0.0
 10
467.2401881965197
 20
434.2406890301572
 30
0.0
 10
466.9276882044142
 20
434.2406890301572
 30
0.0
 10
466.6454882115431
 20
434.1146890333403
 30
0.0
 10
466.4413882166991
 20
433.9101890385064
 30
0.0
 10
466.2362882218804
 20
433.705589043675
 30
0.0
 10
466.1103882250609
 20
433.4228890508166
 30
0.0
 10
466.1103882250609
 20
433.110389058711
 30
0.0
 10
466.1103882250609
 20
432.7982890665953
 30
0.0
 10
466.2362882218804
 20
432.5155890737369
 30
0.0
 10
466.4413882166991
 20
432.3114890788929
 30
0.0
 10
466.6454882115431
 20
432.1068890840615
 30
0.0
 10
466.9276882044142
 20
431.9804890872547
 30
0.0
 10
467.2401881965197
 20
431.9804890872547
 30
0.0
 10
467.5526881886253
 20
431.9804890872547
 30
0.0
 10
467.8358881814711
 20
432.1068890840615
 30
0.0
 10
468.0400000000009
 20
432.3114890788929
 30
0.0
 10
468.2440881711591
 20
432.5155890737369
 30
0.0
 10
468.3710881679508
 20
432.7982890665953
 30
0.0
 10
468.3710881679508
 20
433.110389058711
 30
0.0
 10
468.3710881679508
 20
433.4228890508166
 30
0.0
 10
468.2440881711591
 20
433.705589043675
 30
0.0
 10
468.0400000000009
 20
433.9101890385064
 30
0.0
 10
468.0400000000009
 20
433.9101890385064
 30
0.0
 10
468.0400000000009
 20
433.9101890385064
 30
0.0
 10
468.0400000000009
 20
433.9101890385064
 30
0.0
  0
SPLINE
  5
10C
330
14
100
AcDbEntity
  8
Layer 1
370
     0
100
AcDbSpline
210
0.0
220
0.0
230
1.0
 70
    11
 71
     3
 72
    32
 73
    28
 74
     0
 42
0.000000001
 43
0.0000000001
 40
0.0
 40
0.0
 40
0.0
 40
0.0
 40
1.0
 40
1.0
 40
1.0
 40
2.0
 40
2.0
 40
2.0
 40
3.0
 40
3.0
 40
3.0
 40
4.0
 40
4.0
 40
4.0
 40
5.0
 40
5.0
 40
5.0
 40
6.0
 40
6.0
 40
6.0
 40
7.0
 40
7.0
 40
7.0
 40
8.0
 40
8.0
 40
8.0
 40
9.0
 40
9.0
 40
9.0
 40
9.0
 10
467.2401881965197
 20
435.8559999999998
 30
0.0
 10
466.4823882156634
 20
435.8559999999998
 30
0.0
 10
465.7958882330058
 20
435.5487889971118
 30
0.0
 10
465.2987882455636
 20
435.0512890096797
 30
0.0
 10
464.8026882580962
 20
434.5546890222249
 30
0.0
 10
464.4950882658668
 20
433.8681890395674
 30
0.0
 10
464.4950882658668
 20
433.110389058711
 30
0.0
 10
464.4950882658668
 20
432.3524890778572
 30
0.0
 10
464.8026882580962
 20
431.6660000000002
 30
0.0
 10
465.2987882455636
 20
431.1693891077448
 30
0.0
 10
465.7958882330058
 20
430.6728891202874
 30
0.0
 10
466.4823882156634
 20
430.3651891280606
 30
0.0
 10
467.2401881965197
 20
430.3651891280606
 30
0.0
 10
467.9979999999996
 20
430.3651891280606
 30
0.0
 10
468.6854881600084
 20
430.6728891202874
 30
0.0
 10
469.1815881474758
 20
431.1693891077448
 30
0.0
 10
469.678688134918
 20
431.6660000000002
 30
0.0
 10
469.9853881271702
 20
432.3524890778572
 30
0.0
 10
469.9853881271702
 20
433.110389058711
 30
0.0
 10
469.9853881271702
 20
433.8681890395674
 30
0.0
 10
469.678688134918
 20
434.5546890222249
 30
0.0
 10
469.1815881474758
 20
435.0512890096797
 30
0.0
 10
468.6854881600084
 20
435.5487889971118
 30
0.0
 10
467.9979999999996
 20
435.8559999999998
 30
0.0
 10
467.2401881965197
 20
435.8559999999998
 30
0.0
 10
467.2401881965197
 20
435.8559999999998
 30
0.0
 10
467.2401881965197
 20
435.8559999999998
 30
0.0
 10
467.2401881965197
 20
435.8559999999998
 30
0.0
  0
POLYLINE
  5
10D
330
14
100
AcDbEntity
  8
Layer 1
370
     0
100
AcDb2dPolyline
 66
     1
 10
0.0
 20
0.0
 30
0.0
  0
VERTEX
  5
10E
330
10D
100
AcDbEntity
  8
Layer 1
370
     0
100
AcDbVertex
100
AcDb2dVertex
 10
472.4022880661141
 20
447.3510886989607
 30
0.0
  0
VERTEX
  5
10F
330
10D
100
AcDbEntity
  8
Layer 1
370
     0
100
AcDbVertex
100
AcDb2dVertex
 10
472.3476880674934
 20
448.517088669505
 30
0.0
  0
VERTEX
  5
110
330
10D
100
AcDbEntity
  8
Layer 1
370
     0
100
AcDbVertex
100
AcDb2dVertex
 10
469.875
 20
448.517088669505
 30
0.0
  0
VERTEX
  5
111
330
10D
100
AcDbEntity
  8
Layer 1
370
     0
100
AcDbVertex
100
AcDb2dVertex
 10
469.7919999999995
 20
447.375
 30
0.0
  0
VERTEX
  5
112
330
10D
100
AcDbEntity
  8
Layer 1
370
     0
100
AcDbVertex
100
AcDb2dVertex
 10
472.4022880661141
 20
447.3510886989607
 30
0.0
  0
VERTEX
  5
113
330
10D
100
AcDbEntity
  8
Layer 1
370
     0
100
AcDbVertex
100
AcDb2dVertex
 10
472.4022880661141
 20
447.3510886989607
 30
0.0
  0
SEQEND
  5
114
330
10D
100
AcDbEntity
  8
Layer 1
370
     0
  0
POLYLINE
  5
115
330
14
100
AcDbEntity
  8
Layer 1
370
     0
100
AcDb2dPolyline
 66
     1
 10
0.0
 20
0.0
 30
0.0
  0
VERTEX
  5
116
330
115
100
AcDbEntity
  8
Layer 1
370
     0
100
AcDbVertex
100
AcDb2dVertex
 10
479.9940878743291
 20
446.6015887178946
 30
0.0
  0
VERTEX
  5
117
330
115
100
AcDbEntity
  8
Layer 1
370
     0
100
AcDbVertex
100
AcDb2dVertex
 10
479.9940878743291
 20
445.1195887553331
 30
0.0
  0
VERTEX
  5
118
330
115
100
AcDbEntity
  8
Layer 1
370
     0
100
AcDbVertex
100
AcDb2dVertex
 10
482.1347878202505
 20
446.5820000000003
 30
0.0
  0
VERTEX
  5
119
330
115
100
AcDbEntity
  8
Layer 1
370
     0
100
AcDbVertex
100
AcDb2dVertex
 10
479.9940878743291
 20
446.6015887178946
 30
0.0
  0
VERTEX
  5
11A
330
115
100
AcDbEntity
  8
Layer 1
370
     0
100
AcDbVertex
100
AcDb2dVertex
 10
479.9940878743291
 20
446.6015887178946
 30
0.0
  0
SEQEND
  5
11B
330
115
100
AcDbEntity
  8
Layer 1
370
     0
  0
ENDSEC
  0
SECTION
  2
OBJECTS
  0
DICTIONARY
  5
5
330
0
100
AcDbDictionary
281
     1
  3
ACAD_GROUP
350
21
  3
ACAD_LAYOUT
350
18
  3
ACAD_MATERIAL
350
7
  3
ACAD_MLEADERSTYLE
350
11F
  3
ACAD_MLINESTYLE
350
12
  3
ACAD_PLOTSETTINGS
350
22
  3
ACAD_PLOTSTYLENAME
350
4
  3
ACAD_SCALELIST
350
29
  3
ACAD_TABLESTYLE
350
11E
  3
ACAD_VISUALSTYLE
350
23
  3
AcDbVariableDictionary
350
11C
  0
DICTIONARY
  5
13F
330
1F
100
AcDbDictionary
280
     1
281
     1
  3
ACAD_XREC_ROUNDTRIP
360
140
  0
DICTIONARY
  5
21
102
{ACAD_REACTORS
330
5
102
}
330
5
100
AcDbDictionary
281
     1
  0
DICTIONARY
  5
18
102
{ACAD_REACTORS
330
5
102
}
330
5
100
AcDbDictionary
281
     1
  3
Layout1
350
1C
  3
Model
350
17
  0
DICTIONARY
  5
7
102
{ACAD_REACTORS
330
5
102
}
330
5
100
AcDbDictionary
281
     1
  3
ByBlock
350
4C
  3
ByLayer
350
E
  3
Global
350
6
  0
DICTIONARY
  5
11F
102
{ACAD_REACTORS
330
5
102
}
330
5
100
AcDbDictionary
281
     1
  3
Standard
350
122
  0
DICTIONARY
  5
12
102
{ACAD_REACTORS
330
5
102
}
330
5
100
AcDbDictionary
281
     1
  3
Standard
350
11
  0
DICTIONARY
  5
22
102
{ACAD_REACTORS
330
5
102
}
330
5
100
AcDbDictionary
281
     1
  0
ACDBDICTIONARYWDFLT
  5
4
102
{ACAD_REACTORS
330
5
102
}
330
5
100
AcDbDictionary
281
     1
  3
Normal
350
3
100
AcDbDictionaryWithDefault
340
3
  0
DICTIONARY
  5
29
102
{ACAD_REACTORS
330
5
102
}
330
5
100
AcDbDictionary
281
     1
  3
*A1
350
4B
  0
DICTIONARY
  5
11E
102
{ACAD_REACTORS
330
5
102
}
330
5
100
AcDbDictionary
281
     1
  3
Standard
350
13A
  0
DICTIONARY
  5
23
102
{ACAD_REACTORS
330
5
102
}
330
5
100
AcDbDictionary
281
     1
  3
2dWireframe
350
26
  3
Basic
350
129
  3
Brighten
350
12D
  3
ColorChange
350
131
  3
Conceptual
350
12B
  3
Dim
350
12C
  3
EdgeColorOff
350
134
  3
Facepattern
350
130
  3
Flat
350
123
  3
FlatWithEdges
350
124
  3
Gouraud
350
125
  3
GouraudWithEdges
350
126
  3
Hidden
350
128
  3
JitterOff
350
132
  3
Linepattern
350
12F
  3
OverhangOff
350
133
  3
Realistic
350
12A
  3
Shaded
350
139
  3
Shaded with edges
350
138
  3
Shades of Gray
350
135
  3
Sketchy
350
136
  3
Thicken
350
12E
  3
Wireframe
350
127
  3
X-Ray
350
137
  0
DICTIONARY
  5
11C
102
{ACAD_REACTORS
330
5
102
}
330
5
100
AcDbDictionary
281
     1
  3
CANNOSCALE
350
11D
  3
CMLEADERSTYLE
350
13C
  3
CTABLESTYLE
350
13B
  3
DIMASSOC
350
13D
  3
HIDETEXT
350
13E
  3
MSLTSCALE
350
141
  0
XRECORD
  5
140
102
{ACAD_REACTORS
330
13F
102
}
330
13F
100
AcDbXrecord
280
     1
102
VTR_0.000_0.000_1.000_1.000_VISUALSTYLE
340
26
102
VTR_0.000_0.000_1.000_1.000_GRIDDISPLAY
 70
     3
102
VTR_0.000_0.000_1.000_1.000_GRIDMAJOR
 70
     5
102
VTR_0.000_0.000_1.000_1.000_DEFAULTLIGHTING
280
     1
102
VTR_0.000_0.000_1.000_1.000_DEFAULTLIGHTINGTYPE
 70
     1
102
VTR_0.000_0.000_1.000_1.000_BRIGHTNESS
141
0.0
102
VTR_0.000_0.000_1.000_1.000_CONTRAST
142
0.0
  0
LAYOUT
  5
1C
102
{ACAD_REACTORS
330
18
102
}
330
18
100
AcDbPlotSettings
  1

  2
none_device
  4
Letter_(8.50_x_11.00_Inches)
  6

 40
6.35
 41
6.35
 42
6.35001
 43
6.35001
 44
215.9
 45
279.4
 46
0.0
 47
0.0
 48
0.0
 49
0.0
140
0.0
141
0.0
142
1.0
143
1.0
 70
   688
 72
     0
 73
     1
 74
     5
  7

 75
    16
147
1.0
148
0.0
149
0.0
100
AcDbLayout
  1
Layout1
 70
     1
 71
     1
 10
0.0
 20
0.0
 11
12.0
 21
9.0
 12
0.0
 22
0.0
 32
0.0
 14
1.000000000000000E+20
 24
1.000000000000000E+20
 34
1.000000000000000E+20
 15
-1.000000000000000E+20
 25
-1.000000000000000E+20
 35
-1.000000000000000E+20
146
0.0
 13
0.0
 23
0.0
 33
0.0
 16
1.0
 26
0.0
 36
0.0
 17
0.0
 27
1.0
 37
0.0
 76
     0
330
19
  0
LAYOUT
  5
17
102
{ACAD_REACTORS
330
18
102
}
330
18
100
AcDbPlotSettings
  1

  2
none_device
  4

  6

 40
0.0
 41
0.0
 42
0.0
 43
0.0
 44
0.0
 45
0.0
 46
0.0
 47
0.0
 48
0.0
 49
0.0
140
0.0
141
0.0
142
1.0
143
1.0
 70
  1712
 72
     0
 73
     0
 74
     0
  7

 75
     0
147
1.0
148
0.0
149
0.0
100
AcDbLayout
  1
Model
 70
     1
 71
     0
 10
0.0
 20
0.0
 11
12.0
 21
9.0
 12
0.0
 22
0.0
 32
0.0
 14
463.0780883016632
 24
430.3687659590249
 34
0.0
 15
499.2890873868965
 25
449.1991886522737
 35
0.0
146
0.0
 13
0.0
 23
0.0
 33
0.0
 16
1.0
 26
0.0
 36
0.0
 17
0.0
 27
1.0
 37
0.0
 76
     0
330
14
331
25
  0
MATERIAL
  5
4C
102
{ACAD_REACTORS
330
7
102
}
102
{ACAD_XDICTIONARY
360
146
102
}
330
7
100
AcDbMaterial
  1
ByBlock
  0
MATERIAL
  5
E
102
{ACAD_REACTORS
330
7
102
}
102
{ACAD_XDICTIONARY
360
142
102
}
330
7
100
AcDbMaterial
  1
ByLayer
  0
MATERIAL
  5
6
102
{ACAD_REACTORS
330
7
102
}
102
{ACAD_XDICTIONARY
360
144
102
}
330
7
100
AcDbMaterial
  1
Global
  0
MLEADERSTYLE
  5
122
102
{ACAD_REACTORS
330
11F
102
}
102
{ACAD_XDICTIONARY
360
179
102
}
330
11F
100
AcDbMLeaderStyle
170
     2
171
     1
172
     0
 90
        2
 40
0.0
 41
0.0
173
     1
 91
-1056964608
340
A
 92
       -2
290
     1
 42
0.09
291
     1
 43
0.36
  3
Standard
341
0
 44
0.18
300

342
C
174
     1
178
     6
175
     1
176
     0
 93
-1056964608
 45
0.18
292
     0
297
     0
 46
0.18
343
0
 94
-1056964608
 47
1.0
 49
1.0
140
1.0
293
     1
141
0.0
294
     1
177
     0
142
1.0
295
     0
296
     0
143
0.125
1001
ACAD_MLEADERVER
1070
     2
  0
MLINESTYLE
  5
11
102
{ACAD_REACTORS
330
12
102
}
330
12
100
AcDbMlineStyle
  2
Standard
 70
     0
  3

 62
   256
 51
90.0
 52
90.0
 71
     2
 49
0.5
 62
   256
  6
BYLAYER
 49
-0.5
 62
   256
  6
BYLAYER
  0
ACDBPLACEHOLDER
  5
3
102
{ACAD_REACTORS
330
4
102
}
330
4
  0
SCALE
  5
4B
102
{ACAD_REACTORS
330
29
102
}
330
29
100
AcDbScale
 70
     0
300
1:1
140
1.0
141
1.0
290
     1
  0
TABLESTYLE
  5
13A
102
{ACAD_REACTORS
330
11E
102
}
330
11E
100
AcDbTableStyle
  3
Standard
 70
     0
 71
     0
 40
0.06
 41
0.06
280
     0
281
     0
  7
Standard
140
0.18
170
     2
 62
     0
 63
   257
283
     0
274
    -2
284
     1
 64
     0
275
    -2
285
     1
 65
     0
276
    -2
286
     1
 66
     0
277
    -2
287
     1
 67
     0
278
    -2
288
     1
 68
     0
279
    -2
289
     1
 69
     0
  7
Standard
140
0.25
170
     5
 62
     0
 63
   257
283
     0
274
    -2
284
     1
 64
     0
275
    -2
285
     1
 65
     0
276
    -2
286
     1
 66
     0
277
    -2
287
     1
 67
     0
278
    -2
288
     1
 68
     0
279
    -2
289
     1
 69
     0
  7
Standard
140
0.18
170
     5
 62
     0
 63
   257
283
     0
274
    -2
284
     1
 64
     0
275
    -2
285
     1
 65
     0
276
    -2
286
     1
 66
     0
277
    -2
287
     1
 67
     0
278
    -2
288
     1
 68
     0
279
    -2
289
     1
 69
     0
  0
VISUALSTYLE
  5
26
102
{ACAD_REACTORS
330
23
102
}
102
{ACAD_XDICTIONARY
360
148
102
}
330
23
100
AcDbVisualStyle
  2
2dWireframe
 70
     4
 71
     0
 72
     2
 73
     0
 90
        0
 40
-0.6
 41
-30.0
 62
     5
 63
     7
 74
     1
 91
        4
 64
     7
 65
   257
 75
     1
175
     1
 42
1.0
 92
        0
 66
   257
 43
1.0
 76
     1
 77
     6
 78
     2
 67
     7
 79
     5
170
     0
171
     0
290
     0
174
     0
 93
        1
 44
0.0
173
     0
291
     0
 45
0.0
1001
ACAD
1000
AcDbSavedByObjectVersion
1070
     0
  0
VISUALSTYLE
  5
129
102
{ACAD_REACTORS
330
23
102
}
102
{ACAD_XDICTIONARY
360
156
102
}
330
23
100
AcDbVisualStyle
  2
Basic
 70
     7
 71
     1
 72
     0
 73
     1
 90
        0
 40
0.6
 41
30.0
 62
     5
 63
     7
 74
     0
 91
        4
 64
     7
 65
   257
 75
     1
175
     1
 42
1.0
 92
        8
 66
     7
 43
1.0
 76
     1
 77
     6
 78
     2
 67
     7
 79
     5
170
     0
171
     0
290
     0
174
     0
 93
        1
 44
0.0
173
     0
291
     1
 45
0.0
1001
ACAD
1000
AcDbSavedByObjectVersion
1070
     0
  0
VISUALSTYLE
  5
12D
102
{ACAD_REACTORS
330
23
102
}
102
{ACAD_XDICTIONARY
360
15E
102
}
330
23
100
AcDbVisualStyle
  2
Brighten
 70
    12
 71
     2
 72
     2
 73
     0
 90
        0
 40
0.6
 41
30.0
 62
     5
 63
     7
 74
     1
 91
        4
 64
     7
 65
   257
 75
     1
175
     1
 42
1.0
 92
        8
 66
     7
 43
1.0
 76
     1
 77
     6
 78
     2
 67
     7
 79
     5
170
     0
171
     0
290
     0
174
     0
 93
        1
 44
50.0
173
     0
291
     1
 45
0.0
1001
ACAD
1000
AcDbSavedByObjectVersion
1070
     0
  0
VISUALSTYLE
  5
131
102
{ACAD_REACTORS
330
23
102
}
102
{ACAD_XDICTIONARY
360
166
102
}
330
23
100
AcDbVisualStyle
  2
ColorChange
 70
    16
 71
     2
 72
     2
 73
     3
 90
        0
 40
0.6
 41
30.0
 62
     5
 63
     8
 74
     1
 91
        4
 64
     7
 65
   257
 75
     1
175
     1
 42
1.0
 92
        8
 66
     8
 43
1.0
 76
     1
 77
     6
 78
     2
 67
     7
 79
     5
170
     0
171
     0
290
     0
174
     0
 93
        1
 44
0.0
173
     0
291
     1
 45
0.0
1001
ACAD
1000
AcDbSavedByObjectVersion
1070
     0
  0
VISUALSTYLE
  5
12B
102
{ACAD_REACTORS
330
23
102
}
102
{ACAD_XDICTIONARY
360
15A
102
}
330
23
100
AcDbVisualStyle
  2
Conceptual
 70
     9
 71
     3
 72
     2
 73
     0
 90
        0
 40
0.6
 41
30.0
 62
     5
 63
     7
 74
     2
 91
        2
 64
     7
 65
   257
 75
     1
175
     1
 42
179.0
 92
        8
 66
     7
 43
1.0
 76
     1
 77
     6
 78
     2
 67
     7
 79
     3
170
     0
171
     0
290
     0
174
     0
 93
        1
 44
0.0
173
     0
291
     0
 45
0.0
1001
ACAD
1000
AcDbSavedByObjectVersion
1070
     0
  0
VISUALSTYLE
  5
12C
102
{ACAD_REACTORS
330
23
102
}
102
{ACAD_XDICTIONARY
360
15C
102
}
330
23
100
AcDbVisualStyle
  2
Dim
 70
    11
 71
     2
 72
     2
 73
     0
 90
        0
 40
0.6
 41
30.0
 62
     5
 63
     7
 74
     1
 91
        4
 64
     7
 65
   257
 75
     1
175
     1
 42
1.0
 92
        8
 66
     7
 43
1.0
 76
     1
 77
     6
 78
     2
 67
     7
 79
     5
170
     0
171
     0
290
     0
174
     0
 93
        1
 44
-50.0
173
     0
291
     1
 45
0.0
1001
ACAD
1000
AcDbSavedByObjectVersion
1070
     0
  0
VISUALSTYLE
  5
134
102
{ACAD_REACTORS
330
23
102
}
102
{ACAD_XDICTIONARY
360
16C
102
}
330
23
100
AcDbVisualStyle
  2
EdgeColorOff
 70
    22
 71
     2
 72
     2
 73
     0
 90
        0
 40
0.6
 41
30.0
 62
     5
 63
     7
 74
     1
 91
        4
 64
     7
 65
   257
 75
     1
175
     1
 42
1.0
 92
        8
 66
     7
 43
1.0
 76
     1
 77
     6
 78
     2
 67
     7
 79
     5
170
     0
171
     0
290
     0
174
     0
 93
        1
 44
0.0
173
     0
291
     1
 45
0.0
1001
ACAD
1000
AcDbSavedByObjectVersion
1070
     0
  0
VISUALSTYLE
  5
130
102
{ACAD_REACTORS
330
23
102
}
102
{ACAD_XDICTIONARY
360
164
102
}
330
23
100
AcDbVisualStyle
  2
Facepattern
 70
    15
 71
     2
 72
     2
 73
     0
 90
        0
 40
0.6
 41
30.0
 62
     5
 63
     7
 74
     1
 91
        4
 64
     7
 65
   257
 75
     1
175
     1
 42
1.0
 92
        8
 66
     7
 43
1.0
 76
     1
 77
     6
 78
     2
 67
     7
 79
     5
170
     0
171
     0
290
     0
174
     0
 93
        1
 44
0.0
173
     0
291
     1
 45
0.0
1001
ACAD
1000
AcDbSavedByObjectVersion
1070
     0
  0
VISUALSTYLE
  5
123
102
{ACAD_REACTORS
330
23
102
}
102
{ACAD_XDICTIONARY
360
14A
102
}
330
23
100
AcDbVisualStyle
  2
Flat
 70
     0
 71
     2
 72
     1
 73
     1
 90
        2
 40
0.6
 41
30.0
 62
     5
 63
     7
 74
     0
 91
        0
 64
     7
 65
   257
 75
     1
175
     1
 42
1.0
 92
        8
 66
     7
 43
1.0
 76
     1
 77
     6
 78
     2
 67
     7
 79
     5
170
     0
171
     0
290
     0
174
     0
 93
       13
 44
0.0
173
     0
291
     1
 45
0.0
1001
ACAD
1000
AcDbSavedByObjectVersion
1070
     0
  0
VISUALSTYLE
  5
124
102
{ACAD_REACTORS
330
23
102
}
102
{ACAD_XDICTIONARY
360
14C
102
}
330
23
100
AcDbVisualStyle
  2
FlatWithEdges
 70
     1
 71
     2
 72
     1
 73
     1
 90
        2
 40
0.6
 41
30.0
 62
     5
 63
     7
 74
     1
 91
        0
 64
     7
 65
   257
 75
     1
175
     1
 42
1.0
 92
        0
 66
   257
 43
1.0
 76
     1
 77
     6
 78
     2
 67
     7
 79
     5
170
     0
171
     0
290
     0
174
     0
 93
       13
 44
0.0
173
     0
291
     1
 45
0.0
1001
ACAD
1000
AcDbSavedByObjectVersion
1070
     0
  0
VISUALSTYLE
  5
125
102
{ACAD_REACTORS
330
23
102
}
102
{ACAD_XDICTIONARY
360
14E
102
}
330
23
100
AcDbVisualStyle
  2
Gouraud
 70
     2
 71
     2
 72
     2
 73
     1
 90
        2
 40
0.6
 41
30.0
 62
     5
 63
     7
 74
     0
 91
        0
 64
     7
 65
   257
 75
     1
175
     1
 42
1.0
 92
        0
 66
     7
 43
1.0
 76
     1
 77
     6
 78
     2
 67
     7
 79
     5
170
     0
171
     0
290
     0
174
     0
 93
       13
 44
0.0
173
     0
291
     1
 45
0.0
1001
ACAD
1000
AcDbSavedByObjectVersion
1070
     0
  0
VISUALSTYLE
  5
126
102
{ACAD_REACTORS
330
23
102
}
102
{ACAD_XDICTIONARY
360
150
102
}
330
23
100
AcDbVisualStyle
  2
GouraudWithEdges
 70
     3
 71
     2
 72
     2
 73
     1
 90
        2
 40
0.6
 41
30.0
 62
     5
 63
     7
 74
     1
 91
        0
 64
     7
 65
   257
 75
     1
175
     1
 42
1.0
 92
        0
 66
   257
 43
1.0
 76
     1
 77
     6
 78
     2
 67
     7
 79
     5
170
     0
171
     0
290
     0
174
     0
 93
       13
 44
0.0
173
     0
291
     1
 45
0.0
1001
ACAD
1000
AcDbSavedByObjectVersion
1070
     0
  0
VISUALSTYLE
  5
128
102
{ACAD_REACTORS
330
23
102
}
102
{ACAD_XDICTIONARY
360
154
102
}
330
23
100
AcDbVisualStyle
  2
Hidden
 70
     6
 71
     1
 72
     2
 73
     2
 90
        0
 40
0.6
 41
30.0
 62
     5
 63
     7
 74
     2
 91
        2
 64
     7
 65
   257
 75
     2
175
     1
 42
40.0
 92
        0
 66
   257
 43
1.0
 76
     1
 77
     6
 78
     2
 67
     7
 79
     3
170
     0
171
     0
290
     0
174
     0
 93
        1
 44
0.0
173
     0
291
     0
 45
0.0
1001
ACAD
1000
AcDbSavedByObjectVersion
1070
     0
  0
VISUALSTYLE
  5
132
102
{ACAD_REACTORS
330
23
102
}
102
{ACAD_XDICTIONARY
360
168
102
}
330
23
100
AcDbVisualStyle
  2
JitterOff
 70
    20
 71
     2
 72
     2
 73
     0
 90
        0
 40
0.6
 41
30.0
 62
     5
 63
     7
 74
     1
 91
        4
 64
     7
 65
   257
 75
     1
175
     1
 42
1.0
 92
       10
 66
     7
 43
1.0
 76
     1
 77
     6
 78
     2
 67
     7
 79
     5
170
     0
171
     0
290
     0
174
     0
 93
        1
 44
0.0
173
     0
291
     1
 45
0.0
1001
ACAD
1000
AcDbSavedByObjectVersion
1070
     0
  0
VISUALSTYLE
  5
12F
102
{ACAD_REACTORS
330
23
102
}
102
{ACAD_XDICTIONARY
360
162
102
}
330
23
100
AcDbVisualStyle
  2
Linepattern
 70
    14
 71
     2
 72
     2
 73
     0
 90
        0
 40
0.6
 41
30.0
 62
     5
 63
     7
 74
     1
 91
        4
 64
     7
 65
   257
 75
     7
175
     7
 42
1.0
 92
        8
 66
     7
 43
1.0
 76
     1
 77
     6
 78
     2
 67
     7
 79
     5
170
     0
171
     0
290
     0
174
     0
 93
        1
 44
0.0
173
     0
291
     1
 45
0.0
1001
ACAD
1000
AcDbSavedByObjectVersion
1070
     0
  0
VISUALSTYLE
  5
133
102
{ACAD_REACTORS
330
23
102
}
102
{ACAD_XDICTIONARY
360
16A
102
}
330
23
100
AcDbVisualStyle
  2
OverhangOff
 70
    21
 71
     2
 72
     2
 73
     0
 90
        0
 40
0.6
 41
30.0
 62
     5
 63
     7
 74
     1
 91
        4
 64
     7
 65
   257
 75
     1
175
     1
 42
1.0
 92
        9
 66
     7
 43
1.0
 76
     1
 77
     6
 78
     2
 67
     7
 79
     5
170
     0
171
     0
290
     0
174
     0
 93
        1
 44
0.0
173
     0
291
     1
 45
0.0
1001
ACAD
1000
AcDbSavedByObjectVersion
1070
     0
  0
VISUALSTYLE
  5
12A
102
{ACAD_REACTORS
330
23
102
}
102
{ACAD_XDICTIONARY
360
158
102
}
330
23
100
AcDbVisualStyle
  2
Realistic
 70
     8
 71
     2
 72
     3
 73
     0
 90
        2
 40
0.6
 41
30.0
 62
     5
 63
     7
 74
     0
 91
        0
 64
     7
 65
   257
 75
     1
175
     1
 42
1.0
 92
        8
 66
   257
 43
1.0
 76
     1
 77
     6
 78
     2
 67
     7
 79
     3
170
     0
171
     0
290
     0
174
     0
 93
       13
 44
0.0
173
     0
291
     0
 45
0.0
1001
ACAD
1000
AcDbSavedByObjectVersion
1070
     0
  0
VISUALSTYLE
  5
139
102
{ACAD_REACTORS
330
23
102
}
102
{ACAD_XDICTIONARY
360
176
102
}
330
23
100
AcDbVisualStyle
  2
Shaded
 70
    27
 71
     2
 72
     2
 73
     1
 90
        2
 40
0.6
 41
30.0
 62
     5
 63
     7
 74
     0
 91
        4
 64
     7
 65
   257
 75
     1
175
     1
 42
1.0
 92
        8
 66
   257
 43
1.0
 76
     1
 77
     6
 78
     2
 67
     8
 79
     3
170
     0
171
     0
290
     0
174
     0
 93
        5
 44
0.0
173
     0
291
     0
 45
0.0
1001
ACAD
1000
AcDbSavedByObjectVersion
1070
     0
  0
VISUALSTYLE
  5
138
102
{ACAD_REACTORS
330
23
102
}
102
{ACAD_XDICTIONARY
360
174
102
}
330
23
100
AcDbVisualStyle
  2
Shaded with edges
 70
    26
 71
     2
 72
     2
 73
     1
 90
        2
 40
0.6
 41
30.0
 62
     5
 63
     7
 74
     1
 91
       10
 64
     7
 65
   257
 75
     2
175
     1
 42
1.0
 92
        8
 66
   257
 43
1.0
 76
     1
 77
     6
 78
     2
 67
     7
 79
     3
170
     0
171
     0
290
     0
174
     0
 93
        5
 44
0.0
173
     0
291
     0
 45
0.0
1001
ACAD
1000
AcDbSavedByObjectVersion
1070
     0
  0
VISUALSTYLE
  5
135
102
{ACAD_REACTORS
330
23
102
}
102
{ACAD_XDICTIONARY
360
16E
102
}
330
23
100
AcDbVisualStyle
  2
Shades of Gray
 70
    23
 71
     2
 72
     2
 73
     3
 90
        0
 40
0.6
 41
30.0
 62
     5
 63
     7
 74
     2
 91
        2
 64
     7
 65
     7
 75
     1
175
     1
 42
40.0
 92
        8
 66
     7
 43
1.0
 76
     1
 77
     6
 78
     2
 67
     7
 79
     3
170
     0
171
     0
290
     0
174
     0
 93
        1
 44
0.0
173
     0
291
     0
 45
0.0
1001
ACAD
1000
AcDbSavedByObjectVersion
1070
     0
  0
VISUALSTYLE
  5
136
102
{ACAD_REACTORS
330
23
102
}
102
{ACAD_XDICTIONARY
360
170
102
}
330
23
100
AcDbVisualStyle
  2
Sketchy
 70
    24
 71
     1
 72
     2
 73
     2
 90
        0
 40
0.6
 41
30.0
 62
     5
 63
     7
 74
     2
 91
        2
 64
     7
 65
     7
 75
     1
175
     1
 42
40.0
 92
       11
 66
     7
 43
1.0
 76
     1
 77
     6
 78
     2
 67
     7
 79
     6
170
     0
171
     0
290
     0
174
     0
 93
        1
 44
0.0
173
     0
291
     0
 45
0.0
1001
ACAD
1000
AcDbSavedByObjectVersion
1070
     0
  0
VISUALSTYLE
  5
12E
102
{ACAD_REACTORS
330
23
102
}
102
{ACAD_XDICTIONARY
360
160
102
}
330
23
100
AcDbVisualStyle
  2
Thicken
 70
    13
 71
     2
 72
     2
 73
     0
 90
        0
 40
0.6
 41
30.0
 62
     5
 63
     7
 74
     1
 91
        4
 64
     7
 65
   257
 75
     1
175
     1
 42
1.0
 92
       12
 66
     7
 43
1.0
 76
     1
 77
     6
 78
     2
 67
     7
 79
     5
170
     0
171
     0
290
     0
174
     0
 93
        1
 44
0.0
173
     0
291
     1
 45
0.0
1001
ACAD
1000
AcDbSavedByObjectVersion
1070
     0
  0
VISUALSTYLE
  5
127
102
{ACAD_REACTORS
330
23
102
}
102
{ACAD_XDICTIONARY
360
152
102
}
330
23
100
AcDbVisualStyle
  2
Wireframe
 70
     5
 71
     0
 72
     2
 73
     0
 90
        0
 40
0.6
 41
30.0
 62
     5
 63
     7
 74
     1
 91
        4
 64
     7
 65
   257
 75
     1
175
     1
 42
1.0
 92
        0
 66
   257
 43
1.0
 76
     1
 77
     6
 78
     2
 67
     7
 79
     3
170
     0
171
     0
290
     0
174
     0
 93
        1
 44
0.0
173
     0
291
     0
 45
0.0
1001
ACAD
1000
AcDbSavedByObjectVersion
1070
     0
  0
VISUALSTYLE
  5
137
102
{ACAD_REACTORS
330
23
102
}
102
{ACAD_XDICTIONARY
360
172
102
}
330
23
100
AcDbVisualStyle
  2
X-Ray
 70
    25
 71
     2
 72
     2
 73
     1
 90
        1
 40
0.5
 41
30.0
 62
     5
 63
     7
 74
     1
 91
        0
 64
     7
 65
   257
 75
     1
175
     1
 42
1.0
 92
        8
 66
     7
 43
1.0
 76
     1
 77
     6
 78
     2
 67
     7
 79
     3
170
     0
171
     0
290
     0
174
     0
 93
       13
 44
0.0
173
     0
291
     0
 45
0.0
1001
ACAD
1000
AcDbSavedByObjectVersion
1070
     0
  0
DICTIONARYVAR
  5
11D
102
{ACAD_REACTORS
330
11C
102
}
330
11C
100
DictionaryVariables
280
     0
  1
1:1
  0
DICTIONARYVAR
  5
13C
102
{ACAD_REACTORS
330
11C
102
}
330
11C
100
DictionaryVariables
280
     0
  1
Standard
  0
DICTIONARYVAR
  5
13B
102
{ACAD_REACTORS
330
11C
102
}
330
11C
100
DictionaryVariables
280
     0
  1
Standard
  0
DICTIONARYVAR
  5
13D
102
{ACAD_REACTORS
330
11C
102
}
330
11C
100
DictionaryVariables
280
     0
  1
2
  0
DICTIONARYVAR
  5
13E
102
{ACAD_REACTORS
330
11C
102
}
330
11C
100
DictionaryVariables
280
     0
  1
1
  0
DICTIONARYVAR
  5
141
102
{ACAD_REACTORS
330
11C
102
}
330
11C
100
DictionaryVariables
280
     0
  1
1
  0
DICTIONARY
  5
146
330
4C
100
AcDbDictionary
280
     1
281
     1
  3
ACAD_XREC_ROUNDTRIP
360
147
  0
DICTIONARY
  5
142
330
E
100
AcDbDictionary
280
     1
281
     1
  3
ACAD_XREC_ROUNDTRIP
360
143
  0
DICTIONARY
  5
144
330
6
100
AcDbDictionary
280
     1
281
     1
  3
ACAD_XREC_ROUNDTRIP
360
145
  0
DICTIONARY
  5
179
330
122
100
AcDbDictionary
280
     1
281
     1
  3
ACAD_XREC_ROUNDTRIP
360
17A
  0
DICTIONARY
  5
148
330
26
100
AcDbDictionary
280
     1
281
     1
  3
ACAD_XREC_ROUNDTRIP
360
149
  0
DICTIONARY
  5
156
330
129
100
AcDbDictionary
280
     1
281
     1
  3
ACAD_XREC_ROUNDTRIP
360
157
  0
DICTIONARY
  5
15E
330
12D
100
AcDbDictionary
280
     1
281
     1
  3
ACAD_XREC_ROUNDTRIP
360
15F
  0
DICTIONARY
  5
166
330
131
100
AcDbDictionary
280
     1
281
     1
  3
ACAD_XREC_ROUNDTRIP
360
167
  0
DICTIONARY
  5
15A
330
12B
100
AcDbDictionary
280
     1
281
     1
  3
ACAD_XREC_ROUNDTRIP
360
15B
  0
DICTIONARY
  5
15C
330
12C
100
AcDbDictionary
280
     1
281
     1
  3
ACAD_XREC_ROUNDTRIP
360
15D
  0
DICTIONARY
  5
16C
330
134
100
AcDbDictionary
280
     1
281
     1
  3
ACAD_XREC_ROUNDTRIP
360
16D
  0
DICTIONARY
  5
164
330
130
100
AcDbDictionary
280
     1
281
     1
  3
ACAD_XREC_ROUNDTRIP
360
165
  0
DICTIONARY
  5
14A
330
123
100
AcDbDictionary
280
     1
281
     1
  3
ACAD_XREC_ROUNDTRIP
360
14B
  0
DICTIONARY
  5
14C
330
124
100
AcDbDictionary
280
     1
281
     1
  3
ACAD_XREC_ROUNDTRIP
360
14D
  0
DICTIONARY
  5
14E
330
125
100
AcDbDictionary
280
     1
281
     1
  3
ACAD_XREC_ROUNDTRIP
360
14F
  0
DICTIONARY
  5
150
330
126
100
AcDbDictionary
280
     1
281
     1
  3
ACAD_XREC_ROUNDTRIP
360
151
  0
DICTIONARY
  5
154
330
128
100
AcDbDictionary
280
     1
281
     1
  3
ACAD_XREC_ROUNDTRIP
360
155
  0
DICTIONARY
  5
168
330
132
100
AcDbDictionary
280
     1
281
     1
  3
ACAD_XREC_ROUNDTRIP
360
169
  0
DICTIONARY
  5
162
330
12F
100
AcDbDictionary
280
     1
281
     1
  3
ACAD_XREC_ROUNDTRIP
360
163
  0
DICTIONARY
  5
16A
330
133
100
AcDbDictionary
280
     1
281
     1
  3
ACAD_XREC_ROUNDTRIP
360
16B
  0
DICTIONARY
  5
158
330
12A
100
AcDbDictionary
280
     1
281
     1
  3
ACAD_XREC_ROUNDTRIP
360
159
  0
DICTIONARY
  5
176
330
139
100
AcDbDictionary
280
     1
281
     1
  3
ACAD_XREC_ROUNDTRIP
360
177
  0
DICTIONARY
  5
174
330
138
100
AcDbDictionary
280
     1
281
     1
  3
ACAD_XREC_ROUNDTRIP
360
175
  0
DICTIONARY
  5
16E
330
135
100
AcDbDictionary
280
     1
281
     1
  3
ACAD_XREC_ROUNDTRIP
360
16F
  0
DICTIONARY
  5
170
330
136
100
AcDbDictionary
280
     1
281
     1
  3
ACAD_XREC_ROUNDTRIP
360
171
  0
DICTIONARY
  5
160
330
12E
100
AcDbDictionary
280
     1
281
     1
  3
ACAD_XREC_ROUNDTRIP
360
161
  0
DICTIONARY
  5
152
330
127
100
AcDbDictionary
280
     1
281
     1
  3
ACAD_XREC_ROUNDTRIP
360
153
  0
DICTIONARY
  5
172
330
137
100
AcDbDictionary
280
     1
281
     1
  3
ACAD_XREC_ROUNDTRIP
360
173
  0
XRECORD
  5
147
102
{ACAD_REACTORS
330
146
102
}
330
146
100
AcDbXrecord
280
     1
102
MATERIAL
148
0.0
149
0.0
149
0.0
 93
        0
 94
      127
282
     0
 72
     1
 77
     1
171
     1
175
     1
179
     1
273
     0
  0
XRECORD
  5
143
102
{ACAD_REACTORS
330
142
102
}
330
142
100
AcDbXrecord
280
     1
102
MATERIAL
148
0.0
149
0.0
149
0.0
 93
        0
 94
      127
282
     0
 72
     1
 77
     1
171
     1
175
     1
179
     1
273
     0
  0
XRECORD
  5
145
102
{ACAD_REACTORS
330
144
102
}
330
144
100
AcDbXrecord
280
     1
102
MATERIAL
148
0.0
149
0.0
149
0.0
 93
        0
 94
      127
282
     0
 72
     1
 77
     1
171
     1
175
     1
179
     1
273
     0
  0
XRECORD
  5
17A
102
{ACAD_REACTORS
330
179
102
}
330
179
100
AcDbXrecord
280
     1
102
ACAD_ROUNDTRIP_2010_MLEADER_STYLE
  0
XRECORD
  5
149
102
{ACAD_REACTORS
330
148
102
}
330
148
100
AcDbXrecord
280
     1
102
RTVSPropertyOp0
 70
     1
102
RTVSPropertyOp1
 70
     1
102
RTVSPropertyOp2
 70
     1
102
RTVSPropertyOp3
 70
     1
102
RTVSPropertyOp4
 70
     1
102
RTVSPropertyOp5
 70
     1
102
RTVSPropertyOp6
 70
     1
102
RTVSPropertyOp7
 70
     1
102
RTVSPropertyOp8
 70
     1
102
RTVSPropertyOp9
 70
     1
102
RTVSPropertyOp10
 70
     1
102
RTVSPropertyOp11
 70
     1
102
RTVSPropertyOp12
 70
     1
102
RTVSPropertyOp13
 70
     1
102
RTVSPropertyOp14
 70
     1
102
RTVSPropertyOp15
 70
     1
102
RTVSPropertyOp16
 70
     1
102
RTVSPropertyOp17
 70
     1
102
RTVSPropertyOp18
 70
     1
102
RTVSPropertyOp19
 70
     1
102
RTVSPropertyOp20
 70
     1
102
RTVSPropertyOp21
 70
     1
102
RTVSPropertyOp22
 70
     1
102
RTVSPropertyOp23
 70
     1
102
RTVSPropertyOp24
 70
     1
102
RTVSPropertyOp25
 70
     1
102
RTVSPropertyOp26
 70
     1
102
RTVSPropertyOp27
 70
     1
102
RTVSPropertyOp28
 70
     1
102
RTVSPropertyOp29
 70
     1
102
RTVSPropertyOp30
 70
     1
102
RTVSPropertyOp31
 70
     1
102
RTVSPropertyOp32
 70
     1
102
RTVSPropertyOp33
 70
     1
102
RTVSPropertyOp34
 70
     1
102
RTVSPropertyOp35
 70
     1
102
RTVSPropertyOp36
 70
     1
102
RTVSPropertyOp37
 70
     1
102
RTVSPropertyOp38
 70
     1
102
RTVSPropertyOp39
 70
     1
102
RTVSPropertyOp40
 70
     1
102
RTVSPropertyOp41
 70
     1
102
RTVSPropertyOp42
 70
     1
102
RTVSPropertyOp43
 70
     1
102
RTVSPropertyOp44
 70
     1
102
RTVSPropertyOp45
 70
     1
102
RTVSPropertyOp46
 70
     1
102
RTVSPropertyOp47
 70
     1
102
RTVSPropertyOp48
 70
     1
102
RTVSPropertyOp49
 70
     1
102
RTVSPropertyOp50
 70
     1
102
RTVSPropertyOp51
 70
     0
102
RTVSPropertyOp52
 70
     0
102
RTVSPropertyOp53
 70
     1
102
RTVSPropertyOp54
 70
     1
102
RTVSPropertyOp55
 70
     1
102
RTVSPropertyOp56
 70
     1
102
RTVSPropertyOp57
 70
     1
102
RTVSPost2010Prop28
280
     1
102
RTVSPost2010PropOp28
 70
     1
102
RTVSPost2010Prop29
280
     1
102
RTVSPost2010PropOp29
 70
     1
102
RTVSPost2010Prop30
280
     0
102
RTVSPost2010PropOp30
 70
     1
102
RTVSPost2010Prop31
280
     0
102
RTVSPost2010PropOp31
 70
     1
102
RTVSPost2010Prop32
280
     0
102
RTVSPost2010PropOp32
 70
     1
102
RTVSPost2010Prop33
280
     0
102
RTVSPost2010PropOp33
 70
     1
102
RTVSPost2010Prop34
280
     0
102
RTVSPost2010PropOp34
 70
     1
102
RTVSPost2010Prop35
280
     0
102
RTVSPost2010PropOp35
 70
     1
102
RTVSPost2010Prop36
280
     0
102
RTVSPost2010PropOp36
 70
     1
102
RTVSPost2010Prop37
 90
       50
102
RTVSPost2010PropOp37
 70
     1
102
RTVSPost2010Prop38
140
0.0
102
RTVSPost2010PropOp38
 70
     1
102
RTVSPost2010Prop39
140
1.0
102
RTVSPost2010PropOp39
 70
     1
102
RTVSPost2010Prop40
 90
        0
102
RTVSPost2010PropOp40
 70
     1
102
RTVSPost2010Prop41ColorIndex
 90
       18
102
RTVSPost2010Prop41ColorRGB
 90
        0
102
RTVSPost2010PropOp41
 70
     1
102
RTVSPost2010Prop42
 90
       50
102
RTVSPost2010PropOp42
 70
     1
102
RTVSPost2010Prop43
 90
        3
102
RTVSPost2010PropOp43
 70
     1
102
RTVSPost2010Prop44ColorIndex
 90
        5
102
RTVSPost2010Prop44ColorRGB
 90
      255
102
RTVSPost2010PropOp44
 70
     1
102
RTVSPost2010Prop45
280
     0
102
RTVSPost2010PropOp45
 70
     1
102
RTVSPost2010Prop46
 90
       50
102
RTVSPost2010PropOp46
 70
     1
102
RTVSPost2010Prop47
 90
       50
102
RTVSPost2010PropOp47
 70
     1
102
RTVSPost2010Prop48
 90
       50
102
RTVSPost2010PropOp48
 70
     1
102
RTVSPost2010Prop49
280
     0
102
RTVSPost2010PropOp49
 70
     1
102
RTVSPost2010Prop50
 90
       50
102
RTVSPost2010PropOp50
 70
     1
102
RTVSPost2010Prop51ColorIndex
 90
      256
102
RTVSPost2010Prop51ColorRGB
 90
-16777216
102
RTVSPost2010PropOp51
 70
     0
102
RTVSPost2010Prop52
140
1.0
102
RTVSPost2010PropOp52
 70
     0
102
RTVSPost2010Prop53
 90
        2
102
RTVSPost2010PropOp53
 70
     1
102
RTVSPost2010Prop54
  1
strokes_ogs.tif
102
RTVSPost2010PropOp54
 70
     1
102
RTVSPost2010Prop55
280
     0
102
RTVSPost2010PropOp55
 70
     1
102
RTVSPost2010Prop56
140
1.0
102
RTVSPost2010PropOp56
 70
     1
102
RTVSPost2010Prop57
140
1.0
102
RTVSPost2010PropOp57
 70
     1
  0
XRECORD
  5
157
102
{ACAD_REACTORS
330
156
102
}
330
156
100
AcDbXrecord
280
     1
102
RTVSPropertyOp0
 70
     1
102
RTVSPropertyOp1
 70
     1
102
RTVSPropertyOp2
 70
     1
102
RTVSPropertyOp3
 70
     1
102
RTVSPropertyOp4
 70
     1
102
RTVSPropertyOp5
 70
     1
102
RTVSPropertyOp6
 70
     1
102
RTVSPropertyOp7
 70
     1
102
RTVSPropertyOp8
 70
     1
102
RTVSPropertyOp9
 70
     1
102
RTVSPropertyOp10
 70
     1
102
RTVSPropertyOp11
 70
     1
102
RTVSPropertyOp12
 70
     1
102
RTVSPropertyOp13
 70
     1
102
RTVSPropertyOp14
 70
     1
102
RTVSPropertyOp15
 70
     1
102
RTVSPropertyOp16
 70
     1
102
RTVSPropertyOp17
 70
     1
102
RTVSPropertyOp18
 70
     1
102
RTVSPropertyOp19
 70
     1
102
RTVSPropertyOp20
 70
     1
102
RTVSPropertyOp21
 70
     1
102
RTVSPropertyOp22
 70
     1
102
RTVSPropertyOp23
 70
     1
102
RTVSPropertyOp24
 70
     1
102
RTVSPropertyOp25
 70
     1
102
RTVSPropertyOp26
 70
     1
102
RTVSPropertyOp27
 70
     1
102
RTVSPropertyOp28
 70
     1
102
RTVSPropertyOp29
 70
     1
102
RTVSPropertyOp30
 70
     1
102
RTVSPropertyOp31
 70
     1
102
RTVSPropertyOp32
 70
     1
102
RTVSPropertyOp33
 70
     1
102
RTVSPropertyOp34
 70
     1
102
RTVSPropertyOp35
 70
     1
102
RTVSPropertyOp36
 70
     1
102
RTVSPropertyOp37
 70
     1
102
RTVSPropertyOp38
 70
     1
102
RTVSPropertyOp39
 70
     1
102
RTVSPropertyOp40
 70
     1
102
RTVSPropertyOp41
 70
     1
102
RTVSPropertyOp42
 70
     1
102
RTVSPropertyOp43
 70
     1
102
RTVSPropertyOp44
 70
     1
102
RTVSPropertyOp45
 70
     1
102
RTVSPropertyOp46
 70
     1
102
RTVSPropertyOp47
 70
     1
102
RTVSPropertyOp48
 70
     1
102
RTVSPropertyOp49
 70
     1
102
RTVSPropertyOp50
 70
     1
102
RTVSPropertyOp51
 70
     0
102
RTVSPropertyOp52
 70
     0
102
RTVSPropertyOp53
 70
     1
102
RTVSPropertyOp54
 70
     1
102
RTVSPropertyOp55
 70
     1
102
RTVSPropertyOp56
 70
     1
102
RTVSPropertyOp57
 70
     1
102
RTVSPost2010Prop28
280
     0
102
RTVSPost2010PropOp28
 70
     1
102
RTVSPost2010Prop29
280
     1
102
RTVSPost2010PropOp29
 70
     1
102
RTVSPost2010Prop30
280
     1
102
RTVSPost2010PropOp30
 70
     1
102
RTVSPost2010Prop31
280
     0
102
RTVSPost2010PropOp31
 70
     1
102
RTVSPost2010Prop32
280
     0
102
RTVSPost2010PropOp32
 70
     1
102
RTVSPost2010Prop33
280
     0
102
RTVSPost2010PropOp33
 70
     1
102
RTVSPost2010Prop34
280
     0
102
RTVSPost2010PropOp34
 70
     1
102
RTVSPost2010Prop35
280
     0
102
RTVSPost2010PropOp35
 70
     1
102
RTVSPost2010Prop36
280
     0
102
RTVSPost2010PropOp36
 70
     1
102
RTVSPost2010Prop37
 90
       50
102
RTVSPost2010PropOp37
 70
     1
102
RTVSPost2010Prop38
140
0.0
102
RTVSPost2010PropOp38
 70
     1
102
RTVSPost2010Prop39
140
1.0
102
RTVSPost2010PropOp39
 70
     1
102
RTVSPost2010Prop40
 90
        0
102
RTVSPost2010PropOp40
 70
     1
102
RTVSPost2010Prop41ColorIndex
 90
       18
102
RTVSPost2010Prop41ColorRGB
 90
        0
102
RTVSPost2010PropOp41
 70
     1
102
RTVSPost2010Prop42
 90
       50
102
RTVSPost2010PropOp42
 70
     1
102
RTVSPost2010Prop43
 90
        3
102
RTVSPost2010PropOp43
 70
     1
102
RTVSPost2010Prop44ColorIndex
 90
        5
102
RTVSPost2010Prop44ColorRGB
 90
      255
102
RTVSPost2010PropOp44
 70
     1
102
RTVSPost2010Prop45
280
     0
102
RTVSPost2010PropOp45
 70
     1
102
RTVSPost2010Prop46
 90
       50
102
RTVSPost2010PropOp46
 70
     1
102
RTVSPost2010Prop47
 90
       50
102
RTVSPost2010PropOp47
 70
     1
102
RTVSPost2010Prop48
 90
       50
102
RTVSPost2010PropOp48
 70
     1
102
RTVSPost2010Prop49
280
     0
102
RTVSPost2010PropOp49
 70
     1
102
RTVSPost2010Prop50
 90
       50
102
RTVSPost2010PropOp50
 70
     1
102
RTVSPost2010Prop51ColorIndex
 90
      256
102
RTVSPost2010Prop51ColorRGB
 90
-16777216
102
RTVSPost2010PropOp51
 70
     0
102
RTVSPost2010Prop52
140
1.0
102
RTVSPost2010PropOp52
 70
     0
102
RTVSPost2010Prop53
 90
        2
102
RTVSPost2010PropOp53
 70
     1
102
RTVSPost2010Prop54
  1
strokes_ogs.tif
102
RTVSPost2010PropOp54
 70
     1
102
RTVSPost2010Prop55
280
     0
102
RTVSPost2010PropOp55
 70
     1
102
RTVSPost2010Prop56
140
1.0
102
RTVSPost2010PropOp56
 70
     1
102
RTVSPost2010Prop57
140
1.0
102
RTVSPost2010PropOp57
 70
     1
  0
XRECORD
  5
15F
102
{ACAD_REACTORS
330
15E
102
}
330
15E
100
AcDbXrecord
280
     1
102
RTVSPropertyOp0
 70
     1
102
RTVSPropertyOp1
 70
     1
102
RTVSPropertyOp2
 70
     1
102
RTVSPropertyOp3
 70
     1
102
RTVSPropertyOp4
 70
     1
102
RTVSPropertyOp5
 70
     1
102
RTVSPropertyOp6
 70
     1
102
RTVSPropertyOp7
 70
     1
102
RTVSPropertyOp8
 70
     1
102
RTVSPropertyOp9
 70
     1
102
RTVSPropertyOp10
 70
     1
102
RTVSPropertyOp11
 70
     1
102
RTVSPropertyOp12
 70
     1
102
RTVSPropertyOp13
 70
     1
102
RTVSPropertyOp14
 70
     1
102
RTVSPropertyOp15
 70
     1
102
RTVSPropertyOp16
 70
     1
102
RTVSPropertyOp17
 70
     1
102
RTVSPropertyOp18
 70
     1
102
RTVSPropertyOp19
 70
     1
102
RTVSPropertyOp20
 70
     1
102
RTVSPropertyOp21
 70
     1
102
RTVSPropertyOp22
 70
     1
102
RTVSPropertyOp23
 70
     1
102
RTVSPropertyOp24
 70
     1
102
RTVSPropertyOp25
 70
     1
102
RTVSPropertyOp26
 70
     1
102
RTVSPropertyOp27
 70
     1
102
RTVSPropertyOp28
 70
     1
102
RTVSPropertyOp29
 70
     1
102
RTVSPropertyOp30
 70
     1
102
RTVSPropertyOp31
 70
     1
102
RTVSPropertyOp32
 70
     1
102
RTVSPropertyOp33
 70
     1
102
RTVSPropertyOp34
 70
     1
102
RTVSPropertyOp35
 70
     1
102
RTVSPropertyOp36
 70
     1
102
RTVSPropertyOp37
 70
     1
102
RTVSPropertyOp38
 70
     1
102
RTVSPropertyOp39
 70
     1
102
RTVSPropertyOp40
 70
     1
102
RTVSPropertyOp41
 70
     1
102
RTVSPropertyOp42
 70
     1
102
RTVSPropertyOp43
 70
     1
102
RTVSPropertyOp44
 70
     1
102
RTVSPropertyOp45
 70
     1
102
RTVSPropertyOp46
 70
     1
102
RTVSPropertyOp47
 70
     1
102
RTVSPropertyOp48
 70
     1
102
RTVSPropertyOp49
 70
     1
102
RTVSPropertyOp50
 70
     1
102
RTVSPropertyOp51
 70
     0
102
RTVSPropertyOp52
 70
     0
102
RTVSPropertyOp53
 70
     1
102
RTVSPropertyOp54
 70
     1
102
RTVSPropertyOp55
 70
     1
102
RTVSPropertyOp56
 70
     1
102
RTVSPropertyOp57
 70
     1
102
RTVSPost2010Prop28
280
     0
102
RTVSPost2010PropOp28
 70
     1
102
RTVSPost2010Prop29
280
     1
102
RTVSPost2010PropOp29
 70
     1
102
RTVSPost2010Prop30
280
     1
102
RTVSPost2010PropOp30
 70
     1
102
RTVSPost2010Prop31
280
     0
102
RTVSPost2010PropOp31
 70
     1
102
RTVSPost2010Prop32
280
     0
102
RTVSPost2010PropOp32
 70
     1
102
RTVSPost2010Prop33
280
     0
102
RTVSPost2010PropOp33
 70
     1
102
RTVSPost2010Prop34
280
     0
102
RTVSPost2010PropOp34
 70
     1
102
RTVSPost2010Prop35
280
     0
102
RTVSPost2010PropOp35
 70
     1
102
RTVSPost2010Prop36
280
     0
102
RTVSPost2010PropOp36
 70
     1
102
RTVSPost2010Prop37
 90
       50
102
RTVSPost2010PropOp37
 70
     1
102
RTVSPost2010Prop38
140
0.0
102
RTVSPost2010PropOp38
 70
     1
102
RTVSPost2010Prop39
140
1.0
102
RTVSPost2010PropOp39
 70
     1
102
RTVSPost2010Prop40
 90
        0
102
RTVSPost2010PropOp40
 70
     1
102
RTVSPost2010Prop41ColorIndex
 90
       18
102
RTVSPost2010Prop41ColorRGB
 90
        0
102
RTVSPost2010PropOp41
 70
     1
102
RTVSPost2010Prop42
 90
       50
102
RTVSPost2010PropOp42
 70
     1
102
RTVSPost2010Prop43
 90
        3
102
RTVSPost2010PropOp43
 70
     1
102
RTVSPost2010Prop44ColorIndex
 90
        5
102
RTVSPost2010Prop44ColorRGB
 90
      255
102
RTVSPost2010PropOp44
 70
     1
102
RTVSPost2010Prop45
280
     0
102
RTVSPost2010PropOp45
 70
     1
102
RTVSPost2010Prop46
 90
       50
102
RTVSPost2010PropOp46
 70
     1
102
RTVSPost2010Prop47
 90
       50
102
RTVSPost2010PropOp47
 70
     1
102
RTVSPost2010Prop48
 90
       50
102
RTVSPost2010PropOp48
 70
     1
102
RTVSPost2010Prop49
280
     0
102
RTVSPost2010PropOp49
 70
     1
102
RTVSPost2010Prop50
 90
       50
102
RTVSPost2010PropOp50
 70
     1
102
RTVSPost2010Prop51ColorIndex
 90
      256
102
RTVSPost2010Prop51ColorRGB
 90
-16777216
102
RTVSPost2010PropOp51
 70
     0
102
RTVSPost2010Prop52
140
1.0
102
RTVSPost2010PropOp52
 70
     0
102
RTVSPost2010Prop53
 90
        2
102
RTVSPost2010PropOp53
 70
     1
102
RTVSPost2010Prop54
  1
strokes_ogs.tif
102
RTVSPost2010PropOp54
 70
     1
102
RTVSPost2010Prop55
280
     0
102
RTVSPost2010PropOp55
 70
     1
102
RTVSPost2010Prop56
140
1.0
102
RTVSPost2010PropOp56
 70
     1
102
RTVSPost2010Prop57
140
1.0
102
RTVSPost2010PropOp57
 70
     1
  0
XRECORD
  5
167
102
{ACAD_REACTORS
330
166
102
}
330
166
100
AcDbXrecord
280
     1
102
RTVSPropertyOp0
 70
     1
102
RTVSPropertyOp1
 70
     1
102
RTVSPropertyOp2
 70
     1
102
RTVSPropertyOp3
 70
     1
102
RTVSPropertyOp4
 70
     1
102
RTVSPropertyOp5
 70
     1
102
RTVSPropertyOp6
 70
     1
102
RTVSPropertyOp7
 70
     1
102
RTVSPropertyOp8
 70
     1
102
RTVSPropertyOp9
 70
     1
102
RTVSPropertyOp10
 70
     1
102
RTVSPropertyOp11
 70
     1
102
RTVSPropertyOp12
 70
     1
102
RTVSPropertyOp13
 70
     1
102
RTVSPropertyOp14
 70
     1
102
RTVSPropertyOp15
 70
     1
102
RTVSPropertyOp16
 70
     1
102
RTVSPropertyOp17
 70
     1
102
RTVSPropertyOp18
 70
     1
102
RTVSPropertyOp19
 70
     1
102
RTVSPropertyOp20
 70
     1
102
RTVSPropertyOp21
 70
     1
102
RTVSPropertyOp22
 70
     1
102
RTVSPropertyOp23
 70
     1
102
RTVSPropertyOp24
 70
     1
102
RTVSPropertyOp25
 70
     1
102
RTVSPropertyOp26
 70
     1
102
RTVSPropertyOp27
 70
     1
102
RTVSPropertyOp28
 70
     1
102
RTVSPropertyOp29
 70
     1
102
RTVSPropertyOp30
 70
     1
102
RTVSPropertyOp31
 70
     1
102
RTVSPropertyOp32
 70
     1
102
RTVSPropertyOp33
 70
     1
102
RTVSPropertyOp34
 70
     1
102
RTVSPropertyOp35
 70
     1
102
RTVSPropertyOp36
 70
     1
102
RTVSPropertyOp37
 70
     1
102
RTVSPropertyOp38
 70
     1
102
RTVSPropertyOp39
 70
     1
102
RTVSPropertyOp40
 70
     1
102
RTVSPropertyOp41
 70
     1
102
RTVSPropertyOp42
 70
     1
102
RTVSPropertyOp43
 70
     1
102
RTVSPropertyOp44
 70
     1
102
RTVSPropertyOp45
 70
     1
102
RTVSPropertyOp46
 70
     1
102
RTVSPropertyOp47
 70
     1
102
RTVSPropertyOp48
 70
     1
102
RTVSPropertyOp49
 70
     1
102
RTVSPropertyOp50
 70
     1
102
RTVSPropertyOp51
 70
     0
102
RTVSPropertyOp52
 70
     0
102
RTVSPropertyOp53
 70
     1
102
RTVSPropertyOp54
 70
     1
102
RTVSPropertyOp55
 70
     1
102
RTVSPropertyOp56
 70
     1
102
RTVSPropertyOp57
 70
     1
102
RTVSPost2010Prop28
280
     0
102
RTVSPost2010PropOp28
 70
     1
102
RTVSPost2010Prop29
280
     1
102
RTVSPost2010PropOp29
 70
     1
102
RTVSPost2010Prop30
280
     1
102
RTVSPost2010PropOp30
 70
     1
102
RTVSPost2010Prop31
280
     0
102
RTVSPost2010PropOp31
 70
     1
102
RTVSPost2010Prop32
280
     0
102
RTVSPost2010PropOp32
 70
     1
102
RTVSPost2010Prop33
280
     0
102
RTVSPost2010PropOp33
 70
     1
102
RTVSPost2010Prop34
280
     0
102
RTVSPost2010PropOp34
 70
     1
102
RTVSPost2010Prop35
280
     0
102
RTVSPost2010PropOp35
 70
     1
102
RTVSPost2010Prop36
280
     0
102
RTVSPost2010PropOp36
 70
     1
102
RTVSPost2010Prop37
 90
       50
102
RTVSPost2010PropOp37
 70
     1
102
RTVSPost2010Prop38
140
0.0
102
RTVSPost2010PropOp38
 70
     1
102
RTVSPost2010Prop39
140
1.0
102
RTVSPost2010PropOp39
 70
     1
102
RTVSPost2010Prop40
 90
        0
102
RTVSPost2010PropOp40
 70
     1
102
RTVSPost2010Prop41ColorIndex
 90
       18
102
RTVSPost2010Prop41ColorRGB
 90
        0
102
RTVSPost2010PropOp41
 70
     1
102
RTVSPost2010Prop42
 90
       50
102
RTVSPost2010PropOp42
 70
     1
102
RTVSPost2010Prop43
 90
        3
102
RTVSPost2010PropOp43
 70
     1
102
RTVSPost2010Prop44ColorIndex
 90
        5
102
RTVSPost2010Prop44ColorRGB
 90
      255
102
RTVSPost2010PropOp44
 70
     1
102
RTVSPost2010Prop45
280
     0
102
RTVSPost2010PropOp45
 70
     1
102
RTVSPost2010Prop46
 90
       50
102
RTVSPost2010PropOp46
 70
     1
102
RTVSPost2010Prop47
 90
       50
102
RTVSPost2010PropOp47
 70
     1
102
RTVSPost2010Prop48
 90
       50
102
RTVSPost2010PropOp48
 70
     1
102
RTVSPost2010Prop49
280
     0
102
RTVSPost2010PropOp49
 70
     1
102
RTVSPost2010Prop50
 90
       50
102
RTVSPost2010PropOp50
 70
     1
102
RTVSPost2010Prop51ColorIndex
 90
      256
102
RTVSPost2010Prop51ColorRGB
 90
-16777216
102
RTVSPost2010PropOp51
 70
     0
102
RTVSPost2010Prop52
140
1.0
102
RTVSPost2010PropOp52
 70
     0
102
RTVSPost2010Prop53
 90
        2
102
RTVSPost2010PropOp53
 70
     1
102
RTVSPost2010Prop54
  1
strokes_ogs.tif
102
RTVSPost2010PropOp54
 70
     1
102
RTVSPost2010Prop55
280
     0
102
RTVSPost2010PropOp55
 70
     1
102
RTVSPost2010Prop56
140
1.0
102
RTVSPost2010PropOp56
 70
     1
102
RTVSPost2010Prop57
140
1.0
102
RTVSPost2010PropOp57
 70
     1
  0
XRECORD
  5
15B
102
{ACAD_REACTORS
330
15A
102
}
330
15A
100
AcDbXrecord
280
     1
102
RTVSPropertyOp0
 70
     1
102
RTVSPropertyOp1
 70
     1
102
RTVSPropertyOp2
 70
     1
102
RTVSPropertyOp3
 70
     1
102
RTVSPropertyOp4
 70
     1
102
RTVSPropertyOp5
 70
     1
102
RTVSPropertyOp6
 70
     1
102
RTVSPropertyOp7
 70
     1
102
RTVSPropertyOp8
 70
     1
102
RTVSPropertyOp9
 70
     1
102
RTVSPropertyOp10
 70
     1
102
RTVSPropertyOp11
 70
     1
102
RTVSPropertyOp12
 70
     1
102
RTVSPropertyOp13
 70
     1
102
RTVSPropertyOp14
 70
     1
102
RTVSPropertyOp15
 70
     1
102
RTVSPropertyOp16
 70
     1
102
RTVSPropertyOp17
 70
     1
102
RTVSPropertyOp18
 70
     1
102
RTVSPropertyOp19
 70
     1
102
RTVSPropertyOp20
 70
     1
102
RTVSPropertyOp21
 70
     1
102
RTVSPropertyOp22
 70
     1
102
RTVSPropertyOp23
 70
     1
102
RTVSPropertyOp24
 70
     1
102
RTVSPropertyOp25
 70
     1
102
RTVSPropertyOp26
 70
     1
102
RTVSPropertyOp27
 70
     1
102
RTVSPropertyOp28
 70
     1
102
RTVSPropertyOp29
 70
     1
102
RTVSPropertyOp30
 70
     1
102
RTVSPropertyOp31
 70
     1
102
RTVSPropertyOp32
 70
     1
102
RTVSPropertyOp33
 70
     1
102
RTVSPropertyOp34
 70
     1
102
RTVSPropertyOp35
 70
     1
102
RTVSPropertyOp36
 70
     1
102
RTVSPropertyOp37
 70
     1
102
RTVSPropertyOp38
 70
     1
102
RTVSPropertyOp39
 70
     1
102
RTVSPropertyOp40
 70
     1
102
RTVSPropertyOp41
 70
     1
102
RTVSPropertyOp42
 70
     1
102
RTVSPropertyOp43
 70
     1
102
RTVSPropertyOp44
 70
     1
102
RTVSPropertyOp45
 70
     1
102
RTVSPropertyOp46
 70
     1
102
RTVSPropertyOp47
 70
     1
102
RTVSPropertyOp48
 70
     1
102
RTVSPropertyOp49
 70
     1
102
RTVSPropertyOp50
 70
     1
102
RTVSPropertyOp51
 70
     0
102
RTVSPropertyOp52
 70
     0
102
RTVSPropertyOp53
 70
     1
102
RTVSPropertyOp54
 70
     1
102
RTVSPropertyOp55
 70
     1
102
RTVSPropertyOp56
 70
     1
102
RTVSPropertyOp57
 70
     1
102
RTVSPost2010Prop28
280
     0
102
RTVSPost2010PropOp28
 70
     1
102
RTVSPost2010Prop29
280
     1
102
RTVSPost2010PropOp29
 70
     1
102
RTVSPost2010Prop30
280
     1
102
RTVSPost2010PropOp30
 70
     1
102
RTVSPost2010Prop31
280
     0
102
RTVSPost2010PropOp31
 70
     1
102
RTVSPost2010Prop32
280
     0
102
RTVSPost2010PropOp32
 70
     1
102
RTVSPost2010Prop33
280
     0
102
RTVSPost2010PropOp33
 70
     1
102
RTVSPost2010Prop34
280
     0
102
RTVSPost2010PropOp34
 70
     1
102
RTVSPost2010Prop35
280
     0
102
RTVSPost2010PropOp35
 70
     1
102
RTVSPost2010Prop36
280
     0
102
RTVSPost2010PropOp36
 70
     1
102
RTVSPost2010Prop37
 90
       50
102
RTVSPost2010PropOp37
 70
     1
102
RTVSPost2010Prop38
140
0.0
102
RTVSPost2010PropOp38
 70
     1
102
RTVSPost2010Prop39
140
1.0
102
RTVSPost2010PropOp39
 70
     1
102
RTVSPost2010Prop40
 90
        0
102
RTVSPost2010PropOp40
 70
     1
102
RTVSPost2010Prop41ColorIndex
 90
       18
102
RTVSPost2010Prop41ColorRGB
 90
        0
102
RTVSPost2010PropOp41
 70
     1
102
RTVSPost2010Prop42
 90
       50
102
RTVSPost2010PropOp42
 70
     1
102
RTVSPost2010Prop43
 90
        3
102
RTVSPost2010PropOp43
 70
     1
102
RTVSPost2010Prop44ColorIndex
 90
        5
102
RTVSPost2010Prop44ColorRGB
 90
      255
102
RTVSPost2010PropOp44
 70
     1
102
RTVSPost2010Prop45
280
     0
102
RTVSPost2010PropOp45
 70
     1
102
RTVSPost2010Prop46
 90
       50
102
RTVSPost2010PropOp46
 70
     1
102
RTVSPost2010Prop47
 90
       50
102
RTVSPost2010PropOp47
 70
     1
102
RTVSPost2010Prop48
 90
       50
102
RTVSPost2010PropOp48
 70
     1
102
RTVSPost2010Prop49
280
     0
102
RTVSPost2010PropOp49
 70
     1
102
RTVSPost2010Prop50
 90
       50
102
RTVSPost2010PropOp50
 70
     1
102
RTVSPost2010Prop51ColorIndex
 90
      256
102
RTVSPost2010Prop51ColorRGB
 90
-16777216
102
RTVSPost2010PropOp51
 70
     0
102
RTVSPost2010Prop52
140
1.0
102
RTVSPost2010PropOp52
 70
     0
102
RTVSPost2010Prop53
 90
        2
102
RTVSPost2010PropOp53
 70
     1
102
RTVSPost2010Prop54
  1
strokes_ogs.tif
102
RTVSPost2010PropOp54
 70
     1
102
RTVSPost2010Prop55
280
     0
102
RTVSPost2010PropOp55
 70
     1
102
RTVSPost2010Prop56
140
1.0
102
RTVSPost2010PropOp56
 70
     1
102
RTVSPost2010Prop57
140
1.0
102
RTVSPost2010PropOp57
 70
     1
  0
XRECORD
  5
15D
102
{ACAD_REACTORS
330
15C
102
}
330
15C
100
AcDbXrecord
280
     1
102
RTVSPropertyOp0
 70
     1
102
RTVSPropertyOp1
 70
     1
102
RTVSPropertyOp2
 70
     1
102
RTVSPropertyOp3
 70
     1
102
RTVSPropertyOp4
 70
     1
102
RTVSPropertyOp5
 70
     1
102
RTVSPropertyOp6
 70
     1
102
RTVSPropertyOp7
 70
     1
102
RTVSPropertyOp8
 70
     1
102
RTVSPropertyOp9
 70
     1
102
RTVSPropertyOp10
 70
     1
102
RTVSPropertyOp11
 70
     1
102
RTVSPropertyOp12
 70
     1
102
RTVSPropertyOp13
 70
     1
102
RTVSPropertyOp14
 70
     1
102
RTVSPropertyOp15
 70
     1
102
RTVSPropertyOp16
 70
     1
102
RTVSPropertyOp17
 70
     1
102
RTVSPropertyOp18
 70
     1
102
RTVSPropertyOp19
 70
     1
102
RTVSPropertyOp20
 70
     1
102
RTVSPropertyOp21
 70
     1
102
RTVSPropertyOp22
 70
     1
102
RTVSPropertyOp23
 70
     1
102
RTVSPropertyOp24
 70
     1
102
RTVSPropertyOp25
 70
     1
102
RTVSPropertyOp26
 70
     1
102
RTVSPropertyOp27
 70
     1
102
RTVSPropertyOp28
 70
     1
102
RTVSPropertyOp29
 70
     1
102
RTVSPropertyOp30
 70
     1
102
RTVSPropertyOp31
 70
     1
102
RTVSPropertyOp32
 70
     1
102
RTVSPropertyOp33
 70
     1
102
RTVSPropertyOp34
 70
     1
102
RTVSPropertyOp35
 70
     1
102
RTVSPropertyOp36
 70
     1
102
RTVSPropertyOp37
 70
     1
102
RTVSPropertyOp38
 70
     1
102
RTVSPropertyOp39
 70
     1
102
RTVSPropertyOp40
 70
     1
102
RTVSPropertyOp41
 70
     1
102
RTVSPropertyOp42
 70
     1
102
RTVSPropertyOp43
 70
     1
102
RTVSPropertyOp44
 70
     1
102
RTVSPropertyOp45
 70
     1
102
RTVSPropertyOp46
 70
     1
102
RTVSPropertyOp47
 70
     1
102
RTVSPropertyOp48
 70
     1
102
RTVSPropertyOp49
 70
     1
102
RTVSPropertyOp50
 70
     1
102
RTVSPropertyOp51
 70
     0
102
RTVSPropertyOp52
 70
     0
102
RTVSPropertyOp53
 70
     1
102
RTVSPropertyOp54
 70
     1
102
RTVSPropertyOp55
 70
     1
102
RTVSPropertyOp56
 70
     1
102
RTVSPropertyOp57
 70
     1
102
RTVSPost2010Prop28
280
     0
102
RTVSPost2010PropOp28
 70
     1
102
RTVSPost2010Prop29
280
     1
102
RTVSPost2010PropOp29
 70
     1
102
RTVSPost2010Prop30
280
     1
102
RTVSPost2010PropOp30
 70
     1
102
RTVSPost2010Prop31
280
     0
102
RTVSPost2010PropOp31
 70
     1
102
RTVSPost2010Prop32
280
     0
102
RTVSPost2010PropOp32
 70
     1
102
RTVSPost2010Prop33
280
     0
102
RTVSPost2010PropOp33
 70
     1
102
RTVSPost2010Prop34
280
     0
102
RTVSPost2010PropOp34
 70
     1
102
RTVSPost2010Prop35
280
     0
102
RTVSPost2010PropOp35
 70
     1
102
RTVSPost2010Prop36
280
     0
102
RTVSPost2010PropOp36
 70
     1
102
RTVSPost2010Prop37
 90
       50
102
RTVSPost2010PropOp37
 70
     1
102
RTVSPost2010Prop38
140
0.0
102
RTVSPost2010PropOp38
 70
     1
102
RTVSPost2010Prop39
140
1.0
102
RTVSPost2010PropOp39
 70
     1
102
RTVSPost2010Prop40
 90
        0
102
RTVSPost2010PropOp40
 70
     1
102
RTVSPost2010Prop41ColorIndex
 90
       18
102
RTVSPost2010Prop41ColorRGB
 90
        0
102
RTVSPost2010PropOp41
 70
     1
102
RTVSPost2010Prop42
 90
       50
102
RTVSPost2010PropOp42
 70
     1
102
RTVSPost2010Prop43
 90
        3
102
RTVSPost2010PropOp43
 70
     1
102
RTVSPost2010Prop44ColorIndex
 90
        5
102
RTVSPost2010Prop44ColorRGB
 90
      255
102
RTVSPost2010PropOp44
 70
     1
102
RTVSPost2010Prop45
280
     0
102
RTVSPost2010PropOp45
 70
     1
102
RTVSPost2010Prop46
 90
       50
102
RTVSPost2010PropOp46
 70
     1
102
RTVSPost2010Prop47
 90
       50
102
RTVSPost2010PropOp47
 70
     1
102
RTVSPost2010Prop48
 90
       50
102
RTVSPost2010PropOp48
 70
     1
102
RTVSPost2010Prop49
280
     0
102
RTVSPost2010PropOp49
 70
     1
102
RTVSPost2010Prop50
 90
       50
102
RTVSPost2010PropOp50
 70
     1
102
RTVSPost2010Prop51ColorIndex
 90
      256
102
RTVSPost2010Prop51ColorRGB
 90
-16777216
102
RTVSPost2010PropOp51
 70
     0
102
RTVSPost2010Prop52
140
1.0
102
RTVSPost2010PropOp52
 70
     0
102
RTVSPost2010Prop53
 90
        2
102
RTVSPost2010PropOp53
 70
     1
102
RTVSPost2010Prop54
  1
strokes_ogs.tif
102
RTVSPost2010PropOp54
 70
     1
102
RTVSPost2010Prop55
280
     0
102
RTVSPost2010PropOp55
 70
     1
102
RTVSPost2010Prop56
140
1.0
102
RTVSPost2010PropOp56
 70
     1
102
RTVSPost2010Prop57
140
1.0
102
RTVSPost2010PropOp57
 70
     1
  0
XRECORD
  5
16D
102
{ACAD_REACTORS
330
16C
102
}
330
16C
100
AcDbXrecord
280
     1
102
RTVSPropertyOp0
 70
     0
102
RTVSPropertyOp1
 70
     0
102
RTVSPropertyOp2
 70
     0
102
RTVSPropertyOp3
 70
     0
102
RTVSPropertyOp4
 70
     0
102
RTVSPropertyOp5
 70
     0
102
RTVSPropertyOp6
 70
     0
102
RTVSPropertyOp7
 70
     0
102
RTVSPropertyOp8
 70
     0
102
RTVSPropertyOp9
 70
     0
102
RTVSPropertyOp10
 70
     0
102
RTVSPropertyOp11
 70
     0
102
RTVSPropertyOp12
 70
     0
102
RTVSPropertyOp13
 70
     0
102
RTVSPropertyOp14
 70
     2
102
RTVSPropertyOp15
 70
     0
102
RTVSPropertyOp16
 70
     0
102
RTVSPropertyOp17
 70
     0
102
RTVSPropertyOp18
 70
     0
102
RTVSPropertyOp19
 70
     0
102
RTVSPropertyOp20
 70
     0
102
RTVSPropertyOp21
 70
     0
102
RTVSPropertyOp22
 70
     0
102
RTVSPropertyOp23
 70
     0
102
RTVSPropertyOp24
 70
     0
102
RTVSPropertyOp25
 70
     0
102
RTVSPropertyOp26
 70
     0
102
RTVSPropertyOp27
 70
     0
102
RTVSPropertyOp28
 70
     0
102
RTVSPropertyOp29
 70
     0
102
RTVSPropertyOp30
 70
     0
102
RTVSPropertyOp31
 70
     0
102
RTVSPropertyOp32
 70
     0
102
RTVSPropertyOp33
 70
     0
102
RTVSPropertyOp34
 70
     0
102
RTVSPropertyOp35
 70
     0
102
RTVSPropertyOp36
 70
     0
102
RTVSPropertyOp37
 70
     0
102
RTVSPropertyOp38
 70
     0
102
RTVSPropertyOp39
 70
     0
102
RTVSPropertyOp40
 70
     0
102
RTVSPropertyOp41
 70
     0
102
RTVSPropertyOp42
 70
     0
102
RTVSPropertyOp43
 70
     0
102
RTVSPropertyOp44
 70
     0
102
RTVSPropertyOp45
 70
     0
102
RTVSPropertyOp46
 70
     0
102
RTVSPropertyOp47
 70
     0
102
RTVSPropertyOp48
 70
     0
102
RTVSPropertyOp49
 70
     0
102
RTVSPropertyOp50
 70
     0
102
RTVSPropertyOp51
 70
     0
102
RTVSPropertyOp52
 70
     0
102
RTVSPropertyOp53
 70
     0
102
RTVSPropertyOp54
 70
     0
102
RTVSPropertyOp55
 70
     0
102
RTVSPropertyOp56
 70
     0
102
RTVSPropertyOp57
 70
     0
102
RTVSPost2010Prop28
280
     0
102
RTVSPost2010PropOp28
 70
     0
102
RTVSPost2010Prop29
280
     1
102
RTVSPost2010PropOp29
 70
     0
102
RTVSPost2010Prop30
280
     1
102
RTVSPost2010PropOp30
 70
     0
102
RTVSPost2010Prop31
280
     0
102
RTVSPost2010PropOp31
 70
     0
102
RTVSPost2010Prop32
280
     0
102
RTVSPost2010PropOp32
 70
     0
102
RTVSPost2010Prop33
280
     0
102
RTVSPost2010PropOp33
 70
     0
102
RTVSPost2010Prop34
280
     0
102
RTVSPost2010PropOp34
 70
     0
102
RTVSPost2010Prop35
280
     0
102
RTVSPost2010PropOp35
 70
     0
102
RTVSPost2010Prop36
280
     0
102
RTVSPost2010PropOp36
 70
     0
102
RTVSPost2010Prop37
 90
       50
102
RTVSPost2010PropOp37
 70
     0
102
RTVSPost2010Prop38
140
0.0
102
RTVSPost2010PropOp38
 70
     0
102
RTVSPost2010Prop39
140
1.0
102
RTVSPost2010PropOp39
 70
     0
102
RTVSPost2010Prop40
 90
        0
102
RTVSPost2010PropOp40
 70
     0
102
RTVSPost2010Prop41ColorIndex
 90
       18
102
RTVSPost2010Prop41ColorRGB
 90
        0
102
RTVSPost2010PropOp41
 70
     0
102
RTVSPost2010Prop42
 90
       50
102
RTVSPost2010PropOp42
 70
     0
102
RTVSPost2010Prop43
 90
        3
102
RTVSPost2010PropOp43
 70
     0
102
RTVSPost2010Prop44ColorIndex
 90
        5
102
RTVSPost2010Prop44ColorRGB
 90
      255
102
RTVSPost2010PropOp44
 70
     0
102
RTVSPost2010Prop45
280
     0
102
RTVSPost2010PropOp45
 70
     0
102
RTVSPost2010Prop46
 90
       50
102
RTVSPost2010PropOp46
 70
     0
102
RTVSPost2010Prop47
 90
       50
102
RTVSPost2010PropOp47
 70
     0
102
RTVSPost2010Prop48
 90
       50
102
RTVSPost2010PropOp48
 70
     0
102
RTVSPost2010Prop49
280
     0
102
RTVSPost2010PropOp49
 70
     0
102
RTVSPost2010Prop50
 90
       50
102
RTVSPost2010PropOp50
 70
     0
102
RTVSPost2010Prop51ColorIndex
 90
      256
102
RTVSPost2010Prop51ColorRGB
 90
-16777216
102
RTVSPost2010PropOp51
 70
     0
102
RTVSPost2010Prop52
140
1.0
102
RTVSPost2010PropOp52
 70
     0
102
RTVSPost2010Prop53
 90
        2
102
RTVSPost2010PropOp53
 70
     0
102
RTVSPost2010Prop54
  1
strokes_ogs.tif
102
RTVSPost2010PropOp54
 70
     0
102
RTVSPost2010Prop55
280
     0
102
RTVSPost2010PropOp55
 70
     0
102
RTVSPost2010Prop56
140
1.0
102
RTVSPost2010PropOp56
 70
     0
102
RTVSPost2010Prop57
140
1.0
102
RTVSPost2010PropOp57
 70
     0
  0
XRECORD
  5
165
102
{ACAD_REACTORS
330
164
102
}
330
164
100
AcDbXrecord
280
     1
102
RTVSPropertyOp0
 70
     1
102
RTVSPropertyOp1
 70
     1
102
RTVSPropertyOp2
 70
     1
102
RTVSPropertyOp3
 70
     1
102
RTVSPropertyOp4
 70
     1
102
RTVSPropertyOp5
 70
     1
102
RTVSPropertyOp6
 70
     1
102
RTVSPropertyOp7
 70
     1
102
RTVSPropertyOp8
 70
     1
102
RTVSPropertyOp9
 70
     1
102
RTVSPropertyOp10
 70
     1
102
RTVSPropertyOp11
 70
     1
102
RTVSPropertyOp12
 70
     1
102
RTVSPropertyOp13
 70
     1
102
RTVSPropertyOp14
 70
     1
102
RTVSPropertyOp15
 70
     1
102
RTVSPropertyOp16
 70
     1
102
RTVSPropertyOp17
 70
     1
102
RTVSPropertyOp18
 70
     1
102
RTVSPropertyOp19
 70
     1
102
RTVSPropertyOp20
 70
     1
102
RTVSPropertyOp21
 70
     1
102
RTVSPropertyOp22
 70
     1
102
RTVSPropertyOp23
 70
     1
102
RTVSPropertyOp24
 70
     1
102
RTVSPropertyOp25
 70
     1
102
RTVSPropertyOp26
 70
     1
102
RTVSPropertyOp27
 70
     1
102
RTVSPropertyOp28
 70
     1
102
RTVSPropertyOp29
 70
     1
102
RTVSPropertyOp30
 70
     1
102
RTVSPropertyOp31
 70
     1
102
RTVSPropertyOp32
 70
     1
102
RTVSPropertyOp33
 70
     1
102
RTVSPropertyOp34
 70
     1
102
RTVSPropertyOp35
 70
     1
102
RTVSPropertyOp36
 70
     1
102
RTVSPropertyOp37
 70
     1
102
RTVSPropertyOp38
 70
     1
102
RTVSPropertyOp39
 70
     1
102
RTVSPropertyOp40
 70
     1
102
RTVSPropertyOp41
 70
     1
102
RTVSPropertyOp42
 70
     1
102
RTVSPropertyOp43
 70
     1
102
RTVSPropertyOp44
 70
     1
102
RTVSPropertyOp45
 70
     1
102
RTVSPropertyOp46
 70
     1
102
RTVSPropertyOp47
 70
     1
102
RTVSPropertyOp48
 70
     1
102
RTVSPropertyOp49
 70
     1
102
RTVSPropertyOp50
 70
     1
102
RTVSPropertyOp51
 70
     0
102
RTVSPropertyOp52
 70
     0
102
RTVSPropertyOp53
 70
     1
102
RTVSPropertyOp54
 70
     1
102
RTVSPropertyOp55
 70
     1
102
RTVSPropertyOp56
 70
     1
102
RTVSPropertyOp57
 70
     1
102
RTVSPost2010Prop28
280
     0
102
RTVSPost2010PropOp28
 70
     1
102
RTVSPost2010Prop29
280
     1
102
RTVSPost2010PropOp29
 70
     1
102
RTVSPost2010Prop30
280
     1
102
RTVSPost2010PropOp30
 70
     1
102
RTVSPost2010Prop31
280
     0
102
RTVSPost2010PropOp31
 70
     1
102
RTVSPost2010Prop32
280
     0
102
RTVSPost2010PropOp32
 70
     1
102
RTVSPost2010Prop33
280
     0
102
RTVSPost2010PropOp33
 70
     1
102
RTVSPost2010Prop34
280
     0
102
RTVSPost2010PropOp34
 70
     1
102
RTVSPost2010Prop35
280
     0
102
RTVSPost2010PropOp35
 70
     1
102
RTVSPost2010Prop36
280
     0
102
RTVSPost2010PropOp36
 70
     1
102
RTVSPost2010Prop37
 90
       50
102
RTVSPost2010PropOp37
 70
     1
102
RTVSPost2010Prop38
140
0.0
102
RTVSPost2010PropOp38
 70
     1
102
RTVSPost2010Prop39
140
1.0
102
RTVSPost2010PropOp39
 70
     1
102
RTVSPost2010Prop40
 90
        0
102
RTVSPost2010PropOp40
 70
     1
102
RTVSPost2010Prop41ColorIndex
 90
       18
102
RTVSPost2010Prop41ColorRGB
 90
        0
102
RTVSPost2010PropOp41
 70
     1
102
RTVSPost2010Prop42
 90
       50
102
RTVSPost2010PropOp42
 70
     1
102
RTVSPost2010Prop43
 90
        3
102
RTVSPost2010PropOp43
 70
     1
102
RTVSPost2010Prop44ColorIndex
 90
        5
102
RTVSPost2010Prop44ColorRGB
 90
      255
102
RTVSPost2010PropOp44
 70
     1
102
RTVSPost2010Prop45
280
     0
102
RTVSPost2010PropOp45
 70
     1
102
RTVSPost2010Prop46
 90
       50
102
RTVSPost2010PropOp46
 70
     1
102
RTVSPost2010Prop47
 90
       50
102
RTVSPost2010PropOp47
 70
     1
102
RTVSPost2010Prop48
 90
       50
102
RTVSPost2010PropOp48
 70
     1
102
RTVSPost2010Prop49
280
     0
102
RTVSPost2010PropOp49
 70
     1
102
RTVSPost2010Prop50
 90
       50
102
RTVSPost2010PropOp50
 70
     1
102
RTVSPost2010Prop51ColorIndex
 90
      256
102
RTVSPost2010Prop51ColorRGB
 90
-16777216
102
RTVSPost2010PropOp51
 70
     0
102
RTVSPost2010Prop52
140
1.0
102
RTVSPost2010PropOp52
 70
     0
102
RTVSPost2010Prop53
 90
        2
102
RTVSPost2010PropOp53
 70
     1
102
RTVSPost2010Prop54
  1
strokes_ogs.tif
102
RTVSPost2010PropOp54
 70
     1
102
RTVSPost2010Prop55
280
     0
102
RTVSPost2010PropOp55
 70
     1
102
RTVSPost2010Prop56
140
1.0
102
RTVSPost2010PropOp56
 70
     1
102
RTVSPost2010Prop57
140
1.0
102
RTVSPost2010PropOp57
 70
     1
  0
XRECORD
  5
14B
102
{ACAD_REACTORS
330
14A
102
}
330
14A
100
AcDbXrecord
280
     1
102
RTVSPropertyOp0
 70
     1
102
RTVSPropertyOp1
 70
     1
102
RTVSPropertyOp2
 70
     1
102
RTVSPropertyOp3
 70
     1
102
RTVSPropertyOp4
 70
     1
102
RTVSPropertyOp5
 70
     1
102
RTVSPropertyOp6
 70
     1
102
RTVSPropertyOp7
 70
     1
102
RTVSPropertyOp8
 70
     1
102
RTVSPropertyOp9
 70
     1
102
RTVSPropertyOp10
 70
     1
102
RTVSPropertyOp11
 70
     1
102
RTVSPropertyOp12
 70
     1
102
RTVSPropertyOp13
 70
     1
102
RTVSPropertyOp14
 70
     1
102
RTVSPropertyOp15
 70
     1
102
RTVSPropertyOp16
 70
     1
102
RTVSPropertyOp17
 70
     1
102
RTVSPropertyOp18
 70
     1
102
RTVSPropertyOp19
 70
     1
102
RTVSPropertyOp20
 70
     1
102
RTVSPropertyOp21
 70
     1
102
RTVSPropertyOp22
 70
     1
102
RTVSPropertyOp23
 70
     1
102
RTVSPropertyOp24
 70
     1
102
RTVSPropertyOp25
 70
     1
102
RTVSPropertyOp26
 70
     1
102
RTVSPropertyOp27
 70
     1
102
RTVSPropertyOp28
 70
     1
102
RTVSPropertyOp29
 70
     1
102
RTVSPropertyOp30
 70
     1
102
RTVSPropertyOp31
 70
     1
102
RTVSPropertyOp32
 70
     1
102
RTVSPropertyOp33
 70
     1
102
RTVSPropertyOp34
 70
     1
102
RTVSPropertyOp35
 70
     1
102
RTVSPropertyOp36
 70
     1
102
RTVSPropertyOp37
 70
     1
102
RTVSPropertyOp38
 70
     1
102
RTVSPropertyOp39
 70
     1
102
RTVSPropertyOp40
 70
     1
102
RTVSPropertyOp41
 70
     1
102
RTVSPropertyOp42
 70
     1
102
RTVSPropertyOp43
 70
     1
102
RTVSPropertyOp44
 70
     1
102
RTVSPropertyOp45
 70
     1
102
RTVSPropertyOp46
 70
     1
102
RTVSPropertyOp47
 70
     1
102
RTVSPropertyOp48
 70
     1
102
RTVSPropertyOp49
 70
     1
102
RTVSPropertyOp50
 70
     1
102
RTVSPropertyOp51
 70
     0
102
RTVSPropertyOp52
 70
     0
102
RTVSPropertyOp53
 70
     1
102
RTVSPropertyOp54
 70
     1
102
RTVSPropertyOp55
 70
     1
102
RTVSPropertyOp56
 70
     1
102
RTVSPropertyOp57
 70
     1
102
RTVSPost2010Prop28
280
     0
102
RTVSPost2010PropOp28
 70
     1
102
RTVSPost2010Prop29
280
     1
102
RTVSPost2010PropOp29
 70
     1
102
RTVSPost2010Prop30
280
     1
102
RTVSPost2010PropOp30
 70
     1
102
RTVSPost2010Prop31
280
     0
102
RTVSPost2010PropOp31
 70
     1
102
RTVSPost2010Prop32
280
     0
102
RTVSPost2010PropOp32
 70
     1
102
RTVSPost2010Prop33
280
     0
102
RTVSPost2010PropOp33
 70
     1
102
RTVSPost2010Prop34
280
     0
102
RTVSPost2010PropOp34
 70
     1
102
RTVSPost2010Prop35
280
     0
102
RTVSPost2010PropOp35
 70
     1
102
RTVSPost2010Prop36
280
     0
102
RTVSPost2010PropOp36
 70
     1
102
RTVSPost2010Prop37
 90
       50
102
RTVSPost2010PropOp37
 70
     1
102
RTVSPost2010Prop38
140
0.0
102
RTVSPost2010PropOp38
 70
     1
102
RTVSPost2010Prop39
140
1.0
102
RTVSPost2010PropOp39
 70
     1
102
RTVSPost2010Prop40
 90
        0
102
RTVSPost2010PropOp40
 70
     1
102
RTVSPost2010Prop41ColorIndex
 90
       18
102
RTVSPost2010Prop41ColorRGB
 90
        0
102
RTVSPost2010PropOp41
 70
     1
102
RTVSPost2010Prop42
 90
       50
102
RTVSPost2010PropOp42
 70
     1
102
RTVSPost2010Prop43
 90
        3
102
RTVSPost2010PropOp43
 70
     1
102
RTVSPost2010Prop44ColorIndex
 90
        5
102
RTVSPost2010Prop44ColorRGB
 90
      255
102
RTVSPost2010PropOp44
 70
     1
102
RTVSPost2010Prop45
280
     0
102
RTVSPost2010PropOp45
 70
     1
102
RTVSPost2010Prop46
 90
       50
102
RTVSPost2010PropOp46
 70
     1
102
RTVSPost2010Prop47
 90
       50
102
RTVSPost2010PropOp47
 70
     1
102
RTVSPost2010Prop48
 90
       50
102
RTVSPost2010PropOp48
 70
     1
102
RTVSPost2010Prop49
280
     0
102
RTVSPost2010PropOp49
 70
     1
102
RTVSPost2010Prop50
 90
       50
102
RTVSPost2010PropOp50
 70
     1
102
RTVSPost2010Prop51ColorIndex
 90
      256
102
RTVSPost2010Prop51ColorRGB
 90
-16777216
102
RTVSPost2010PropOp51
 70
     0
102
RTVSPost2010Prop52
140
1.0
102
RTVSPost2010PropOp52
 70
     0
102
RTVSPost2010Prop53
 90
        2
102
RTVSPost2010PropOp53
 70
     1
102
RTVSPost2010Prop54
  1
strokes_ogs.tif
102
RTVSPost2010PropOp54
 70
     1
102
RTVSPost2010Prop55
280
     0
102
RTVSPost2010PropOp55
 70
     1
102
RTVSPost2010Prop56
140
1.0
102
RTVSPost2010PropOp56
 70
     1
102
RTVSPost2010Prop57
140
1.0
102
RTVSPost2010PropOp57
 70
     1
  0
XRECORD
  5
14D
102
{ACAD_REACTORS
330
14C
102
}
330
14C
100
AcDbXrecord
280
     1
102
RTVSPropertyOp0
 70
     1
102
RTVSPropertyOp1
 70
     1
102
RTVSPropertyOp2
 70
     1
102
RTVSPropertyOp3
 70
     1
102
RTVSPropertyOp4
 70
     1
102
RTVSPropertyOp5
 70
     1
102
RTVSPropertyOp6
 70
     1
102
RTVSPropertyOp7
 70
     1
102
RTVSPropertyOp8
 70
     1
102
RTVSPropertyOp9
 70
     1
102
RTVSPropertyOp10
 70
     1
102
RTVSPropertyOp11
 70
     1
102
RTVSPropertyOp12
 70
     1
102
RTVSPropertyOp13
 70
     1
102
RTVSPropertyOp14
 70
     1
102
RTVSPropertyOp15
 70
     1
102
RTVSPropertyOp16
 70
     1
102
RTVSPropertyOp17
 70
     1
102
RTVSPropertyOp18
 70
     1
102
RTVSPropertyOp19
 70
     1
102
RTVSPropertyOp20
 70
     1
102
RTVSPropertyOp21
 70
     1
102
RTVSPropertyOp22
 70
     1
102
RTVSPropertyOp23
 70
     1
102
RTVSPropertyOp24
 70
     1
102
RTVSPropertyOp25
 70
     1
102
RTVSPropertyOp26
 70
     1
102
RTVSPropertyOp27
 70
     1
102
RTVSPropertyOp28
 70
     1
102
RTVSPropertyOp29
 70
     1
102
RTVSPropertyOp30
 70
     1
102
RTVSPropertyOp31
 70
     1
102
RTVSPropertyOp32
 70
     1
102
RTVSPropertyOp33
 70
     1
102
RTVSPropertyOp34
 70
     1
102
RTVSPropertyOp35
 70
     1
102
RTVSPropertyOp36
 70
     1
102
RTVSPropertyOp37
 70
     1
102
RTVSPropertyOp38
 70
     1
102
RTVSPropertyOp39
 70
     1
102
RTVSPropertyOp40
 70
     1
102
RTVSPropertyOp41
 70
     1
102
RTVSPropertyOp42
 70
     1
102
RTVSPropertyOp43
 70
     1
102
RTVSPropertyOp44
 70
     1
102
RTVSPropertyOp45
 70
     1
102
RTVSPropertyOp46
 70
     1
102
RTVSPropertyOp47
 70
     1
102
RTVSPropertyOp48
 70
     1
102
RTVSPropertyOp49
 70
     1
102
RTVSPropertyOp50
 70
     1
102
RTVSPropertyOp51
 70
     0
102
RTVSPropertyOp52
 70
     0
102
RTVSPropertyOp53
 70
     1
102
RTVSPropertyOp54
 70
     1
102
RTVSPropertyOp55
 70
     1
102
RTVSPropertyOp56
 70
     1
102
RTVSPropertyOp57
 70
     1
102
RTVSPost2010Prop28
280
     0
102
RTVSPost2010PropOp28
 70
     1
102
RTVSPost2010Prop29
280
     1
102
RTVSPost2010PropOp29
 70
     1
102
RTVSPost2010Prop30
280
     1
102
RTVSPost2010PropOp30
 70
     1
102
RTVSPost2010Prop31
280
     0
102
RTVSPost2010PropOp31
 70
     1
102
RTVSPost2010Prop32
280
     0
102
RTVSPost2010PropOp32
 70
     1
102
RTVSPost2010Prop33
280
     0
102
RTVSPost2010PropOp33
 70
     1
102
RTVSPost2010Prop34
280
     0
102
RTVSPost2010PropOp34
 70
     1
102
RTVSPost2010Prop35
280
     0
102
RTVSPost2010PropOp35
 70
     1
102
RTVSPost2010Prop36
280
     0
102
RTVSPost2010PropOp36
 70
     1
102
RTVSPost2010Prop37
 90
       50
102
RTVSPost2010PropOp37
 70
     1
102
RTVSPost2010Prop38
140
0.0
102
RTVSPost2010PropOp38
 70
     1
102
RTVSPost2010Prop39
140
1.0
102
RTVSPost2010PropOp39
 70
     1
102
RTVSPost2010Prop40
 90
        0
102
RTVSPost2010PropOp40
 70
     1
102
RTVSPost2010Prop41ColorIndex
 90
       18
102
RTVSPost2010Prop41ColorRGB
 90
        0
102
RTVSPost2010PropOp41
 70
     1
102
RTVSPost2010Prop42
 90
       50
102
RTVSPost2010PropOp42
 70
     1
102
RTVSPost2010Prop43
 90
        3
102
RTVSPost2010PropOp43
 70
     1
102
RTVSPost2010Prop44ColorIndex
 90
        5
102
RTVSPost2010Prop44ColorRGB
 90
      255
102
RTVSPost2010PropOp44
 70
     1
102
RTVSPost2010Prop45
280
     0
102
RTVSPost2010PropOp45
 70
     1
102
RTVSPost2010Prop46
 90
       50
102
RTVSPost2010PropOp46
 70
     1
102
RTVSPost2010Prop47
 90
       50
102
RTVSPost2010PropOp47
 70
     1
102
RTVSPost2010Prop48
 90
       50
102
RTVSPost2010PropOp48
 70
     1
102
RTVSPost2010Prop49
280
     0
102
RTVSPost2010PropOp49
 70
     1
102
RTVSPost2010Prop50
 90
       50
102
RTVSPost2010PropOp50
 70
     1
102
RTVSPost2010Prop51ColorIndex
 90
      256
102
RTVSPost2010Prop51ColorRGB
 90
-16777216
102
RTVSPost2010PropOp51
 70
     0
102
RTVSPost2010Prop52
140
1.0
102
RTVSPost2010PropOp52
 70
     0
102
RTVSPost2010Prop53
 90
        2
102
RTVSPost2010PropOp53
 70
     1
102
RTVSPost2010Prop54
  1
strokes_ogs.tif
102
RTVSPost2010PropOp54
 70
     1
102
RTVSPost2010Prop55
280
     0
102
RTVSPost2010PropOp55
 70
     1
102
RTVSPost2010Prop56
140
1.0
102
RTVSPost2010PropOp56
 70
     1
102
RTVSPost2010Prop57
140
1.0
102
RTVSPost2010PropOp57
 70
     1
  0
XRECORD
  5
14F
102
{ACAD_REACTORS
330
14E
102
}
330
14E
100
AcDbXrecord
280
     1
102
RTVSPropertyOp0
 70
     1
102
RTVSPropertyOp1
 70
     1
102
RTVSPropertyOp2
 70
     1
102
RTVSPropertyOp3
 70
     1
102
RTVSPropertyOp4
 70
     1
102
RTVSPropertyOp5
 70
     1
102
RTVSPropertyOp6
 70
     1
102
RTVSPropertyOp7
 70
     1
102
RTVSPropertyOp8
 70
     1
102
RTVSPropertyOp9
 70
     1
102
RTVSPropertyOp10
 70
     1
102
RTVSPropertyOp11
 70
     1
102
RTVSPropertyOp12
 70
     1
102
RTVSPropertyOp13
 70
     1
102
RTVSPropertyOp14
 70
     1
102
RTVSPropertyOp15
 70
     1
102
RTVSPropertyOp16
 70
     1
102
RTVSPropertyOp17
 70
     1
102
RTVSPropertyOp18
 70
     1
102
RTVSPropertyOp19
 70
     1
102
RTVSPropertyOp20
 70
     1
102
RTVSPropertyOp21
 70
     1
102
RTVSPropertyOp22
 70
     1
102
RTVSPropertyOp23
 70
     1
102
RTVSPropertyOp24
 70
     1
102
RTVSPropertyOp25
 70
     1
102
RTVSPropertyOp26
 70
     1
102
RTVSPropertyOp27
 70
     1
102
RTVSPropertyOp28
 70
     1
102
RTVSPropertyOp29
 70
     1
102
RTVSPropertyOp30
 70
     1
102
RTVSPropertyOp31
 70
     1
102
RTVSPropertyOp32
 70
     1
102
RTVSPropertyOp33
 70
     1
102
RTVSPropertyOp34
 70
     1
102
RTVSPropertyOp35
 70
     1
102
RTVSPropertyOp36
 70
     1
102
RTVSPropertyOp37
 70
     1
102
RTVSPropertyOp38
 70
     1
102
RTVSPropertyOp39
 70
     1
102
RTVSPropertyOp40
 70
     1
102
RTVSPropertyOp41
 70
     1
102
RTVSPropertyOp42
 70
     1
102
RTVSPropertyOp43
 70
     1
102
RTVSPropertyOp44
 70
     1
102
RTVSPropertyOp45
 70
     1
102
RTVSPropertyOp46
 70
     1
102
RTVSPropertyOp47
 70
     1
102
RTVSPropertyOp48
 70
     1
102
RTVSPropertyOp49
 70
     1
102
RTVSPropertyOp50
 70
     1
102
RTVSPropertyOp51
 70
     0
102
RTVSPropertyOp52
 70
     0
102
RTVSPropertyOp53
 70
     1
102
RTVSPropertyOp54
 70
     1
102
RTVSPropertyOp55
 70
     1
102
RTVSPropertyOp56
 70
     1
102
RTVSPropertyOp57
 70
     1
102
RTVSPost2010Prop28
280
     0
102
RTVSPost2010PropOp28
 70
     1
102
RTVSPost2010Prop29
280
     1
102
RTVSPost2010PropOp29
 70
     1
102
RTVSPost2010Prop30
280
     1
102
RTVSPost2010PropOp30
 70
     1
102
RTVSPost2010Prop31
280
     0
102
RTVSPost2010PropOp31
 70
     1
102
RTVSPost2010Prop32
280
     0
102
RTVSPost2010PropOp32
 70
     1
102
RTVSPost2010Prop33
280
     0
102
RTVSPost2010PropOp33
 70
     1
102
RTVSPost2010Prop34
280
     0
102
RTVSPost2010PropOp34
 70
     1
102
RTVSPost2010Prop35
280
     0
102
RTVSPost2010PropOp35
 70
     1
102
RTVSPost2010Prop36
280
     0
102
RTVSPost2010PropOp36
 70
     1
102
RTVSPost2010Prop37
 90
       50
102
RTVSPost2010PropOp37
 70
     1
102
RTVSPost2010Prop38
140
0.0
102
RTVSPost2010PropOp38
 70
     1
102
RTVSPost2010Prop39
140
1.0
102
RTVSPost2010PropOp39
 70
     1
102
RTVSPost2010Prop40
 90
        0
102
RTVSPost2010PropOp40
 70
     1
102
RTVSPost2010Prop41ColorIndex
 90
       18
102
RTVSPost2010Prop41ColorRGB
 90
        0
102
RTVSPost2010PropOp41
 70
     1
102
RTVSPost2010Prop42
 90
       50
102
RTVSPost2010PropOp42
 70
     1
102
RTVSPost2010Prop43
 90
        3
102
RTVSPost2010PropOp43
 70
     1
102
RTVSPost2010Prop44ColorIndex
 90
        5
102
RTVSPost2010Prop44ColorRGB
 90
      255
102
RTVSPost2010PropOp44
 70
     1
102
RTVSPost2010Prop45
280
     0
102
RTVSPost2010PropOp45
 70
     1
102
RTVSPost2010Prop46
 90
       50
102
RTVSPost2010PropOp46
 70
     1
102
RTVSPost2010Prop47
 90
       50
102
RTVSPost2010PropOp47
 70
     1
102
RTVSPost2010Prop48
 90
       50
102
RTVSPost2010PropOp48
 70
     1
102
RTVSPost2010Prop49
280
     0
102
RTVSPost2010PropOp49
 70
     1
102
RTVSPost2010Prop50
 90
       50
102
RTVSPost2010PropOp50
 70
     1
102
RTVSPost2010Prop51ColorIndex
 90
      256
102
RTVSPost2010Prop51ColorRGB
 90
-16777216
102
RTVSPost2010PropOp51
 70
     0
102
RTVSPost2010Prop52
140
1.0
102
RTVSPost2010PropOp52
 70
     0
102
RTVSPost2010Prop53
 90
        2
102
RTVSPost2010PropOp53
 70
     1
102
RTVSPost2010Prop54
  1
strokes_ogs.tif
102
RTVSPost2010PropOp54
 70
     1
102
RTVSPost2010Prop55
280
     0
102
RTVSPost2010PropOp55
 70
     1
102
RTVSPost2010Prop56
140
1.0
102
RTVSPost2010PropOp56
 70
     1
102
RTVSPost2010Prop57
140
1.0
102
RTVSPost2010PropOp57
 70
     1
  0
XRECORD
  5
151
102
{ACAD_REACTORS
330
150
102
}
330
150
100
AcDbXrecord
280
     1
102
RTVSPropertyOp0
 70
     1
102
RTVSPropertyOp1
 70
     1
102
RTVSPropertyOp2
 70
     1
102
RTVSPropertyOp3
 70
     1
102
RTVSPropertyOp4
 70
     1
102
RTVSPropertyOp5
 70
     1
102
RTVSPropertyOp6
 70
     1
102
RTVSPropertyOp7
 70
     1
102
RTVSPropertyOp8
 70
     1
102
RTVSPropertyOp9
 70
     1
102
RTVSPropertyOp10
 70
     1
102
RTVSPropertyOp11
 70
     1
102
RTVSPropertyOp12
 70
     1
102
RTVSPropertyOp13
 70
     1
102
RTVSPropertyOp14
 70
     1
102
RTVSPropertyOp15
 70
     1
102
RTVSPropertyOp16
 70
     1
102
RTVSPropertyOp17
 70
     1
102
RTVSPropertyOp18
 70
     1
102
RTVSPropertyOp19
 70
     1
102
RTVSPropertyOp20
 70
     1
102
RTVSPropertyOp21
 70
     1
102
RTVSPropertyOp22
 70
     1
102
RTVSPropertyOp23
 70
     1
102
RTVSPropertyOp24
 70
     1
102
RTVSPropertyOp25
 70
     1
102
RTVSPropertyOp26
 70
     1
102
RTVSPropertyOp27
 70
     1
102
RTVSPropertyOp28
 70
     1
102
RTVSPropertyOp29
 70
     1
102
RTVSPropertyOp30
 70
     1
102
RTVSPropertyOp31
 70
     1
102
RTVSPropertyOp32
 70
     1
102
RTVSPropertyOp33
 70
     1
102
RTVSPropertyOp34
 70
     1
102
RTVSPropertyOp35
 70
     1
102
RTVSPropertyOp36
 70
     1
102
RTVSPropertyOp37
 70
     1
102
RTVSPropertyOp38
 70
     1
102
RTVSPropertyOp39
 70
     1
102
RTVSPropertyOp40
 70
     1
102
RTVSPropertyOp41
 70
     1
102
RTVSPropertyOp42
 70
     1
102
RTVSPropertyOp43
 70
     1
102
RTVSPropertyOp44
 70
     1
102
RTVSPropertyOp45
 70
     1
102
RTVSPropertyOp46
 70
     1
102
RTVSPropertyOp47
 70
     1
102
RTVSPropertyOp48
 70
     1
102
RTVSPropertyOp49
 70
     1
102
RTVSPropertyOp50
 70
     1
102
RTVSPropertyOp51
 70
     0
102
RTVSPropertyOp52
 70
     0
102
RTVSPropertyOp53
 70
     1
102
RTVSPropertyOp54
 70
     1
102
RTVSPropertyOp55
 70
     1
102
RTVSPropertyOp56
 70
     1
102
RTVSPropertyOp57
 70
     1
102
RTVSPost2010Prop28
280
     0
102
RTVSPost2010PropOp28
 70
     1
102
RTVSPost2010Prop29
280
     1
102
RTVSPost2010PropOp29
 70
     1
102
RTVSPost2010Prop30
280
     1
102
RTVSPost2010PropOp30
 70
     1
102
RTVSPost2010Prop31
280
     0
102
RTVSPost2010PropOp31
 70
     1
102
RTVSPost2010Prop32
280
     0
102
RTVSPost2010PropOp32
 70
     1
102
RTVSPost2010Prop33
280
     0
102
RTVSPost2010PropOp33
 70
     1
102
RTVSPost2010Prop34
280
     0
102
RTVSPost2010PropOp34
 70
     1
102
RTVSPost2010Prop35
280
     0
102
RTVSPost2010PropOp35
 70
     1
102
RTVSPost2010Prop36
280
     0
102
RTVSPost2010PropOp36
 70
     1
102
RTVSPost2010Prop37
 90
       50
102
RTVSPost2010PropOp37
 70
     1
102
RTVSPost2010Prop38
140
0.0
102
RTVSPost2010PropOp38
 70
     1
102
RTVSPost2010Prop39
140
1.0
102
RTVSPost2010PropOp39
 70
     1
102
RTVSPost2010Prop40
 90
        0
102
RTVSPost2010PropOp40
 70
     1
102
RTVSPost2010Prop41ColorIndex
 90
       18
102
RTVSPost2010Prop41ColorRGB
 90
        0
102
RTVSPost2010PropOp41
 70
     1
102
RTVSPost2010Prop42
 90
       50
102
RTVSPost2010PropOp42
 70
     1
102
RTVSPost2010Prop43
 90
        3
102
RTVSPost2010PropOp43
 70
     1
102
RTVSPost2010Prop44ColorIndex
 90
        5
102
RTVSPost2010Prop44ColorRGB
 90
      255
102
RTVSPost2010PropOp44
 70
     1
102
RTVSPost2010Prop45
280
     0
102
RTVSPost2010PropOp45
 70
     1
102
RTVSPost2010Prop46
 90
       50
102
RTVSPost2010PropOp46
 70
     1
102
RTVSPost2010Prop47
 90
       50
102
RTVSPost2010PropOp47
 70
     1
102
RTVSPost2010Prop48
 90
       50
102
RTVSPost2010PropOp48
 70
     1
102
RTVSPost2010Prop49
280
     0
102
RTVSPost2010PropOp49
 70
     1
102
RTVSPost2010Prop50
 90
       50
102
RTVSPost2010PropOp50
 70
     1
102
RTVSPost2010Prop51ColorIndex
 90
      256
102
RTVSPost2010Prop51ColorRGB
 90
-16777216
102
RTVSPost2010PropOp51
 70
     0
102
RTVSPost2010Prop52
140
1.0
102
RTVSPost2010PropOp52
 70
     0
102
RTVSPost2010Prop53
 90
        2
102
RTVSPost2010PropOp53
 70
     1
102
RTVSPost2010Prop54
  1
strokes_ogs.tif
102
RTVSPost2010PropOp54
 70
     1
102
RTVSPost2010Prop55
280
     0
102
RTVSPost2010PropOp55
 70
     1
102
RTVSPost2010Prop56
140
1.0
102
RTVSPost2010PropOp56
 70
     1
102
RTVSPost2010Prop57
140
1.0
102
RTVSPost2010PropOp57
 70
     1
  0
XRECORD
  5
155
102
{ACAD_REACTORS
330
154
102
}
330
154
100
AcDbXrecord
280
     1
102
RTVSPropertyOp0
 70
     1
102
RTVSPropertyOp1
 70
     1
102
RTVSPropertyOp2
 70
     1
102
RTVSPropertyOp3
 70
     1
102
RTVSPropertyOp4
 70
     1
102
RTVSPropertyOp5
 70
     1
102
RTVSPropertyOp6
 70
     1
102
RTVSPropertyOp7
 70
     1
102
RTVSPropertyOp8
 70
     1
102
RTVSPropertyOp9
 70
     1
102
RTVSPropertyOp10
 70
     1
102
RTVSPropertyOp11
 70
     1
102
RTVSPropertyOp12
 70
     1
102
RTVSPropertyOp13
 70
     1
102
RTVSPropertyOp14
 70
     1
102
RTVSPropertyOp15
 70
     1
102
RTVSPropertyOp16
 70
     1
102
RTVSPropertyOp17
 70
     1
102
RTVSPropertyOp18
 70
     1
102
RTVSPropertyOp19
 70
     1
102
RTVSPropertyOp20
 70
     1
102
RTVSPropertyOp21
 70
     1
102
RTVSPropertyOp22
 70
     1
102
RTVSPropertyOp23
 70
     1
102
RTVSPropertyOp24
 70
     1
102
RTVSPropertyOp25
 70
     1
102
RTVSPropertyOp26
 70
     1
102
RTVSPropertyOp27
 70
     1
102
RTVSPropertyOp28
 70
     1
102
RTVSPropertyOp29
 70
     1
102
RTVSPropertyOp30
 70
     1
102
RTVSPropertyOp31
 70
     1
102
RTVSPropertyOp32
 70
     1
102
RTVSPropertyOp33
 70
     1
102
RTVSPropertyOp34
 70
     1
102
RTVSPropertyOp35
 70
     1
102
RTVSPropertyOp36
 70
     1
102
RTVSPropertyOp37
 70
     1
102
RTVSPropertyOp38
 70
     1
102
RTVSPropertyOp39
 70
     1
102
RTVSPropertyOp40
 70
     1
102
RTVSPropertyOp41
 70
     1
102
RTVSPropertyOp42
 70
     1
102
RTVSPropertyOp43
 70
     1
102
RTVSPropertyOp44
 70
     1
102
RTVSPropertyOp45
 70
     1
102
RTVSPropertyOp46
 70
     1
102
RTVSPropertyOp47
 70
     1
102
RTVSPropertyOp48
 70
     1
102
RTVSPropertyOp49
 70
     1
102
RTVSPropertyOp50
 70
     1
102
RTVSPropertyOp51
 70
     0
102
RTVSPropertyOp52
 70
     0
102
RTVSPropertyOp53
 70
     1
102
RTVSPropertyOp54
 70
     1
102
RTVSPropertyOp55
 70
     1
102
RTVSPropertyOp56
 70
     1
102
RTVSPropertyOp57
 70
     1
102
RTVSPost2010Prop28
280
     0
102
RTVSPost2010PropOp28
 70
     1
102
RTVSPost2010Prop29
280
     1
102
RTVSPost2010PropOp29
 70
     1
102
RTVSPost2010Prop30
280
     1
102
RTVSPost2010PropOp30
 70
     1
102
RTVSPost2010Prop31
280
     0
102
RTVSPost2010PropOp31
 70
     1
102
RTVSPost2010Prop32
280
     0
102
RTVSPost2010PropOp32
 70
     1
102
RTVSPost2010Prop33
280
     0
102
RTVSPost2010PropOp33
 70
     1
102
RTVSPost2010Prop34
280
     0
102
RTVSPost2010PropOp34
 70
     1
102
RTVSPost2010Prop35
280
     0
102
RTVSPost2010PropOp35
 70
     1
102
RTVSPost2010Prop36
280
     0
102
RTVSPost2010PropOp36
 70
     1
102
RTVSPost2010Prop37
 90
       50
102
RTVSPost2010PropOp37
 70
     1
102
RTVSPost2010Prop38
140
0.0
102
RTVSPost2010PropOp38
 70
     1
102
RTVSPost2010Prop39
140
1.0
102
RTVSPost2010PropOp39
 70
     1
102
RTVSPost2010Prop40
 90
        0
102
RTVSPost2010PropOp40
 70
     1
102
RTVSPost2010Prop41ColorIndex
 90
       18
102
RTVSPost2010Prop41ColorRGB
 90
        0
102
RTVSPost2010PropOp41
 70
     1
102
RTVSPost2010Prop42
 90
       50
102
RTVSPost2010PropOp42
 70
     1
102
RTVSPost2010Prop43
 90
        3
102
RTVSPost2010PropOp43
 70
     1
102
RTVSPost2010Prop44ColorIndex
 90
        5
102
RTVSPost2010Prop44ColorRGB
 90
      255
102
RTVSPost2010PropOp44
 70
     1
102
RTVSPost2010Prop45
280
     0
102
RTVSPost2010PropOp45
 70
     1
102
RTVSPost2010Prop46
 90
       50
102
RTVSPost2010PropOp46
 70
     1
102
RTVSPost2010Prop47
 90
       50
102
RTVSPost2010PropOp47
 70
     1
102
RTVSPost2010Prop48
 90
       50
102
RTVSPost2010PropOp48
 70
     1
102
RTVSPost2010Prop49
280
     0
102
RTVSPost2010PropOp49
 70
     1
102
RTVSPost2010Prop50
 90
       50
102
RTVSPost2010PropOp50
 70
     1
102
RTVSPost2010Prop51ColorIndex
 90
      256
102
RTVSPost2010Prop51ColorRGB
 90
-16777216
102
RTVSPost2010PropOp51
 70
     0
102
RTVSPost2010Prop52
140
1.0
102
RTVSPost2010PropOp52
 70
     0
102
RTVSPost2010Prop53
 90
        2
102
RTVSPost2010PropOp53
 70
     1
102
RTVSPost2010Prop54
  1
strokes_ogs.tif
102
RTVSPost2010PropOp54
 70
     1
102
RTVSPost2010Prop55
280
     0
102
RTVSPost2010PropOp55
 70
     1
102
RTVSPost2010Prop56
140
1.0
102
RTVSPost2010PropOp56
 70
     1
102
RTVSPost2010Prop57
140
1.0
102
RTVSPost2010PropOp57
 70
     1
  0
XRECORD
  5
169
102
{ACAD_REACTORS
330
168
102
}
330
168
100
AcDbXrecord
280
     1
102
RTVSPropertyOp0
 70
     0
102
RTVSPropertyOp1
 70
     0
102
RTVSPropertyOp2
 70
     0
102
RTVSPropertyOp3
 70
     0
102
RTVSPropertyOp4
 70
     0
102
RTVSPropertyOp5
 70
     0
102
RTVSPropertyOp6
 70
     0
102
RTVSPropertyOp7
 70
     0
102
RTVSPropertyOp8
 70
     0
102
RTVSPropertyOp9
 70
     0
102
RTVSPropertyOp10
 70
     0
102
RTVSPropertyOp11
 70
     0
102
RTVSPropertyOp12
 70
     0
102
RTVSPropertyOp13
 70
     0
102
RTVSPropertyOp14
 70
     2
102
RTVSPropertyOp15
 70
     0
102
RTVSPropertyOp16
 70
     0
102
RTVSPropertyOp17
 70
     0
102
RTVSPropertyOp18
 70
     0
102
RTVSPropertyOp19
 70
     0
102
RTVSPropertyOp20
 70
     0
102
RTVSPropertyOp21
 70
     0
102
RTVSPropertyOp22
 70
     0
102
RTVSPropertyOp23
 70
     0
102
RTVSPropertyOp24
 70
     0
102
RTVSPropertyOp25
 70
     0
102
RTVSPropertyOp26
 70
     0
102
RTVSPropertyOp27
 70
     0
102
RTVSPropertyOp28
 70
     0
102
RTVSPropertyOp29
 70
     0
102
RTVSPropertyOp30
 70
     0
102
RTVSPropertyOp31
 70
     0
102
RTVSPropertyOp32
 70
     0
102
RTVSPropertyOp33
 70
     0
102
RTVSPropertyOp34
 70
     0
102
RTVSPropertyOp35
 70
     0
102
RTVSPropertyOp36
 70
     0
102
RTVSPropertyOp37
 70
     0
102
RTVSPropertyOp38
 70
     0
102
RTVSPropertyOp39
 70
     0
102
RTVSPropertyOp40
 70
     0
102
RTVSPropertyOp41
 70
     0
102
RTVSPropertyOp42
 70
     0
102
RTVSPropertyOp43
 70
     0
102
RTVSPropertyOp44
 70
     0
102
RTVSPropertyOp45
 70
     0
102
RTVSPropertyOp46
 70
     0
102
RTVSPropertyOp47
 70
     0
102
RTVSPropertyOp48
 70
     0
102
RTVSPropertyOp49
 70
     0
102
RTVSPropertyOp50
 70
     0
102
RTVSPropertyOp51
 70
     0
102
RTVSPropertyOp52
 70
     0
102
RTVSPropertyOp53
 70
     0
102
RTVSPropertyOp54
 70
     0
102
RTVSPropertyOp55
 70
     0
102
RTVSPropertyOp56
 70
     0
102
RTVSPropertyOp57
 70
     0
102
RTVSPost2010Prop28
280
     0
102
RTVSPost2010PropOp28
 70
     0
102
RTVSPost2010Prop29
280
     1
102
RTVSPost2010PropOp29
 70
     0
102
RTVSPost2010Prop30
280
     1
102
RTVSPost2010PropOp30
 70
     0
102
RTVSPost2010Prop31
280
     0
102
RTVSPost2010PropOp31
 70
     0
102
RTVSPost2010Prop32
280
     0
102
RTVSPost2010PropOp32
 70
     0
102
RTVSPost2010Prop33
280
     0
102
RTVSPost2010PropOp33
 70
     0
102
RTVSPost2010Prop34
280
     0
102
RTVSPost2010PropOp34
 70
     0
102
RTVSPost2010Prop35
280
     0
102
RTVSPost2010PropOp35
 70
     0
102
RTVSPost2010Prop36
280
     0
102
RTVSPost2010PropOp36
 70
     0
102
RTVSPost2010Prop37
 90
       50
102
RTVSPost2010PropOp37
 70
     0
102
RTVSPost2010Prop38
140
0.0
102
RTVSPost2010PropOp38
 70
     0
102
RTVSPost2010Prop39
140
1.0
102
RTVSPost2010PropOp39
 70
     0
102
RTVSPost2010Prop40
 90
        0
102
RTVSPost2010PropOp40
 70
     0
102
RTVSPost2010Prop41ColorIndex
 90
       18
102
RTVSPost2010Prop41ColorRGB
 90
        0
102
RTVSPost2010PropOp41
 70
     0
102
RTVSPost2010Prop42
 90
       50
102
RTVSPost2010PropOp42
 70
     0
102
RTVSPost2010Prop43
 90
        3
102
RTVSPost2010PropOp43
 70
     0
102
RTVSPost2010Prop44ColorIndex
 90
        5
102
RTVSPost2010Prop44ColorRGB
 90
      255
102
RTVSPost2010PropOp44
 70
     0
102
RTVSPost2010Prop45
280
     0
102
RTVSPost2010PropOp45
 70
     0
102
RTVSPost2010Prop46
 90
       50
102
RTVSPost2010PropOp46
 70
     0
102
RTVSPost2010Prop47
 90
       50
102
RTVSPost2010PropOp47
 70
     0
102
RTVSPost2010Prop48
 90
       50
102
RTVSPost2010PropOp48
 70
     0
102
RTVSPost2010Prop49
280
     0
102
RTVSPost2010PropOp49
 70
     0
102
RTVSPost2010Prop50
 90
       50
102
RTVSPost2010PropOp50
 70
     0
102
RTVSPost2010Prop51ColorIndex
 90
      256
102
RTVSPost2010Prop51ColorRGB
 90
-16777216
102
RTVSPost2010PropOp51
 70
     0
102
RTVSPost2010Prop52
140
1.0
102
RTVSPost2010PropOp52
 70
     0
102
RTVSPost2010Prop53
 90
        2
102
RTVSPost2010PropOp53
 70
     0
102
RTVSPost2010Prop54
  1
strokes_ogs.tif
102
RTVSPost2010PropOp54
 70
     0
102
RTVSPost2010Prop55
280
     0
102
RTVSPost2010PropOp55
 70
     0
102
RTVSPost2010Prop56
140
1.0
102
RTVSPost2010PropOp56
 70
     0
102
RTVSPost2010Prop57
140
1.0
102
RTVSPost2010PropOp57
 70
     0
  0
XRECORD
  5
163
102
{ACAD_REACTORS
330
162
102
}
330
162
100
AcDbXrecord
280
     1
102
RTVSPropertyOp0
 70
     1
102
RTVSPropertyOp1
 70
     1
102
RTVSPropertyOp2
 70
     1
102
RTVSPropertyOp3
 70
     1
102
RTVSPropertyOp4
 70
     1
102
RTVSPropertyOp5
 70
     1
102
RTVSPropertyOp6
 70
     1
102
RTVSPropertyOp7
 70
     1
102
RTVSPropertyOp8
 70
     1
102
RTVSPropertyOp9
 70
     1
102
RTVSPropertyOp10
 70
     1
102
RTVSPropertyOp11
 70
     1
102
RTVSPropertyOp12
 70
     1
102
RTVSPropertyOp13
 70
     1
102
RTVSPropertyOp14
 70
     1
102
RTVSPropertyOp15
 70
     1
102
RTVSPropertyOp16
 70
     1
102
RTVSPropertyOp17
 70
     1
102
RTVSPropertyOp18
 70
     1
102
RTVSPropertyOp19
 70
     1
102
RTVSPropertyOp20
 70
     1
102
RTVSPropertyOp21
 70
     1
102
RTVSPropertyOp22
 70
     1
102
RTVSPropertyOp23
 70
     1
102
RTVSPropertyOp24
 70
     1
102
RTVSPropertyOp25
 70
     1
102
RTVSPropertyOp26
 70
     1
102
RTVSPropertyOp27
 70
     1
102
RTVSPropertyOp28
 70
     1
102
RTVSPropertyOp29
 70
     1
102
RTVSPropertyOp30
 70
     1
102
RTVSPropertyOp31
 70
     1
102
RTVSPropertyOp32
 70
     1
102
RTVSPropertyOp33
 70
     1
102
RTVSPropertyOp34
 70
     1
102
RTVSPropertyOp35
 70
     1
102
RTVSPropertyOp36
 70
     1
102
RTVSPropertyOp37
 70
     1
102
RTVSPropertyOp38
 70
     1
102
RTVSPropertyOp39
 70
     1
102
RTVSPropertyOp40
 70
     1
102
RTVSPropertyOp41
 70
     1
102
RTVSPropertyOp42
 70
     1
102
RTVSPropertyOp43
 70
     1
102
RTVSPropertyOp44
 70
     1
102
RTVSPropertyOp45
 70
     1
102
RTVSPropertyOp46
 70
     1
102
RTVSPropertyOp47
 70
     1
102
RTVSPropertyOp48
 70
     1
102
RTVSPropertyOp49
 70
     1
102
RTVSPropertyOp50
 70
     1
102
RTVSPropertyOp51
 70
     0
102
RTVSPropertyOp52
 70
     0
102
RTVSPropertyOp53
 70
     1
102
RTVSPropertyOp54
 70
     1
102
RTVSPropertyOp55
 70
     1
102
RTVSPropertyOp56
 70
     1
102
RTVSPropertyOp57
 70
     1
102
RTVSPost2010Prop28
280
     0
102
RTVSPost2010PropOp28
 70
     1
102
RTVSPost2010Prop29
280
     1
102
RTVSPost2010PropOp29
 70
     1
102
RTVSPost2010Prop30
280
     1
102
RTVSPost2010PropOp30
 70
     1
102
RTVSPost2010Prop31
280
     0
102
RTVSPost2010PropOp31
 70
     1
102
RTVSPost2010Prop32
280
     0
102
RTVSPost2010PropOp32
 70
     1
102
RTVSPost2010Prop33
280
     0
102
RTVSPost2010PropOp33
 70
     1
102
RTVSPost2010Prop34
280
     0
102
RTVSPost2010PropOp34
 70
     1
102
RTVSPost2010Prop35
280
     0
102
RTVSPost2010PropOp35
 70
     1
102
RTVSPost2010Prop36
280
     0
102
RTVSPost2010PropOp36
 70
     1
102
RTVSPost2010Prop37
 90
       50
102
RTVSPost2010PropOp37
 70
     1
102
RTVSPost2010Prop38
140
0.0
102
RTVSPost2010PropOp38
 70
     1
102
RTVSPost2010Prop39
140
1.0
102
RTVSPost2010PropOp39
 70
     1
102
RTVSPost2010Prop40
 90
        0
102
RTVSPost2010PropOp40
 70
     1
102
RTVSPost2010Prop41ColorIndex
 90
       18
102
RTVSPost2010Prop41ColorRGB
 90
        0
102
RTVSPost2010PropOp41
 70
     1
102
RTVSPost2010Prop42
 90
       50
102
RTVSPost2010PropOp42
 70
     1
102
RTVSPost2010Prop43
 90
        3
102
RTVSPost2010PropOp43
 70
     1
102
RTVSPost2010Prop44ColorIndex
 90
        5
102
RTVSPost2010Prop44ColorRGB
 90
      255
102
RTVSPost2010PropOp44
 70
     1
102
RTVSPost2010Prop45
280
     0
102
RTVSPost2010PropOp45
 70
     1
102
RTVSPost2010Prop46
 90
       50
102
RTVSPost2010PropOp46
 70
     1
102
RTVSPost2010Prop47
 90
       50
102
RTVSPost2010PropOp47
 70
     1
102
RTVSPost2010Prop48
 90
       50
102
RTVSPost2010PropOp48
 70
     1
102
RTVSPost2010Prop49
280
     0
102
RTVSPost2010PropOp49
 70
     1
102
RTVSPost2010Prop50
 90
       50
102
RTVSPost2010PropOp50
 70
     1
102
RTVSPost2010Prop51ColorIndex
 90
      256
102
RTVSPost2010Prop51ColorRGB
 90
-16777216
102
RTVSPost2010PropOp51
 70
     0
102
RTVSPost2010Prop52
140
1.0
102
RTVSPost2010PropOp52
 70
     0
102
RTVSPost2010Prop53
 90
        2
102
RTVSPost2010PropOp53
 70
     1
102
RTVSPost2010Prop54
  1
strokes_ogs.tif
102
RTVSPost2010PropOp54
 70
     1
102
RTVSPost2010Prop55
280
     0
102
RTVSPost2010PropOp55
 70
     1
102
RTVSPost2010Prop56
140
1.0
102
RTVSPost2010PropOp56
 70
     1
102
RTVSPost2010Prop57
140
1.0
102
RTVSPost2010PropOp57
 70
     1
  0
XRECORD
  5
16B
102
{ACAD_REACTORS
330
16A
102
}
330
16A
100
AcDbXrecord
280
     1
102
RTVSPropertyOp0
 70
     0
102
RTVSPropertyOp1
 70
     0
102
RTVSPropertyOp2
 70
     0
102
RTVSPropertyOp3
 70
     0
102
RTVSPropertyOp4
 70
     0
102
RTVSPropertyOp5
 70
     0
102
RTVSPropertyOp6
 70
     0
102
RTVSPropertyOp7
 70
     0
102
RTVSPropertyOp8
 70
     0
102
RTVSPropertyOp9
 70
     0
102
RTVSPropertyOp10
 70
     0
102
RTVSPropertyOp11
 70
     0
102
RTVSPropertyOp12
 70
     0
102
RTVSPropertyOp13
 70
     0
102
RTVSPropertyOp14
 70
     2
102
RTVSPropertyOp15
 70
     0
102
RTVSPropertyOp16
 70
     0
102
RTVSPropertyOp17
 70
     0
102
RTVSPropertyOp18
 70
     0
102
RTVSPropertyOp19
 70
     0
102
RTVSPropertyOp20
 70
     0
102
RTVSPropertyOp21
 70
     0
102
RTVSPropertyOp22
 70
     0
102
RTVSPropertyOp23
 70
     0
102
RTVSPropertyOp24
 70
     0
102
RTVSPropertyOp25
 70
     0
102
RTVSPropertyOp26
 70
     0
102
RTVSPropertyOp27
 70
     0
102
RTVSPropertyOp28
 70
     0
102
RTVSPropertyOp29
 70
     0
102
RTVSPropertyOp30
 70
     0
102
RTVSPropertyOp31
 70
     0
102
RTVSPropertyOp32
 70
     0
102
RTVSPropertyOp33
 70
     0
102
RTVSPropertyOp34
 70
     0
102
RTVSPropertyOp35
 70
     0
102
RTVSPropertyOp36
 70
     0
102
RTVSPropertyOp37
 70
     0
102
RTVSPropertyOp38
 70
     0
102
RTVSPropertyOp39
 70
     0
102
RTVSPropertyOp40
 70
     0
102
RTVSPropertyOp41
 70
     0
102
RTVSPropertyOp42
 70
     0
102
RTVSPropertyOp43
 70
     0
102
RTVSPropertyOp44
 70
     0
102
RTVSPropertyOp45
 70
     0
102
RTVSPropertyOp46
 70
     0
102
RTVSPropertyOp47
 70
     0
102
RTVSPropertyOp48
 70
     0
102
RTVSPropertyOp49
 70
     0
102
RTVSPropertyOp50
 70
     0
102
RTVSPropertyOp51
 70
     0
102
RTVSPropertyOp52
 70
     0
102
RTVSPropertyOp53
 70
     0
102
RTVSPropertyOp54
 70
     0
102
RTVSPropertyOp55
 70
     0
102
RTVSPropertyOp56
 70
     0
102
RTVSPropertyOp57
 70
     0
102
RTVSPost2010Prop28
280
     0
102
RTVSPost2010PropOp28
 70
     0
102
RTVSPost2010Prop29
280
     1
102
RTVSPost2010PropOp29
 70
     0
102
RTVSPost2010Prop30
280
     1
102
RTVSPost2010PropOp30
 70
     0
102
RTVSPost2010Prop31
280
     0
102
RTVSPost2010PropOp31
 70
     0
102
RTVSPost2010Prop32
280
     0
102
RTVSPost2010PropOp32
 70
     0
102
RTVSPost2010Prop33
280
     0
102
RTVSPost2010PropOp33
 70
     0
102
RTVSPost2010Prop34
280
     0
102
RTVSPost2010PropOp34
 70
     0
102
RTVSPost2010Prop35
280
     0
102
RTVSPost2010PropOp35
 70
     0
102
RTVSPost2010Prop36
280
     0
102
RTVSPost2010PropOp36
 70
     0
102
RTVSPost2010Prop37
 90
       50
102
RTVSPost2010PropOp37
 70
     0
102
RTVSPost2010Prop38
140
0.0
102
RTVSPost2010PropOp38
 70
     0
102
RTVSPost2010Prop39
140
1.0
102
RTVSPost2010PropOp39
 70
     0
102
RTVSPost2010Prop40
 90
        0
102
RTVSPost2010PropOp40
 70
     0
102
RTVSPost2010Prop41ColorIndex
 90
       18
102
RTVSPost2010Prop41ColorRGB
 90
        0
102
RTVSPost2010PropOp41
 70
     0
102
RTVSPost2010Prop42
 90
       50
102
RTVSPost2010PropOp42
 70
     0
102
RTVSPost2010Prop43
 90
        3
102
RTVSPost2010PropOp43
 70
     0
102
RTVSPost2010Prop44ColorIndex
 90
        5
102
RTVSPost2010Prop44ColorRGB
 90
      255
102
RTVSPost2010PropOp44
 70
     0
102
RTVSPost2010Prop45
280
     0
102
RTVSPost2010PropOp45
 70
     0
102
RTVSPost2010Prop46
 90
       50
102
RTVSPost2010PropOp46
 70
     0
102
RTVSPost2010Prop47
 90
       50
102
RTVSPost2010PropOp47
 70
     0
102
RTVSPost2010Prop48
 90
       50
102
RTVSPost2010PropOp48
 70
     0
102
RTVSPost2010Prop49
280
     0
102
RTVSPost2010PropOp49
 70
     0
102
RTVSPost2010Prop50
 90
       50
102
RTVSPost2010PropOp50
 70
     0
102
RTVSPost2010Prop51ColorIndex
 90
      256
102
RTVSPost2010Prop51ColorRGB
 90
-16777216
102
RTVSPost2010PropOp51
 70
     0
102
RTVSPost2010Prop52
140
1.0
102
RTVSPost2010PropOp52
 70
     0
102
RTVSPost2010Prop53
 90
        2
102
RTVSPost2010PropOp53
 70
     0
102
RTVSPost2010Prop54
  1
strokes_ogs.tif
102
RTVSPost2010PropOp54
 70
     0
102
RTVSPost2010Prop55
280
     0
102
RTVSPost2010PropOp55
 70
     0
102
RTVSPost2010Prop56
140
1.0
102
RTVSPost2010PropOp56
 70
     0
102
RTVSPost2010Prop57
140
1.0
102
RTVSPost2010PropOp57
 70
     0
  0
XRECORD
  5
159
102
{ACAD_REACTORS
330
158
102
}
330
158
100
AcDbXrecord
280
     1
102
RTVSPropertyOp0
 70
     1
102
RTVSPropertyOp1
 70
     1
102
RTVSPropertyOp2
 70
     1
102
RTVSPropertyOp3
 70
     1
102
RTVSPropertyOp4
 70
     1
102
RTVSPropertyOp5
 70
     1
102
RTVSPropertyOp6
 70
     1
102
RTVSPropertyOp7
 70
     1
102
RTVSPropertyOp8
 70
     1
102
RTVSPropertyOp9
 70
     1
102
RTVSPropertyOp10
 70
     1
102
RTVSPropertyOp11
 70
     1
102
RTVSPropertyOp12
 70
     1
102
RTVSPropertyOp13
 70
     1
102
RTVSPropertyOp14
 70
     1
102
RTVSPropertyOp15
 70
     1
102
RTVSPropertyOp16
 70
     1
102
RTVSPropertyOp17
 70
     1
102
RTVSPropertyOp18
 70
     1
102
RTVSPropertyOp19
 70
     1
102
RTVSPropertyOp20
 70
     1
102
RTVSPropertyOp21
 70
     1
102
RTVSPropertyOp22
 70
     1
102
RTVSPropertyOp23
 70
     1
102
RTVSPropertyOp24
 70
     1
102
RTVSPropertyOp25
 70
     1
102
RTVSPropertyOp26
 70
     1
102
RTVSPropertyOp27
 70
     1
102
RTVSPropertyOp28
 70
     1
102
RTVSPropertyOp29
 70
     1
102
RTVSPropertyOp30
 70
     1
102
RTVSPropertyOp31
 70
     1
102
RTVSPropertyOp32
 70
     1
102
RTVSPropertyOp33
 70
     1
102
RTVSPropertyOp34
 70
     1
102
RTVSPropertyOp35
 70
     1
102
RTVSPropertyOp36
 70
     1
102
RTVSPropertyOp37
 70
     1
102
RTVSPropertyOp38
 70
     1
102
RTVSPropertyOp39
 70
     1
102
RTVSPropertyOp40
 70
     1
102
RTVSPropertyOp41
 70
     1
102
RTVSPropertyOp42
 70
     1
102
RTVSPropertyOp43
 70
     1
102
RTVSPropertyOp44
 70
     1
102
RTVSPropertyOp45
 70
     1
102
RTVSPropertyOp46
 70
     1
102
RTVSPropertyOp47
 70
     1
102
RTVSPropertyOp48
 70
     1
102
RTVSPropertyOp49
 70
     1
102
RTVSPropertyOp50
 70
     1
102
RTVSPropertyOp51
 70
     0
102
RTVSPropertyOp52
 70
     0
102
RTVSPropertyOp53
 70
     1
102
RTVSPropertyOp54
 70
     1
102
RTVSPropertyOp55
 70
     1
102
RTVSPropertyOp56
 70
     1
102
RTVSPropertyOp57
 70
     1
102
RTVSPost2010Prop28
280
     0
102
RTVSPost2010PropOp28
 70
     1
102
RTVSPost2010Prop29
280
     1
102
RTVSPost2010PropOp29
 70
     1
102
RTVSPost2010Prop30
280
     1
102
RTVSPost2010PropOp30
 70
     1
102
RTVSPost2010Prop31
280
     0
102
RTVSPost2010PropOp31
 70
     1
102
RTVSPost2010Prop32
280
     0
102
RTVSPost2010PropOp32
 70
     1
102
RTVSPost2010Prop33
280
     0
102
RTVSPost2010PropOp33
 70
     1
102
RTVSPost2010Prop34
280
     0
102
RTVSPost2010PropOp34
 70
     1
102
RTVSPost2010Prop35
280
     0
102
RTVSPost2010PropOp35
 70
     1
102
RTVSPost2010Prop36
280
     0
102
RTVSPost2010PropOp36
 70
     1
102
RTVSPost2010Prop37
 90
       50
102
RTVSPost2010PropOp37
 70
     1
102
RTVSPost2010Prop38
140
0.0
102
RTVSPost2010PropOp38
 70
     1
102
RTVSPost2010Prop39
140
1.0
102
RTVSPost2010PropOp39
 70
     1
102
RTVSPost2010Prop40
 90
        0
102
RTVSPost2010PropOp40
 70
     1
102
RTVSPost2010Prop41ColorIndex
 90
       18
102
RTVSPost2010Prop41ColorRGB
 90
        0
102
RTVSPost2010PropOp41
 70
     1
102
RTVSPost2010Prop42
 90
       50
102
RTVSPost2010PropOp42
 70
     1
102
RTVSPost2010Prop43
 90
        3
102
RTVSPost2010PropOp43
 70
     1
102
RTVSPost2010Prop44ColorIndex
 90
        5
102
RTVSPost2010Prop44ColorRGB
 90
      255
102
RTVSPost2010PropOp44
 70
     1
102
RTVSPost2010Prop45
280
     0
102
RTVSPost2010PropOp45
 70
     1
102
RTVSPost2010Prop46
 90
       50
102
RTVSPost2010PropOp46
 70
     1
102
RTVSPost2010Prop47
 90
       50
102
RTVSPost2010PropOp47
 70
     1
102
RTVSPost2010Prop48
 90
       50
102
RTVSPost2010PropOp48
 70
     1
102
RTVSPost2010Prop49
280
     0
102
RTVSPost2010PropOp49
 70
     1
102
RTVSPost2010Prop50
 90
       50
102
RTVSPost2010PropOp50
 70
     1
102
RTVSPost2010Prop51ColorIndex
 90
      256
102
RTVSPost2010Prop51ColorRGB
 90
-16777216
102
RTVSPost2010PropOp51
 70
     0
102
RTVSPost2010Prop52
140
1.0
102
RTVSPost2010PropOp52
 70
     0
102
RTVSPost2010Prop53
 90
        2
102
RTVSPost2010PropOp53
 70
     1
102
RTVSPost2010Prop54
  1
strokes_ogs.tif
102
RTVSPost2010PropOp54
 70
     1
102
RTVSPost2010Prop55
280
     0
102
RTVSPost2010PropOp55
 70
     1
102
RTVSPost2010Prop56
140
1.0
102
RTVSPost2010PropOp56
 70
     1
102
RTVSPost2010Prop57
140
1.0
102
RTVSPost2010PropOp57
 70
     1
  0
XRECORD
  5
177
102
{ACAD_REACTORS
330
176
102
}
330
176
100
AcDbXrecord
280
     1
102
RTVSPropertyOp0
 70
     1
102
RTVSPropertyOp1
 70
     1
102
RTVSPropertyOp2
 70
     1
102
RTVSPropertyOp3
 70
     1
102
RTVSPropertyOp4
 70
     1
102
RTVSPropertyOp5
 70
     1
102
RTVSPropertyOp6
 70
     1
102
RTVSPropertyOp7
 70
     1
102
RTVSPropertyOp8
 70
     1
102
RTVSPropertyOp9
 70
     1
102
RTVSPropertyOp10
 70
     1
102
RTVSPropertyOp11
 70
     1
102
RTVSPropertyOp12
 70
     1
102
RTVSPropertyOp13
 70
     1
102
RTVSPropertyOp14
 70
     1
102
RTVSPropertyOp15
 70
     1
102
RTVSPropertyOp16
 70
     1
102
RTVSPropertyOp17
 70
     1
102
RTVSPropertyOp18
 70
     1
102
RTVSPropertyOp19
 70
     1
102
RTVSPropertyOp20
 70
     1
102
RTVSPropertyOp21
 70
     1
102
RTVSPropertyOp22
 70
     1
102
RTVSPropertyOp23
 70
     1
102
RTVSPropertyOp24
 70
     1
102
RTVSPropertyOp25
 70
     1
102
RTVSPropertyOp26
 70
     1
102
RTVSPropertyOp27
 70
     1
102
RTVSPropertyOp28
 70
     1
102
RTVSPropertyOp29
 70
     1
102
RTVSPropertyOp30
 70
     1
102
RTVSPropertyOp31
 70
     1
102
RTVSPropertyOp32
 70
     1
102
RTVSPropertyOp33
 70
     1
102
RTVSPropertyOp34
 70
     1
102
RTVSPropertyOp35
 70
     1
102
RTVSPropertyOp36
 70
     1
102
RTVSPropertyOp37
 70
     1
102
RTVSPropertyOp38
 70
     1
102
RTVSPropertyOp39
 70
     1
102
RTVSPropertyOp40
 70
     1
102
RTVSPropertyOp41
 70
     1
102
RTVSPropertyOp42
 70
     1
102
RTVSPropertyOp43
 70
     1
102
RTVSPropertyOp44
 70
     1
102
RTVSPropertyOp45
 70
     1
102
RTVSPropertyOp46
 70
     1
102
RTVSPropertyOp47
 70
     1
102
RTVSPropertyOp48
 70
     1
102
RTVSPropertyOp49
 70
     1
102
RTVSPropertyOp50
 70
     1
102
RTVSPropertyOp51
 70
     0
102
RTVSPropertyOp52
 70
     0
102
RTVSPropertyOp53
 70
     1
102
RTVSPropertyOp54
 70
     1
102
RTVSPropertyOp55
 70
     1
102
RTVSPropertyOp56
 70
     1
102
RTVSPropertyOp57
 70
     1
102
RTVSPost2010Prop28
280
     0
102
RTVSPost2010PropOp28
 70
     1
102
RTVSPost2010Prop29
280
     1
102
RTVSPost2010PropOp29
 70
     1
102
RTVSPost2010Prop30
280
     1
102
RTVSPost2010PropOp30
 70
     1
102
RTVSPost2010Prop31
280
     0
102
RTVSPost2010PropOp31
 70
     1
102
RTVSPost2010Prop32
280
     0
102
RTVSPost2010PropOp32
 70
     1
102
RTVSPost2010Prop33
280
     0
102
RTVSPost2010PropOp33
 70
     1
102
RTVSPost2010Prop34
280
     0
102
RTVSPost2010PropOp34
 70
     1
102
RTVSPost2010Prop35
280
     0
102
RTVSPost2010PropOp35
 70
     1
102
RTVSPost2010Prop36
280
     0
102
RTVSPost2010PropOp36
 70
     1
102
RTVSPost2010Prop37
 90
       50
102
RTVSPost2010PropOp37
 70
     1
102
RTVSPost2010Prop38
140
0.0
102
RTVSPost2010PropOp38
 70
     1
102
RTVSPost2010Prop39
140
1.0
102
RTVSPost2010PropOp39
 70
     1
102
RTVSPost2010Prop40
 90
        0
102
RTVSPost2010PropOp40
 70
     1
102
RTVSPost2010Prop41ColorIndex
 90
       18
102
RTVSPost2010Prop41ColorRGB
 90
        0
102
RTVSPost2010PropOp41
 70
     1
102
RTVSPost2010Prop42
 90
       50
102
RTVSPost2010PropOp42
 70
     1
102
RTVSPost2010Prop43
 90
        3
102
RTVSPost2010PropOp43
 70
     1
102
RTVSPost2010Prop44ColorIndex
 90
        5
102
RTVSPost2010Prop44ColorRGB
 90
      255
102
RTVSPost2010PropOp44
 70
     1
102
RTVSPost2010Prop45
280
     0
102
RTVSPost2010PropOp45
 70
     1
102
RTVSPost2010Prop46
 90
       50
102
RTVSPost2010PropOp46
 70
     1
102
RTVSPost2010Prop47
 90
       50
102
RTVSPost2010PropOp47
 70
     1
102
RTVSPost2010Prop48
 90
       50
102
RTVSPost2010PropOp48
 70
     1
102
RTVSPost2010Prop49
280
     0
102
RTVSPost2010PropOp49
 70
     1
102
RTVSPost2010Prop50
 90
       50
102
RTVSPost2010PropOp50
 70
     1
102
RTVSPost2010Prop51ColorIndex
 90
      256
102
RTVSPost2010Prop51ColorRGB
 90
-16777216
102
RTVSPost2010PropOp51
 70
     0
102
RTVSPost2010Prop52
140
1.0
102
RTVSPost2010PropOp52
 70
     0
102
RTVSPost2010Prop53
 90
        2
102
RTVSPost2010PropOp53
 70
     1
102
RTVSPost2010Prop54
  1
strokes_ogs.tif
102
RTVSPost2010PropOp54
 70
     1
102
RTVSPost2010Prop55
280
     0
102
RTVSPost2010PropOp55
 70
     1
102
RTVSPost2010Prop56
140
1.0
102
RTVSPost2010PropOp56
 70
     1
102
RTVSPost2010Prop57
140
1.0
102
RTVSPost2010PropOp57
 70
     1
  0
XRECORD
  5
175
102
{ACAD_REACTORS
330
174
102
}
330
174
100
AcDbXrecord
280
     1
102
RTVSPropertyOp0
 70
     1
102
RTVSPropertyOp1
 70
     1
102
RTVSPropertyOp2
 70
     1
102
RTVSPropertyOp3
 70
     1
102
RTVSPropertyOp4
 70
     1
102
RTVSPropertyOp5
 70
     1
102
RTVSPropertyOp6
 70
     1
102
RTVSPropertyOp7
 70
     1
102
RTVSPropertyOp8
 70
     1
102
RTVSPropertyOp9
 70
     1
102
RTVSPropertyOp10
 70
     1
102
RTVSPropertyOp11
 70
     1
102
RTVSPropertyOp12
 70
     1
102
RTVSPropertyOp13
 70
     1
102
RTVSPropertyOp14
 70
     1
102
RTVSPropertyOp15
 70
     1
102
RTVSPropertyOp16
 70
     1
102
RTVSPropertyOp17
 70
     1
102
RTVSPropertyOp18
 70
     1
102
RTVSPropertyOp19
 70
     1
102
RTVSPropertyOp20
 70
     1
102
RTVSPropertyOp21
 70
     1
102
RTVSPropertyOp22
 70
     1
102
RTVSPropertyOp23
 70
     1
102
RTVSPropertyOp24
 70
     1
102
RTVSPropertyOp25
 70
     1
102
RTVSPropertyOp26
 70
     1
102
RTVSPropertyOp27
 70
     1
102
RTVSPropertyOp28
 70
     1
102
RTVSPropertyOp29
 70
     1
102
RTVSPropertyOp30
 70
     1
102
RTVSPropertyOp31
 70
     1
102
RTVSPropertyOp32
 70
     1
102
RTVSPropertyOp33
 70
     1
102
RTVSPropertyOp34
 70
     1
102
RTVSPropertyOp35
 70
     1
102
RTVSPropertyOp36
 70
     1
102
RTVSPropertyOp37
 70
     1
102
RTVSPropertyOp38
 70
     1
102
RTVSPropertyOp39
 70
     1
102
RTVSPropertyOp40
 70
     1
102
RTVSPropertyOp41
 70
     1
102
RTVSPropertyOp42
 70
     1
102
RTVSPropertyOp43
 70
     1
102
RTVSPropertyOp44
 70
     1
102
RTVSPropertyOp45
 70
     1
102
RTVSPropertyOp46
 70
     1
102
RTVSPropertyOp47
 70
     1
102
RTVSPropertyOp48
 70
     1
102
RTVSPropertyOp49
 70
     1
102
RTVSPropertyOp50
 70
     1
102
RTVSPropertyOp51
 70
     0
102
RTVSPropertyOp52
 70
     0
102
RTVSPropertyOp53
 70
     1
102
RTVSPropertyOp54
 70
     1
102
RTVSPropertyOp55
 70
     1
102
RTVSPropertyOp56
 70
     1
102
RTVSPropertyOp57
 70
     1
102
RTVSPost2010Prop28
280
     0
102
RTVSPost2010PropOp28
 70
     1
102
RTVSPost2010Prop29
280
     1
102
RTVSPost2010PropOp29
 70
     1
102
RTVSPost2010Prop30
280
     1
102
RTVSPost2010PropOp30
 70
     1
102
RTVSPost2010Prop31
280
     0
102
RTVSPost2010PropOp31
 70
     1
102
RTVSPost2010Prop32
280
     0
102
RTVSPost2010PropOp32
 70
     1
102
RTVSPost2010Prop33
280
     0
102
RTVSPost2010PropOp33
 70
     1
102
RTVSPost2010Prop34
280
     0
102
RTVSPost2010PropOp34
 70
     1
102
RTVSPost2010Prop35
280
     0
102
RTVSPost2010PropOp35
 70
     1
102
RTVSPost2010Prop36
280
     0
102
RTVSPost2010PropOp36
 70
     1
102
RTVSPost2010Prop37
 90
       50
102
RTVSPost2010PropOp37
 70
     1
102
RTVSPost2010Prop38
140
0.0
102
RTVSPost2010PropOp38
 70
     1
102
RTVSPost2010Prop39
140
1.0
102
RTVSPost2010PropOp39
 70
     1
102
RTVSPost2010Prop40
 90
        0
102
RTVSPost2010PropOp40
 70
     1
102
RTVSPost2010Prop41ColorIndex
 90
       18
102
RTVSPost2010Prop41ColorRGB
 90
        0
102
RTVSPost2010PropOp41
 70
     1
102
RTVSPost2010Prop42
 90
       50
102
RTVSPost2010PropOp42
 70
     1
102
RTVSPost2010Prop43
 90
        3
102
RTVSPost2010PropOp43
 70
     1
102
RTVSPost2010Prop44ColorIndex
 90
        5
102
RTVSPost2010Prop44ColorRGB
 90
      255
102
RTVSPost2010PropOp44
 70
     1
102
RTVSPost2010Prop45
280
     0
102
RTVSPost2010PropOp45
 70
     1
102
RTVSPost2010Prop46
 90
       50
102
RTVSPost2010PropOp46
 70
     1
102
RTVSPost2010Prop47
 90
       50
102
RTVSPost2010PropOp47
 70
     1
102
RTVSPost2010Prop48
 90
       50
102
RTVSPost2010PropOp48
 70
     1
102
RTVSPost2010Prop49
280
     0
102
RTVSPost2010PropOp49
 70
     1
102
RTVSPost2010Prop50
 90
       50
102
RTVSPost2010PropOp50
 70
     1
102
RTVSPost2010Prop51ColorIndex
 90
      256
102
RTVSPost2010Prop51ColorRGB
 90
-16777216
102
RTVSPost2010PropOp51
 70
     0
102
RTVSPost2010Prop52
140
1.0
102
RTVSPost2010PropOp52
 70
     0
102
RTVSPost2010Prop53
 90
        2
102
RTVSPost2010PropOp53
 70
     1
102
RTVSPost2010Prop54
  1
strokes_ogs.tif
102
RTVSPost2010PropOp54
 70
     1
102
RTVSPost2010Prop55
280
     0
102
RTVSPost2010PropOp55
 70
     1
102
RTVSPost2010Prop56
140
1.0
102
RTVSPost2010PropOp56
 70
     1
102
RTVSPost2010Prop57
140
1.0
102
RTVSPost2010PropOp57
 70
     1
  0
XRECORD
  5
16F
102
{ACAD_REACTORS
330
16E
102
}
330
16E
100
AcDbXrecord
280
     1
102
RTVSPropertyOp0
 70
     1
102
RTVSPropertyOp1
 70
     1
102
RTVSPropertyOp2
 70
     1
102
RTVSPropertyOp3
 70
     1
102
RTVSPropertyOp4
 70
     1
102
RTVSPropertyOp5
 70
     1
102
RTVSPropertyOp6
 70
     1
102
RTVSPropertyOp7
 70
     1
102
RTVSPropertyOp8
 70
     1
102
RTVSPropertyOp9
 70
     1
102
RTVSPropertyOp10
 70
     1
102
RTVSPropertyOp11
 70
     1
102
RTVSPropertyOp12
 70
     1
102
RTVSPropertyOp13
 70
     1
102
RTVSPropertyOp14
 70
     1
102
RTVSPropertyOp15
 70
     1
102
RTVSPropertyOp16
 70
     1
102
RTVSPropertyOp17
 70
     1
102
RTVSPropertyOp18
 70
     1
102
RTVSPropertyOp19
 70
     1
102
RTVSPropertyOp20
 70
     1
102
RTVSPropertyOp21
 70
     1
102
RTVSPropertyOp22
 70
     1
102
RTVSPropertyOp23
 70
     1
102
RTVSPropertyOp24
 70
     1
102
RTVSPropertyOp25
 70
     1
102
RTVSPropertyOp26
 70
     1
102
RTVSPropertyOp27
 70
     1
102
RTVSPropertyOp28
 70
     1
102
RTVSPropertyOp29
 70
     1
102
RTVSPropertyOp30
 70
     1
102
RTVSPropertyOp31
 70
     1
102
RTVSPropertyOp32
 70
     1
102
RTVSPropertyOp33
 70
     1
102
RTVSPropertyOp34
 70
     1
102
RTVSPropertyOp35
 70
     1
102
RTVSPropertyOp36
 70
     1
102
RTVSPropertyOp37
 70
     1
102
RTVSPropertyOp38
 70
     1
102
RTVSPropertyOp39
 70
     1
102
RTVSPropertyOp40
 70
     1
102
RTVSPropertyOp41
 70
     1
102
RTVSPropertyOp42
 70
     1
102
RTVSPropertyOp43
 70
     1
102
RTVSPropertyOp44
 70
     1
102
RTVSPropertyOp45
 70
     1
102
RTVSPropertyOp46
 70
     1
102
RTVSPropertyOp47
 70
     1
102
RTVSPropertyOp48
 70
     1
102
RTVSPropertyOp49
 70
     1
102
RTVSPropertyOp50
 70
     1
102
RTVSPropertyOp51
 70
     0
102
RTVSPropertyOp52
 70
     0
102
RTVSPropertyOp53
 70
     1
102
RTVSPropertyOp54
 70
     1
102
RTVSPropertyOp55
 70
     1
102
RTVSPropertyOp56
 70
     1
102
RTVSPropertyOp57
 70
     1
102
RTVSPost2010Prop28
280
     0
102
RTVSPost2010PropOp28
 70
     1
102
RTVSPost2010Prop29
280
     1
102
RTVSPost2010PropOp29
 70
     1
102
RTVSPost2010Prop30
280
     1
102
RTVSPost2010PropOp30
 70
     1
102
RTVSPost2010Prop31
280
     0
102
RTVSPost2010PropOp31
 70
     1
102
RTVSPost2010Prop32
280
     0
102
RTVSPost2010PropOp32
 70
     1
102
RTVSPost2010Prop33
280
     0
102
RTVSPost2010PropOp33
 70
     1
102
RTVSPost2010Prop34
280
     0
102
RTVSPost2010PropOp34
 70
     1
102
RTVSPost2010Prop35
280
     0
102
RTVSPost2010PropOp35
 70
     1
102
RTVSPost2010Prop36
280
     0
102
RTVSPost2010PropOp36
 70
     1
102
RTVSPost2010Prop37
 90
       50
102
RTVSPost2010PropOp37
 70
     1
102
RTVSPost2010Prop38
140
0.0
102
RTVSPost2010PropOp38
 70
     1
102
RTVSPost2010Prop39
140
1.0
102
RTVSPost2010PropOp39
 70
     1
102
RTVSPost2010Prop40
 90
        0
102
RTVSPost2010PropOp40
 70
     1
102
RTVSPost2010Prop41ColorIndex
 90
       18
102
RTVSPost2010Prop41ColorRGB
 90
        0
102
RTVSPost2010PropOp41
 70
     1
102
RTVSPost2010Prop42
 90
       50
102
RTVSPost2010PropOp42
 70
     1
102
RTVSPost2010Prop43
 90
        3
102
RTVSPost2010PropOp43
 70
     1
102
RTVSPost2010Prop44ColorIndex
 90
        5
102
RTVSPost2010Prop44ColorRGB
 90
      255
102
RTVSPost2010PropOp44
 70
     1
102
RTVSPost2010Prop45
280
     0
102
RTVSPost2010PropOp45
 70
     1
102
RTVSPost2010Prop46
 90
       50
102
RTVSPost2010PropOp46
 70
     1
102
RTVSPost2010Prop47
 90
       50
102
RTVSPost2010PropOp47
 70
     1
102
RTVSPost2010Prop48
 90
       50
102
RTVSPost2010PropOp48
 70
     1
102
RTVSPost2010Prop49
280
     0
102
RTVSPost2010PropOp49
 70
     1
102
RTVSPost2010Prop50
 90
       50
102
RTVSPost2010PropOp50
 70
     1
102
RTVSPost2010Prop51ColorIndex
 90
      256
102
RTVSPost2010Prop51ColorRGB
 90
-16777216
102
RTVSPost2010PropOp51
 70
     0
102
RTVSPost2010Prop52
140
1.0
102
RTVSPost2010PropOp52
 70
     0
102
RTVSPost2010Prop53
 90
        2
102
RTVSPost2010PropOp53
 70
     1
102
RTVSPost2010Prop54
  1
strokes_ogs.tif
102
RTVSPost2010PropOp54
 70
     1
102
RTVSPost2010Prop55
280
     0
102
RTVSPost2010PropOp55
 70
     1
102
RTVSPost2010Prop56
140
1.0
102
RTVSPost2010PropOp56
 70
     1
102
RTVSPost2010Prop57
140
1.0
102
RTVSPost2010PropOp57
 70
     1
  0
XRECORD
  5
171
102
{ACAD_REACTORS
330
170
102
}
330
170
100
AcDbXrecord
280
     1
102
RTVSPropertyOp0
 70
     1
102
RTVSPropertyOp1
 70
     1
102
RTVSPropertyOp2
 70
     1
102
RTVSPropertyOp3
 70
     1
102
RTVSPropertyOp4
 70
     1
102
RTVSPropertyOp5
 70
     1
102
RTVSPropertyOp6
 70
     1
102
RTVSPropertyOp7
 70
     1
102
RTVSPropertyOp8
 70
     1
102
RTVSPropertyOp9
 70
     1
102
RTVSPropertyOp10
 70
     1
102
RTVSPropertyOp11
 70
     1
102
RTVSPropertyOp12
 70
     1
102
RTVSPropertyOp13
 70
     1
102
RTVSPropertyOp14
 70
     1
102
RTVSPropertyOp15
 70
     1
102
RTVSPropertyOp16
 70
     1
102
RTVSPropertyOp17
 70
     1
102
RTVSPropertyOp18
 70
     1
102
RTVSPropertyOp19
 70
     1
102
RTVSPropertyOp20
 70
     1
102
RTVSPropertyOp21
 70
     1
102
RTVSPropertyOp22
 70
     1
102
RTVSPropertyOp23
 70
     1
102
RTVSPropertyOp24
 70
     1
102
RTVSPropertyOp25
 70
     1
102
RTVSPropertyOp26
 70
     1
102
RTVSPropertyOp27
 70
     1
102
RTVSPropertyOp28
 70
     1
102
RTVSPropertyOp29
 70
     1
102
RTVSPropertyOp30
 70
     1
102
RTVSPropertyOp31
 70
     1
102
RTVSPropertyOp32
 70
     1
102
RTVSPropertyOp33
 70
     1
102
RTVSPropertyOp34
 70
     1
102
RTVSPropertyOp35
 70
     1
102
RTVSPropertyOp36
 70
     1
102
RTVSPropertyOp37
 70
     1
102
RTVSPropertyOp38
 70
     1
102
RTVSPropertyOp39
 70
     1
102
RTVSPropertyOp40
 70
     1
102
RTVSPropertyOp41
 70
     1
102
RTVSPropertyOp42
 70
     1
102
RTVSPropertyOp43
 70
     1
102
RTVSPropertyOp44
 70
     1
102
RTVSPropertyOp45
 70
     1
102
RTVSPropertyOp46
 70
     1
102
RTVSPropertyOp47
 70
     1
102
RTVSPropertyOp48
 70
     1
102
RTVSPropertyOp49
 70
     1
102
RTVSPropertyOp50
 70
     1
102
RTVSPropertyOp51
 70
     0
102
RTVSPropertyOp52
 70
     0
102
RTVSPropertyOp53
 70
     1
102
RTVSPropertyOp54
 70
     1
102
RTVSPropertyOp55
 70
     1
102
RTVSPropertyOp56
 70
     1
102
RTVSPropertyOp57
 70
     1
102
RTVSPost2010Prop28
280
     0
102
RTVSPost2010PropOp28
 70
     1
102
RTVSPost2010Prop29
280
     1
102
RTVSPost2010PropOp29
 70
     1
102
RTVSPost2010Prop30
280
     1
102
RTVSPost2010PropOp30
 70
     1
102
RTVSPost2010Prop31
280
     0
102
RTVSPost2010PropOp31
 70
     1
102
RTVSPost2010Prop32
280
     0
102
RTVSPost2010PropOp32
 70
     1
102
RTVSPost2010Prop33
280
     0
102
RTVSPost2010PropOp33
 70
     1
102
RTVSPost2010Prop34
280
     0
102
RTVSPost2010PropOp34
 70
     1
102
RTVSPost2010Prop35
280
     0
102
RTVSPost2010PropOp35
 70
     1
102
RTVSPost2010Prop36
280
     0
102
RTVSPost2010PropOp36
 70
     1
102
RTVSPost2010Prop37
 90
       50
102
RTVSPost2010PropOp37
 70
     1
102
RTVSPost2010Prop38
140
0.0
102
RTVSPost2010PropOp38
 70
     1
102
RTVSPost2010Prop39
140
1.0
102
RTVSPost2010PropOp39
 70
     1
102
RTVSPost2010Prop40
 90
        0
102
RTVSPost2010PropOp40
 70
     1
102
RTVSPost2010Prop41ColorIndex
 90
       18
102
RTVSPost2010Prop41ColorRGB
 90
        0
102
RTVSPost2010PropOp41
 70
     1
102
RTVSPost2010Prop42
 90
       50
102
RTVSPost2010PropOp42
 70
     1
102
RTVSPost2010Prop43
 90
        3
102
RTVSPost2010PropOp43
 70
     1
102
RTVSPost2010Prop44ColorIndex
 90
        5
102
RTVSPost2010Prop44ColorRGB
 90
      255
102
RTVSPost2010PropOp44
 70
     1
102
RTVSPost2010Prop45
280
     0
102
RTVSPost2010PropOp45
 70
     1
102
RTVSPost2010Prop46
 90
       50
102
RTVSPost2010PropOp46
 70
     1
102
RTVSPost2010Prop47
 90
       50
102
RTVSPost2010PropOp47
 70
     1
102
RTVSPost2010Prop48
 90
       50
102
RTVSPost2010PropOp48
 70
     1
102
RTVSPost2010Prop49
280
     0
102
RTVSPost2010PropOp49
 70
     1
102
RTVSPost2010Prop50
 90
       50
102
RTVSPost2010PropOp50
 70
     1
102
RTVSPost2010Prop51ColorIndex
 90
      256
102
RTVSPost2010Prop51ColorRGB
 90
-16777216
102
RTVSPost2010PropOp51
 70
     0
102
RTVSPost2010Prop52
140
1.0
102
RTVSPost2010PropOp52
 70
     0
102
RTVSPost2010Prop53
 90
        2
102
RTVSPost2010PropOp53
 70
     1
102
RTVSPost2010Prop54
  1
strokes_ogs.tif
102
RTVSPost2010PropOp54
 70
     1
102
RTVSPost2010Prop55
280
     0
102
RTVSPost2010PropOp55
 70
     1
102
RTVSPost2010Prop56
140
1.0
102
RTVSPost2010PropOp56
 70
     1
102
RTVSPost2010Prop57
140
1.0
102
RTVSPost2010PropOp57
 70
     1
  0
XRECORD
  5
161
102
{ACAD_REACTORS
330
160
102
}
330
160
100
AcDbXrecord
280
     1
102
RTVSPropertyOp0
 70
     1
102
RTVSPropertyOp1
 70
     1
102
RTVSPropertyOp2
 70
     1
102
RTVSPropertyOp3
 70
     1
102
RTVSPropertyOp4
 70
     1
102
RTVSPropertyOp5
 70
     1
102
RTVSPropertyOp6
 70
     1
102
RTVSPropertyOp7
 70
     1
102
RTVSPropertyOp8
 70
     1
102
RTVSPropertyOp9
 70
     1
102
RTVSPropertyOp10
 70
     1
102
RTVSPropertyOp11
 70
     1
102
RTVSPropertyOp12
 70
     1
102
RTVSPropertyOp13
 70
     1
102
RTVSPropertyOp14
 70
     1
102
RTVSPropertyOp15
 70
     1
102
RTVSPropertyOp16
 70
     1
102
RTVSPropertyOp17
 70
     1
102
RTVSPropertyOp18
 70
     1
102
RTVSPropertyOp19
 70
     1
102
RTVSPropertyOp20
 70
     1
102
RTVSPropertyOp21
 70
     1
102
RTVSPropertyOp22
 70
     1
102
RTVSPropertyOp23
 70
     1
102
RTVSPropertyOp24
 70
     1
102
RTVSPropertyOp25
 70
     1
102
RTVSPropertyOp26
 70
     1
102
RTVSPropertyOp27
 70
     1
102
RTVSPropertyOp28
 70
     1
102
RTVSPropertyOp29
 70
     1
102
RTVSPropertyOp30
 70
     1
102
RTVSPropertyOp31
 70
     1
102
RTVSPropertyOp32
 70
     1
102
RTVSPropertyOp33
 70
     1
102
RTVSPropertyOp34
 70
     1
102
RTVSPropertyOp35
 70
     1
102
RTVSPropertyOp36
 70
     1
102
RTVSPropertyOp37
 70
     1
102
RTVSPropertyOp38
 70
     1
102
RTVSPropertyOp39
 70
     1
102
RTVSPropertyOp40
 70
     1
102
RTVSPropertyOp41
 70
     1
102
RTVSPropertyOp42
 70
     1
102
RTVSPropertyOp43
 70
     1
102
RTVSPropertyOp44
 70
     1
102
RTVSPropertyOp45
 70
     1
102
RTVSPropertyOp46
 70
     1
102
RTVSPropertyOp47
 70
     1
102
RTVSPropertyOp48
 70
     1
102
RTVSPropertyOp49
 70
     1
102
RTVSPropertyOp50
 70
     1
102
RTVSPropertyOp51
 70
     0
102
RTVSPropertyOp52
 70
     0
102
RTVSPropertyOp53
 70
     1
102
RTVSPropertyOp54
 70
     1
102
RTVSPropertyOp55
 70
     1
102
RTVSPropertyOp56
 70
     1
102
RTVSPropertyOp57
 70
     1
102
RTVSPost2010Prop28
280
     0
102
RTVSPost2010PropOp28
 70
     1
102
RTVSPost2010Prop29
280
     1
102
RTVSPost2010PropOp29
 70
     1
102
RTVSPost2010Prop30
280
     1
102
RTVSPost2010PropOp30
 70
     1
102
RTVSPost2010Prop31
280
     0
102
RTVSPost2010PropOp31
 70
     1
102
RTVSPost2010Prop32
280
     0
102
RTVSPost2010PropOp32
 70
     1
102
RTVSPost2010Prop33
280
     0
102
RTVSPost2010PropOp33
 70
     1
102
RTVSPost2010Prop34
280
     0
102
RTVSPost2010PropOp34
 70
     1
102
RTVSPost2010Prop35
280
     0
102
RTVSPost2010PropOp35
 70
     1
102
RTVSPost2010Prop36
280
     0
102
RTVSPost2010PropOp36
 70
     1
102
RTVSPost2010Prop37
 90
       50
102
RTVSPost2010PropOp37
 70
     1
102
RTVSPost2010Prop38
140
0.0
102
RTVSPost2010PropOp38
 70
     1
102
RTVSPost2010Prop39
140
1.0
102
RTVSPost2010PropOp39
 70
     1
102
RTVSPost2010Prop40
 90
        0
102
RTVSPost2010PropOp40
 70
     1
102
RTVSPost2010Prop41ColorIndex
 90
       18
102
RTVSPost2010Prop41ColorRGB
 90
        0
102
RTVSPost2010PropOp41
 70
     1
102
RTVSPost2010Prop42
 90
       50
102
RTVSPost2010PropOp42
 70
     1
102
RTVSPost2010Prop43
 90
        3
102
RTVSPost2010PropOp43
 70
     1
102
RTVSPost2010Prop44ColorIndex
 90
        5
102
RTVSPost2010Prop44ColorRGB
 90
      255
102
RTVSPost2010PropOp44
 70
     1
102
RTVSPost2010Prop45
280
     0
102
RTVSPost2010PropOp45
 70
     1
102
RTVSPost2010Prop46
 90
       50
102
RTVSPost2010PropOp46
 70
     1
102
RTVSPost2010Prop47
 90
       50
102
RTVSPost2010PropOp47
 70
     1
102
RTVSPost2010Prop48
 90
       50
102
RTVSPost2010PropOp48
 70
     1
102
RTVSPost2010Prop49
280
     0
102
RTVSPost2010PropOp49
 70
     1
102
RTVSPost2010Prop50
 90
       50
102
RTVSPost2010PropOp50
 70
     1
102
RTVSPost2010Prop51ColorIndex
 90
      256
102
RTVSPost2010Prop51ColorRGB
 90
-16777216
102
RTVSPost2010PropOp51
 70
     0
102
RTVSPost2010Prop52
140
1.0
102
RTVSPost2010PropOp52
 70
     0
102
RTVSPost2010Prop53
 90
        2
102
RTVSPost2010PropOp53
 70
     1
102
RTVSPost2010Prop54
  1
strokes_ogs.tif
102
RTVSPost2010PropOp54
 70
     1
102
RTVSPost2010Prop55
280
     0
102
RTVSPost2010PropOp55
 70
     1
102
RTVSPost2010Prop56
140
1.0
102
RTVSPost2010PropOp56
 70
     1
102
RTVSPost2010Prop57
140
1.0
102
RTVSPost2010PropOp57
 70
     1
  0
XRECORD
  5
153
102
{ACAD_REACTORS
330
152
102
}
330
152
100
AcDbXrecord
280
     1
102
RTVSPropertyOp0
 70
     1
102
RTVSPropertyOp1
 70
     1
102
RTVSPropertyOp2
 70
     1
102
RTVSPropertyOp3
 70
     1
102
RTVSPropertyOp4
 70
     1
102
RTVSPropertyOp5
 70
     1
102
RTVSPropertyOp6
 70
     1
102
RTVSPropertyOp7
 70
     1
102
RTVSPropertyOp8
 70
     1
102
RTVSPropertyOp9
 70
     1
102
RTVSPropertyOp10
 70
     1
102
RTVSPropertyOp11
 70
     1
102
RTVSPropertyOp12
 70
     1
102
RTVSPropertyOp13
 70
     1
102
RTVSPropertyOp14
 70
     1
102
RTVSPropertyOp15
 70
     1
102
RTVSPropertyOp16
 70
     1
102
RTVSPropertyOp17
 70
     1
102
RTVSPropertyOp18
 70
     1
102
RTVSPropertyOp19
 70
     1
102
RTVSPropertyOp20
 70
     1
102
RTVSPropertyOp21
 70
     1
102
RTVSPropertyOp22
 70
     1
102
RTVSPropertyOp23
 70
     1
102
RTVSPropertyOp24
 70
     1
102
RTVSPropertyOp25
 70
     1
102
RTVSPropertyOp26
 70
     1
102
RTVSPropertyOp27
 70
     1
102
RTVSPropertyOp28
 70
     1
102
RTVSPropertyOp29
 70
     1
102
RTVSPropertyOp30
 70
     1
102
RTVSPropertyOp31
 70
     1
102
RTVSPropertyOp32
 70
     1
102
RTVSPropertyOp33
 70
     1
102
RTVSPropertyOp34
 70
     1
102
RTVSPropertyOp35
 70
     1
102
RTVSPropertyOp36
 70
     1
102
RTVSPropertyOp37
 70
     1
102
RTVSPropertyOp38
 70
     1
102
RTVSPropertyOp39
 70
     1
102
RTVSPropertyOp40
 70
     1
102
RTVSPropertyOp41
 70
     1
102
RTVSPropertyOp42
 70
     1
102
RTVSPropertyOp43
 70
     1
102
RTVSPropertyOp44
 70
     1
102
RTVSPropertyOp45
 70
     1
102
RTVSPropertyOp46
 70
     1
102
RTVSPropertyOp47
 70
     1
102
RTVSPropertyOp48
 70
     1
102
RTVSPropertyOp49
 70
     1
102
RTVSPropertyOp50
 70
     1
102
RTVSPropertyOp51
 70
     0
102
RTVSPropertyOp52
 70
     0
102
RTVSPropertyOp53
 70
     1
102
RTVSPropertyOp54
 70
     1
102
RTVSPropertyOp55
 70
     1
102
RTVSPropertyOp56
 70
     1
102
RTVSPropertyOp57
 70
     1
102
RTVSPost2010Prop28
280
     0
102
RTVSPost2010PropOp28
 70
     1
102
RTVSPost2010Prop29
280
     1
102
RTVSPost2010PropOp29
 70
     1
102
RTVSPost2010Prop30
280
     1
102
RTVSPost2010PropOp30
 70
     1
102
RTVSPost2010Prop31
280
     0
102
RTVSPost2010PropOp31
 70
     1
102
RTVSPost2010Prop32
280
     0
102
RTVSPost2010PropOp32
 70
     1
102
RTVSPost2010Prop33
280
     0
102
RTVSPost2010PropOp33
 70
     1
102
RTVSPost2010Prop34
280
     0
102
RTVSPost2010PropOp34
 70
     1
102
RTVSPost2010Prop35
280
     0
102
RTVSPost2010PropOp35
 70
     1
102
RTVSPost2010Prop36
280
     0
102
RTVSPost2010PropOp36
 70
     1
102
RTVSPost2010Prop37
 90
       50
102
RTVSPost2010PropOp37
 70
     1
102
RTVSPost2010Prop38
140
0.0
102
RTVSPost2010PropOp38
 70
     1
102
RTVSPost2010Prop39
140
1.0
102
RTVSPost2010PropOp39
 70
     1
102
RTVSPost2010Prop40
 90
        0
102
RTVSPost2010PropOp40
 70
     1
102
RTVSPost2010Prop41ColorIndex
 90
       18
102
RTVSPost2010Prop41ColorRGB
 90
        0
102
RTVSPost2010PropOp41
 70
     1
102
RTVSPost2010Prop42
 90
       50
102
RTVSPost2010PropOp42
 70
     1
102
RTVSPost2010Prop43
 90
        3
102
RTVSPost2010PropOp43
 70
     1
102
RTVSPost2010Prop44ColorIndex
 90
        5
102
RTVSPost2010Prop44ColorRGB
 90
      255
102
RTVSPost2010PropOp44
 70
     1
102
RTVSPost2010Prop45
280
     0
102
RTVSPost2010PropOp45
 70
     1
102
RTVSPost2010Prop46
 90
       50
102
RTVSPost2010PropOp46
 70
     1
102
RTVSPost2010Prop47
 90
       50
102
RTVSPost2010PropOp47
 70
     1
102
RTVSPost2010Prop48
 90
       50
102
RTVSPost2010PropOp48
 70
     1
102
RTVSPost2010Prop49
280
     0
102
RTVSPost2010PropOp49
 70
     1
102
RTVSPost2010Prop50
 90
       50
102
RTVSPost2010PropOp50
 70
     1
102
RTVSPost2010Prop51ColorIndex
 90
      256
102
RTVSPost2010Prop51ColorRGB
 90
-16777216
102
RTVSPost2010PropOp51
 70
     0
102
RTVSPost2010Prop52
140
1.0
102
RTVSPost2010PropOp52
 70
     0
102
RTVSPost2010Prop53
 90
        2
102
RTVSPost2010PropOp53
 70
     1
102
RTVSPost2010Prop54
  1
strokes_ogs.tif
102
RTVSPost2010PropOp54
 70
     1
102
RTVSPost2010Prop55
280
     0
102
RTVSPost2010PropOp55
 70
     1
102
RTVSPost2010Prop56
140
1.0
102
RTVSPost2010PropOp56
 70
     1
102
RTVSPost2010Prop57
140
1.0
102
RTVSPost2010PropOp57
 70
     1
  0
XRECORD
  5
173
102
{ACAD_REACTORS
330
172
102
}
330
172
100
AcDbXrecord
280
     1
102
RTVSPropertyOp0
 70
     1
102
RTVSPropertyOp1
 70
     1
102
RTVSPropertyOp2
 70
     1
102
RTVSPropertyOp3
 70
     1
102
RTVSPropertyOp4
 70
     1
102
RTVSPropertyOp5
 70
     1
102
RTVSPropertyOp6
 70
     1
102
RTVSPropertyOp7
 70
     1
102
RTVSPropertyOp8
 70
     1
102
RTVSPropertyOp9
 70
     1
102
RTVSPropertyOp10
 70
     1
102
RTVSPropertyOp11
 70
     1
102
RTVSPropertyOp12
 70
     1
102
RTVSPropertyOp13
 70
     1
102
RTVSPropertyOp14
 70
     1
102
RTVSPropertyOp15
 70
     1
102
RTVSPropertyOp16
 70
     1
102
RTVSPropertyOp17
 70
     1
102
RTVSPropertyOp18
 70
     1
102
RTVSPropertyOp19
 70
     1
102
RTVSPropertyOp20
 70
     1
102
RTVSPropertyOp21
 70
     1
102
RTVSPropertyOp22
 70
     1
102
RTVSPropertyOp23
 70
     1
102
RTVSPropertyOp24
 70
     1
102
RTVSPropertyOp25
 70
     1
102
RTVSPropertyOp26
 70
     1
102
RTVSPropertyOp27
 70
     1
102
RTVSPropertyOp28
 70
     1
102
RTVSPropertyOp29
 70
     1
102
RTVSPropertyOp30
 70
     1
102
RTVSPropertyOp31
 70
     1
102
RTVSPropertyOp32
 70
     1
102
RTVSPropertyOp33
 70
     1
102
RTVSPropertyOp34
 70
     1
102
RTVSPropertyOp35
 70
     1
102
RTVSPropertyOp36
 70
     1
102
RTVSPropertyOp37
 70
     1
102
RTVSPropertyOp38
 70
     1
102
RTVSPropertyOp39
 70
     1
102
RTVSPropertyOp40
 70
     1
102
RTVSPropertyOp41
 70
     1
102
RTVSPropertyOp42
 70
     1
102
RTVSPropertyOp43
 70
     1
102
RTVSPropertyOp44
 70
     1
102
RTVSPropertyOp45
 70
     1
102
RTVSPropertyOp46
 70
     1
102
RTVSPropertyOp47
 70
     1
102
RTVSPropertyOp48
 70
     1
102
RTVSPropertyOp49
 70
     1
102
RTVSPropertyOp50
 70
     1
102
RTVSPropertyOp51
 70
     0
102
RTVSPropertyOp52
 70
     0
102
RTVSPropertyOp53
 70
     1
102
RTVSPropertyOp54
 70
     1
102
RTVSPropertyOp55
 70
     1
102
RTVSPropertyOp56
 70
     1
102
RTVSPropertyOp57
 70
     1
102
RTVSPost2010Prop28
280
     0
102
RTVSPost2010PropOp28
 70
     1
102
RTVSPost2010Prop29
280
     1
102
RTVSPost2010PropOp29
 70
     1
102
RTVSPost2010Prop30
280
     1
102
RTVSPost2010PropOp30
 70
     1
102
RTVSPost2010Prop31
280
     0
102
RTVSPost2010PropOp31
 70
     1
102
RTVSPost2010Prop32
280
     0
102
RTVSPost2010PropOp32
 70
     1
102
RTVSPost2010Prop33
280
     0
102
RTVSPost2010PropOp33
 70
     1
102
RTVSPost2010Prop34
280
     0
102
RTVSPost2010PropOp34
 70
     1
102
RTVSPost2010Prop35
280
     0
102
RTVSPost2010PropOp35
 70
     1
102
RTVSPost2010Prop36
280
     0
102
RTVSPost2010PropOp36
 70
     1
102
RTVSPost2010Prop37
 90
       50
102
RTVSPost2010PropOp37
 70
     1
102
RTVSPost2010Prop38
140
0.0
102
RTVSPost2010PropOp38
 70
     1
102
RTVSPost2010Prop39
140
1.0
102
RTVSPost2010PropOp39
 70
     1
102
RTVSPost2010Prop40
 90
        0
102
RTVSPost2010PropOp40
 70
     1
102
RTVSPost2010Prop41ColorIndex
 90
       18
102
RTVSPost2010Prop41ColorRGB
 90
        0
102
RTVSPost2010PropOp41
 70
     1
102
RTVSPost2010Prop42
 90
       50
102
RTVSPost2010PropOp42
 70
     1
102
RTVSPost2010Prop43
 90
        3
102
RTVSPost2010PropOp43
 70
     1
102
RTVSPost2010Prop44ColorIndex
 90
        5
102
RTVSPost2010Prop44ColorRGB
 90
      255
102
RTVSPost2010PropOp44
 70
     1
102
RTVSPost2010Prop45
280
     0
102
RTVSPost2010PropOp45
 70
     1
102
RTVSPost2010Prop46
 90
       50
102
RTVSPost2010PropOp46
 70
     1
102
RTVSPost2010Prop47
 90
       50
102
RTVSPost2010PropOp47
 70
     1
102
RTVSPost2010Prop48
 90
       50
102
RTVSPost2010PropOp48
 70
     1
102
RTVSPost2010Prop49
280
     0
102
RTVSPost2010PropOp49
 70
     1
102
RTVSPost2010Prop50
 90
       50
102
RTVSPost2010PropOp50
 70
     1
102
RTVSPost2010Prop51ColorIndex
 90
      256
102
RTVSPost2010Prop51ColorRGB
 90
-16777216
102
RTVSPost2010PropOp51
 70
     0
102
RTVSPost2010Prop52
140
1.0
102
RTVSPost2010PropOp52
 70
     0
102
RTVSPost2010Prop53
 90
        2
102
RTVSPost2010PropOp53
 70
     1
102
RTVSPost2010Prop54
  1
strokes_ogs.tif
102
RTVSPost2010PropOp54
 70
     1
102
RTVSPost2010Prop55
280
     0
102
RTVSPost2010PropOp55
 70
     1
102
RTVSPost2010Prop56
140
1.0
102
RTVSPost2010PropOp56
 70
     1
102
RTVSPost2010Prop57
140
1.0
102
RTVSPost2010PropOp57
 70
     1
  0
ENDSEC
  0
EOF
