  0
SECTION
  2
HEADER
  9
$ACADVER
  1
AC1015
  9
$ACADMAINTVER
 70
     6
  9
$DWGCODEPAGE
  3
ANSI_1252
  9
$INSBASE
 10
438.4823889230029
 20
418.2333894345356
 30
0.0
  9
$EXTMIN
 10
422.6474893230261
 20
405.5779026448651
 30
0.0
  9
$EXTMAX
 10
456.4765884684312
 20
423.1893714554094
 30
0.0
  9
$LIMMIN
 10
0.0
 20
0.0
  9
$LIMMAX
 10
12.0
 20
9.0
  9
$ORTHOMODE
 70
     0
  9
$REGENMODE
 70
     1
  9
$FILLMODE
 70
     1
  9
$QTEXTMODE
 70
     0
  9
$MIRRTEXT
 70
     1
  9
$LTSCALE
 40
1.0
  9
$ATTMODE
 70
     1
  9
$TEXTSIZE
 40
0.2
  9
$TRACEWID
 40
0.05
  9
$TEXTSTYLE
  7
Standard
  9
$CLAYER
  8
0
  9
$CELTYPE
  6
ByLayer
  9
$CECOLOR
 62
   256
  9
$CELTSCALE
 40
1.0
  9
$DISPSILH
 70
     0
  9
$DIMSCALE
 40
1.0
  9
$DIMASZ
 40
0.18
  9
$DIMEXO
 40
0.0625
  9
$DIMDLI
 40
0.38
  9
$DIMRND
 40
0.0
  9
$DIMDLE
 40
0.0
  9
$DIMEXE
 40
0.18
  9
$DIMTP
 40
0.0
  9
$DIMTM
 40
0.0
  9
$DIMTXT
 40
0.18
  9
$DIMCEN
 40
0.09
  9
$DIMTSZ
 40
0.0
  9
$DIMTOL
 70
     0
  9
$DIMLIM
 70
     0
  9
$DIMTIH
 70
     1
  9
$DIMTOH
 70
     1
  9
$DIMSE1
 70
     0
  9
$DIMSE2
 70
     0
  9
$DIMTAD
 70
     0
  9
$DIMZIN
 70
     0
  9
$DIMBLK
  1

  9
$DIMASO
 70
     1
  9
$DIMSHO
 70
     1
  9
$DIMPOST
  1

  9
$DIMAPOST
  1

  9
$DIMALT
 70
     0
  9
$DIMALTD
 70
     2
  9
$DIMALTF
 40
25.4
  9
$DIMLFAC
 40
1.0
  9
$DIMTOFL
 70
     0
  9
$DIMTVP
 40
0.0
  9
$DIMTIX
 70
     0
  9
$DIMSOXD
 70
     0
  9
$DIMSAH
 70
     0
  9
$DIMBLK1
  1

  9
$DIMBLK2
  1

  9
$DIMSTYLE
  2
Standard
  9
$DIMCLRD
 70
     0
  9
$DIMCLRE
 70
     0
  9
$DIMCLRT
 70
     0
  9
$DIMTFAC
 40
1.0
  9
$DIMGAP
 40
0.09
  9
$DIMJUST
 70
     0
  9
$DIMSD1
 70
     0
  9
$DIMSD2
 70
     0
  9
$DIMTOLJ
 70
     1
  9
$DIMTZIN
 70
     0
  9
$DIMALTZ
 70
     0
  9
$DIMALTTZ
 70
     0
  9
$DIMUPT
 70
     0
  9
$DIMDEC
 70
     4
  9
$DIMTDEC
 70
     4
  9
$DIMALTU
 70
     2
  9
$DIMALTTD
 70
     2
  9
$DIMTXSTY
  7
Standard
  9
$DIMAUNIT
 70
     0
  9
$DIMADEC
 70
     0
  9
$DIMALTRND
 40
0.0
  9
$DIMAZIN
 70
     0
  9
$DIMDSEP
 70
    46
  9
$DIMATFIT
 70
     3
  9
$DIMFRAC
 70
     0
  9
$DIMLDRBLK
  1

  9
$DIMLUNIT
 70
     2
  9
$DIMLWD
 70
    -2
  9
$DIMLWE
 70
    -2
  9
$DIMTMOVE
 70
     0
  9
$LUNITS
 70
     2
  9
$LUPREC
 70
     4
  9
$SKETCHINC
 40
0.1
  9
$FILLETRAD
 40
0.5
  9
$AUNITS
 70
     0
  9
$AUPREC
 70
     0
  9
$MENU
  1
.
  9
$ELEVATION
 40
0.0
  9
$PELEVATION
 40
0.0
  9
$THICKNESS
 40
0.0
  9
$LIMCHECK
 70
     0
  9
$CHAMFERA
 40
0.5
  9
$CHAMFERB
 40
0.5
  9
$CHAMFERC
 40
1.0
  9
$CHAMFERD
 40
0.0
  9
$SKPOLY
 70
     0
  9
$TDCREATE
 40
2458676.485268229
  9
$TDUCREATE
 40
2458676.651934896
  9
$TDUPDATE
 40
2458708.549141065
  9
$TDUUPDATE
 40
2458708.715807731
  9
$TDINDWG
 40
0.1600564468
  9
$TDUSRTIMER
 40
0.1600564468
  9
$USRTIMER
 70
     1
  9
$ANGBASE
 50
0.0
  9
$ANGDIR
 70
     0
  9
$PDMODE
 70
     0
  9
$PDSIZE
 40
0.0
  9
$PLINEWID
 40
0.0
  9
$SPLFRAME
 70
     0
  9
$SPLINETYPE
 70
     6
  9
$SPLINESEGS
 70
     8
  9
$HANDSEED
  5
109
  9
$SURFTAB1
 70
     6
  9
$SURFTAB2
 70
     6
  9
$SURFTYPE
 70
     6
  9
$SURFU
 70
     6
  9
$SURFV
 70
     6
  9
$UCSBASE
  2

  9
$UCSNAME
  2

  9
$UCSORG
 10
0.0
 20
0.0
 30
0.0
  9
$UCSXDIR
 10
1.0
 20
0.0
 30
0.0
  9
$UCSYDIR
 10
0.0
 20
1.0
 30
0.0
  9
$UCSORTHOREF
  2

  9
$UCSORTHOVIEW
 70
     0
  9
$UCSORGTOP
 10
0.0
 20
0.0
 30
0.0
  9
$UCSORGBOTTOM
 10
0.0
 20
0.0
 30
0.0
  9
$UCSORGLEFT
 10
0.0
 20
0.0
 30
0.0
  9
$UCSORGRIGHT
 10
0.0
 20
0.0
 30
0.0
  9
$UCSORGFRONT
 10
0.0
 20
0.0
 30
0.0
  9
$UCSORGBACK
 10
0.0
 20
0.0
 30
0.0
  9
$PUCSBASE
  2

  9
$PUCSNAME
  2

  9
$PUCSORG
 10
0.0
 20
0.0
 30
0.0
  9
$PUCSXDIR
 10
1.0
 20
0.0
 30
0.0
  9
$PUCSYDIR
 10
0.0
 20
1.0
 30
0.0
  9
$PUCSORTHOREF
  2

  9
$PUCSORTHOVIEW
 70
     0
  9
$PUCSORGTOP
 10
0.0
 20
0.0
 30
0.0
  9
$PUCSORGBOTTOM
 10
0.0
 20
0.0
 30
0.0
  9
$PUCSORGLEFT
 10
0.0
 20
0.0
 30
0.0
  9
$PUCSORGRIGHT
 10
0.0
 20
0.0
 30
0.0
  9
$PUCSORGFRONT
 10
0.0
 20
0.0
 30
0.0
  9
$PUCSORGBACK
 10
0.0
 20
0.0
 30
0.0
  9
$USERI1
 70
     0
  9
$USERI2
 70
     0
  9
$USERI3
 70
     0
  9
$USERI4
 70
     0
  9
$USERI5
 70
     0
  9
$USERR1
 40
0.0
  9
$USERR2
 40
0.0
  9
$USERR3
 40
0.0
  9
$USERR4
 40
0.0
  9
$USERR5
 40
0.0
  9
$WORLDVIEW
 70
     1
  9
$SHADEDGE
 70
     3
  9
$SHADEDIF
 70
    70
  9
$TILEMODE
 70
     1
  9
$MAXACTVP
 70
    64
  9
$PINSBASE
 10
0.0
 20
0.0
 30
0.0
  9
$PLIMCHECK
 70
     0
  9
$PEXTMIN
 10
1.000000000000000E+20
 20
1.000000000000000E+20
 30
1.000000000000000E+20
  9
$PEXTMAX
 10
-1.000000000000000E+20
 20
-1.000000000000000E+20
 30
-1.000000000000000E+20
  9
$PLIMMIN
 10
-0.25
 20
-0.25
  9
$PLIMMAX
 10
10.75
 20
8.25
  9
$UNITMODE
 70
     0
  9
$VISRETAIN
 70
     1
  9
$PLINEGEN
 70
     0
  9
$PSLTSCALE
 70
     1
  9
$TREEDEPTH
 70
  3020
  9
$CMLSTYLE
  2
Standard
  9
$CMLJUST
 70
     0
  9
$CMLSCALE
 40
1.0
  9
$PROXYGRAPHICS
 70
     1
  9
$MEASUREMENT
 70
     0
  9
$CELWEIGHT
370
    -1
  9
$ENDCAPS
280
     0
  9
$JOINSTYLE
280
     0
  9
$LWDISPLAY
290
     1
  9
$INSUNITS
 70
     1
  9
$HYPERLINKBASE
  1

  9
$STYLESHEET
  1

  9
$XEDIT
290
     1
  9
$CEPSNTYPE
380
     0
  9
$PSTYLEMODE
290
     1
  9
$FINGERPRINTGUID
  2
{3FF96223-F9C2-48F7-A4C5-C732E40B2087}
  9
$VERSIONGUID
  2
{FAEB1C32-E019-11D5-929B-00C0DF256EC4}
  9
$EXTNAMES
290
     1
  9
$PSVPSCALE
 40
0.0
  9
$OLESTARTUP
290
     0
  0
ENDSEC
  0
SECTION
  2
CLASSES
  0
CLASS
  1
ACDBDICTIONARYWDFLT
  2
AcDbDictionaryWithDefault
  3
ObjectDBX Classes
 90
        0
280
     0
281
     0
  0
CLASS
  1
MATERIAL
  2
AcDbMaterial
  3
ObjectDBX Classes
 90
     1153
280
     0
281
     0
  0
CLASS
  1
VISUALSTYLE
  2
AcDbVisualStyle
  3
ObjectDBX Classes
 90
     4095
280
     0
281
     0
  0
CLASS
  1
SUN
  2
AcDbSun
  3
SCENEOE
 90
     1153
280
     0
281
     0
  0
CLASS
  1
SCALE
  2
AcDbScale
  3
ObjectDBX Classes
 90
     1153
280
     0
281
     0
  0
CLASS
  1
DICTIONARYVAR
  2
AcDbDictionaryVar
  3
ObjectDBX Classes
 90
        0
280
     0
281
     0
  0
CLASS
  1
MLEADERSTYLE
  2
AcDbMLeaderStyle
  3
ACDB_MLEADERSTYLE_CLASS
 90
     4095
280
     0
281
     0
  0
CLASS
  1
TABLESTYLE
  2
AcDbTableStyle
  3
ObjectDBX Classes
 90
     4095
280
     0
281
     0
  0
CLASS
  1
ACDBPLACEHOLDER
  2
AcDbPlaceHolder
  3
ObjectDBX Classes
 90
        0
280
     0
281
     0
  0
CLASS
  1
LAYOUT
  2
AcDbLayout
  3
ObjectDBX Classes
 90
        0
280
     0
281
     0
  0
ENDSEC
  0
SECTION
  2
TABLES
  0
TABLE
  2
VPORT
  5
1F
102
{ACAD_XDICTIONARY
360
CD
102
}
330
0
100
AcDbSymbolTable
 70
     1
  0
VPORT
  5
25
330
1F
100
AcDbSymbolTableRecord
100
AcDbViewportTableRecord
  2
*Active
 70
     0
 10
0.0
 20
0.0
 11
1.0
 21
1.0
 12
439.5620388957286
 22
414.3836370501373
 13
0.0
 23
0.0
 14
0.5
 24
0.5
 15
0.5
 25
0.5
 16
0.0
 26
0.0
 36
1.0
 17
0.0
 27
0.0
 37
0.0
 40
17.96369818675518
 41
1.920856205085577
 42
50.0
 43
0.0
 44
0.0
 50
0.0
 51
0.0
 71
    16
 72
   100
 73
     1
 74
     3
 75
     0
 76
     0
 77
     0
 78
     0
281
     0
 65
     1
110
0.0
120
0.0
130
0.0
111
1.0
121
0.0
131
0.0
112
0.0
122
1.0
132
0.0
 79
     0
146
0.0
  0
ENDTAB
  0
TABLE
  2
LTYPE
  5
9
330
0
100
AcDbSymbolTable
 70
     1
  0
LTYPE
  5
A
330
9
100
AcDbSymbolTableRecord
100
AcDbLinetypeTableRecord
  2
ByBlock
 70
     0
  3

 72
    65
 73
     0
 40
0.0
  0
LTYPE
  5
B
330
9
100
AcDbSymbolTableRecord
100
AcDbLinetypeTableRecord
  2
ByLayer
 70
     0
  3

 72
    65
 73
     0
 40
0.0
  0
LTYPE
  5
8
330
9
100
AcDbSymbolTableRecord
100
AcDbLinetypeTableRecord
  2
Continuous
 70
     0
  3
Solid line
 72
    65
 73
     0
 40
0.0
  0
ENDTAB
  0
TABLE
  2
LAYER
  5
2
330
0
100
AcDbSymbolTable
 70
     2
  0
LAYER
  5
1
330
2
100
AcDbSymbolTableRecord
100
AcDbLayerTableRecord
  2
0
 70
     0
 62
     7
  6
Continuous
370
    -3
390
3
  0
LAYER
  5
4E
330
2
100
AcDbSymbolTableRecord
100
AcDbLayerTableRecord
  2
Layer 1
 70
     0
 62
     7
  6
Continuous
370
    -3
390
3
  0
ENDTAB
  0
TABLE
  2
STYLE
  5
D
330
0
100
AcDbSymbolTable
 70
     1
  0
STYLE
  5
C
330
D
100
AcDbSymbolTableRecord
100
AcDbTextStyleTableRecord
  2
Standard
 70
     0
 40
0.0
 41
1.0
 50
0.0
 71
     0
 42
0.2
  3
txt
  4

  0
ENDTAB
  0
TABLE
  2
VIEW
  5
1D
330
0
100
AcDbSymbolTable
 70
     0
  0
ENDTAB
  0
TABLE
  2
UCS
  5
1E
330
0
100
AcDbSymbolTable
 70
     0
  0
ENDTAB
  0
TABLE
  2
APPID
  5
20
330
0
100
AcDbSymbolTable
 70
     2
  0
APPID
  5
24
330
20
100
AcDbSymbolTableRecord
100
AcDbRegAppTableRecord
  2
ACAD
 70
     0
  0
APPID
  5
106
330
20
100
AcDbSymbolTableRecord
100
AcDbRegAppTableRecord
  2
ACAD_MLEADERVER
 70
     0
  0
ENDTAB
  0
TABLE
  2
DIMSTYLE
  5
10
330
0
100
AcDbSymbolTable
 70
     1
100
AcDbDimStyleTable
  0
DIMSTYLE
105
F
330
10
100
AcDbSymbolTableRecord
100
AcDbDimStyleTableRecord
  2
Standard
 70
     0
178
     0
340
C
  0
ENDTAB
  0
TABLE
  2
BLOCK_RECORD
  5
13
330
0
100
AcDbSymbolTable
 70
     0
  0
BLOCK_RECORD
  5
14
330
13
100
AcDbSymbolTableRecord
100
AcDbBlockTableRecord
  2
*Model_Space
340
17
  0
BLOCK_RECORD
  5
19
330
13
100
AcDbSymbolTableRecord
100
AcDbBlockTableRecord
  2
*Paper_Space
340
1C
  0
ENDTAB
  0
ENDSEC
  0
SECTION
  2
BLOCKS
  0
BLOCK
  5
15
330
14
100
AcDbEntity
  8
0
100
AcDbBlockBegin
  2
*Model_Space
 70
     0
 10
0.0
 20
0.0
 30
0.0
  3
*Model_Space
  1

  0
ENDBLK
  5
16
330
14
100
AcDbEntity
  8
0
100
AcDbBlockEnd
  0
BLOCK
  5
1A
330
19
100
AcDbEntity
 67
     1
  8
0
100
AcDbBlockBegin
  2
*Paper_Space
 70
     0
 10
0.0
 20
0.0
 30
0.0
  3
*Paper_Space
  1

  0
ENDBLK
  5
1B
330
19
100
AcDbEntity
 67
     1
  8
0
100
AcDbBlockEnd
  0
ENDSEC
  0
SECTION
  2
ENTITIES
  0
POLYLINE
  5
4D
330
14
100
AcDbEntity
  8
Layer 1
370
     0
100
AcDb2dPolyline
 66
     1
 10
0.0
 20
0.0
 30
0.0
  0
VERTEX
  5
4F
330
4D
100
AcDbEntity
  8
Layer 1
370
     0
100
AcDbVertex
100
AcDb2dVertex
 10
454.0517885296867
 20
409.7440896489934
 30
0.0
  0
VERTEX
  5
50
330
4D
100
AcDbEntity
  8
Layer 1
370
     0
100
AcDbVertex
100
AcDb2dVertex
 10
454.0517885296867
 20
409.4394896566882
 30
0.0
  0
VERTEX
  5
51
330
4D
100
AcDbEntity
  8
Layer 1
370
     0
100
AcDbVertex
100
AcDb2dVertex
 10
455.5565884916723
 20
409.4394896566882
 30
0.0
  0
VERTEX
  5
52
330
4D
100
AcDbEntity
  8
Layer 1
370
     0
100
AcDbVertex
100
AcDb2dVertex
 10
455.5565884916723
 20
409.7440896489934
 30
0.0
  0
VERTEX
  5
53
330
4D
100
AcDbEntity
  8
Layer 1
370
     0
100
AcDbVertex
100
AcDb2dVertex
 10
454.0517885296867
 20
409.7440896489934
 30
0.0
  0
VERTEX
  5
54
330
4D
100
AcDbEntity
  8
Layer 1
370
     0
100
AcDbVertex
100
AcDb2dVertex
 10
454.0517885296867
 20
409.7440896489934
 30
0.0
  0
SEQEND
  5
55
330
4D
100
AcDbEntity
  8
Layer 1
370
     0
  0
SPLINE
  5
56
330
14
100
AcDbEntity
  8
Layer 1
370
     0
100
AcDbSpline
210
0.0
220
0.0
230
1.0
 70
    11
 71
     3
 72
    29
 73
    25
 74
     0
 42
0.000000001
 43
0.0000000001
 40
0.0
 40
0.0
 40
0.0
 40
0.0
 40
1.0
 40
1.0
 40
1.0
 40
2.0
 40
2.0
 40
2.0
 40
3.0
 40
3.0
 40
3.0
 40
4.0
 40
4.0
 40
4.0
 40
5.0
 40
5.0
 40
5.0
 40
6.0
 40
6.0
 40
6.0
 40
7.0
 40
7.0
 40
7.0
 40
8.0
 40
8.0
 40
8.0
 40
8.0
 10
450.7265886136884
 20
409.2567896613036
 30
0.0
 10
450.5136886190667
 20
409.4687896559481
 30
0.0
 10
450.2206886264685
 20
409.5995896526438
 30
0.0
 10
449.8964886346585
 20
409.5995896526438
 30
0.0
 10
449.5722886428484
 20
409.5995896526438
 30
0.0
 10
449.2772886503008
 20
409.4687896559481
 30
0.0
 10
449.0663886556285
 20
409.2567896613036
 30
0.0
 10
448.8534886610068
 20
409.0448896666567
 30
0.0
 10
448.7226886643111
 20
408.75
 30
0.0
 10
448.7226886643111
 20
408.4257896822965
 30
0.0
 10
448.7226886643111
 20
408.1015896904864
 30
0.0
 10
448.8534886610068
 20
407.8085896978882
 30
0.0
 10
449.0663886556285
 20
407.5956897032665
 30
0.0
 10
449.2772886503008
 20
407.3827897086449
 30
0.0
 10
449.5722886428484
 20
407.2520000000004
 30
0.0
 10
449.8964886346585
 20
407.2520000000004
 30
0.0
 10
450.2206886264685
 20
407.2520000000004
 30
0.0
 10
450.5136886190667
 20
407.3827897086449
 30
0.0
 10
450.7265886136884
 20
407.5956897032665
 30
0.0
 10
450.9394886083101
 20
407.8085896978882
 30
0.0
 10
451.0702886050058
 20
408.1015896904864
 30
0.0
 10
451.0702886050058
 20
408.4257896822965
 30
0.0
 10
451.0702886050058
 20
408.75
 30
0.0
 10
450.9394886083101
 20
409.0448896666567
 30
0.0
 10
450.7265886136884
 20
409.2567896613036
 30
0.0
  0
SPLINE
  5
57
330
14
100
AcDbEntity
  8
Layer 1
370
     0
100
AcDbSpline
210
0.0
220
0.0
230
1.0
 70
    11
 71
     3
 72
    20
 73
    16
 74
     0
 42
0.000000001
 43
0.0000000001
 40
0.0
 40
0.0
 40
0.0
 40
0.0
 40
1.0
 40
1.0
 40
1.0
 40
2.0
 40
2.0
 40
2.0
 40
3.0
 40
3.0
 40
3.0
 40
4.0
 40
4.0
 40
4.0
 40
5.0
 40
5.0
 40
5.0
 40
5.0
 10
449.3495886484743
 20
409.1679999999997
 30
0.0
 10
449.2948886498561
 20
409.2245896621171
 30
0.0
 10
449.2050886521247
 20
409.2245896621171
 30
0.0
 10
449.1503886535065
 20
409.1679999999997
 30
0.0
 10
449.0956886548884
 20
409.1142896649035
 30
0.0
 10
449.0956886548884
 20
409.0233896671998
 30
0.0
 10
449.1503886535065
 20
408.9696896685564
 30
0.0
 10
449.2050886521247
 20
408.914089669961
 30
0.0
 10
449.2948886498561
 20
408.914089669961
 30
0.0
 10
449.3495886484743
 20
408.9696896685564
 30
0.0
 10
449.4052886470672
 20
409.0233896671998
 30
0.0
 10
449.4052886470672
 20
409.1142896649035
 30
0.0
 10
449.3495886484743
 20
409.1679999999997
 30
0.0
 10
449.3495886484743
 20
409.1679999999997
 30
0.0
 10
449.3495886484743
 20
409.1679999999997
 30
0.0
 10
449.3495886484743
 20
409.1679999999997
 30
0.0
  0
SPLINE
  5
58
330
14
100
AcDbEntity
  8
Layer 1
370
     0
100
AcDbSpline
210
0.0
220
0.0
230
1.0
 70
    11
 71
     3
 72
    20
 73
    16
 74
     0
 42
0.000000001
 43
0.0000000001
 40
0.0
 40
0.0
 40
0.0
 40
0.0
 40
1.0
 40
1.0
 40
1.0
 40
2.0
 40
2.0
 40
2.0
 40
3.0
 40
3.0
 40
3.0
 40
4.0
 40
4.0
 40
4.0
 40
5.0
 40
5.0
 40
5.0
 40
5.0
 10
450.0351886311546
 20
409.3378896592549
 30
0.0
 10
450.0351886311546
 20
409.4159999999993
 30
0.0
 10
449.970688632784
 20
409.478489655703
 30
0.0
 10
449.892588634757
 20
409.478489655703
 30
0.0
 10
449.8163886366819
 20
409.478489655703
 30
0.0
 10
449.7520000000004
 20
409.4159999999993
 30
0.0
 10
449.7520000000004
 20
409.3378896592549
 30
0.0
 10
449.7520000000004
 20
409.2597896612278
 30
0.0
 10
449.8163886366819
 20
409.1972896628067
 30
0.0
 10
449.892588634757
 20
409.1972896628067
 30
0.0
 10
449.970688632784
 20
409.1972896628067
 30
0.0
 10
450.0351886311546
 20
409.2597896612278
 30
0.0
 10
450.0351886311546
 20
409.3378896592549
 30
0.0
 10
450.0351886311546
 20
409.3378896592549
 30
0.0
 10
450.0351886311546
 20
409.3378896592549
 30
0.0
 10
450.0351886311546
 20
409.3378896592549
 30
0.0
  0
SPLINE
  5
59
330
14
100
AcDbEntity
  8
Layer 1
370
     0
100
AcDbSpline
210
0.0
220
0.0
230
1.0
 70
    11
 71
     3
 72
    20
 73
    16
 74
     0
 42
0.000000001
 43
0.0000000001
 40
0.0
 40
0.0
 40
0.0
 40
0.0
 40
1.0
 40
1.0
 40
1.0
 40
2.0
 40
2.0
 40
2.0
 40
3.0
 40
3.0
 40
3.0
 40
4.0
 40
4.0
 40
4.0
 40
5.0
 40
5.0
 40
5.0
 40
5.0
 10
450.6386886159089
 20
408.9726896684806
 30
0.0
 10
450.6933886145271
 20
409.0272896671013
 30
0.0
 10
450.6933886145271
 20
409.1171896648302
 30
0.0
 10
450.6386886159089
 20
409.1718896634484
 30
0.0
 10
450.5840000000007
 20
409.2265896620665
 30
0.0
 10
450.4940886195618
 20
409.2265896620665
 30
0.0
 10
450.4394886209411
 20
409.1718896634484
 30
0.0
 10
450.384788622323
 20
409.1171896648302
 30
0.0
 10
450.384788622323
 20
409.0272896671013
 30
0.0
 10
450.4394886209411
 20
408.9726896684806
 30
0.0
 10
450.4940886195618
 20
408.9179999999997
 30
0.0
 10
450.5840000000007
 20
408.9179999999997
 30
0.0
 10
450.6386886159089
 20
408.9726896684806
 30
0.0
 10
450.6386886159089
 20
408.9726896684806
 30
0.0
 10
450.6386886159089
 20
408.9726896684806
 30
0.0
 10
450.6386886159089
 20
408.9726896684806
 30
0.0
  0
SPLINE
  5
5A
330
14
100
AcDbEntity
  8
Layer 1
370
     0
100
AcDbSpline
210
0.0
220
0.0
230
1.0
 70
    11
 71
     3
 72
    20
 73
    16
 74
     0
 42
0.000000001
 43
0.0000000001
 40
0.0
 40
0.0
 40
0.0
 40
0.0
 40
1.0
 40
1.0
 40
1.0
 40
2.0
 40
2.0
 40
2.0
 40
3.0
 40
3.0
 40
3.0
 40
4.0
 40
4.0
 40
4.0
 40
5.0
 40
5.0
 40
5.0
 40
5.0
 10
450.8085886116169
 20
408.2870896858003
 30
0.0
 10
450.8856886096692
 20
408.2870896858003
 30
0.0
 10
450.949188608065
 20
408.3515896841709
 30
0.0
 10
450.949188608065
 20
408.4296896821979
 30
0.0
 10
450.949188608065
 20
408.5067896802502
 30
0.0
 10
450.8856886096692
 20
408.5702896786461
 30
0.0
 10
450.8085886116169
 20
408.5702896786461
 30
0.0
 10
450.7304886135898
 20
408.5702896786461
 30
0.0
 10
450.6659999999993
 20
408.5067896802502
 30
0.0
 10
450.6659999999993
 20
408.4296896821979
 30
0.0
 10
450.6659999999993
 20
408.3515896841709
 30
0.0
 10
450.7304886135898
 20
408.2870896858003
 30
0.0
 10
450.8085886116169
 20
408.2870896858003
 30
0.0
 10
450.8085886116169
 20
408.2870896858003
 30
0.0
 10
450.8085886116169
 20
408.2870896858003
 30
0.0
 10
450.8085886116169
 20
408.2870896858003
 30
0.0
  0
SPLINE
  5
5B
330
14
100
AcDbEntity
  8
Layer 1
370
     0
100
AcDbSpline
210
0.0
220
0.0
230
1.0
 70
    11
 71
     3
 72
    20
 73
    16
 74
     0
 42
0.000000001
 43
0.0000000001
 40
0.0
 40
0.0
 40
0.0
 40
0.0
 40
1.0
 40
1.0
 40
1.0
 40
2.0
 40
2.0
 40
2.0
 40
3.0
 40
3.0
 40
3.0
 40
4.0
 40
4.0
 40
4.0
 40
5.0
 40
5.0
 40
5.0
 40
5.0
 10
450.4433886208426
 20
407.6845897010207
 30
0.0
 10
450.3886886222244
 20
407.7392896996389
 30
0.0
 10
450.3886886222244
 20
407.8280896973956
 30
0.0
 10
450.4433886208426
 20
407.8827896960138
 30
0.0
 10
450.4979999999996
 20
407.9394896945814
 30
0.0
 10
450.5878886171922
 20
407.9394896945814
 30
0.0
 10
450.6425886158104
 20
407.8827896960138
 30
0.0
 10
450.6972886144285
 20
407.8280896973956
 30
0.0
 10
450.6972886144285
 20
407.7392896996389
 30
0.0
 10
450.6425886158104
 20
407.6845897010207
 30
0.0
 10
450.5878886171922
 20
407.6288897024278
 30
0.0
 10
450.4979999999996
 20
407.6288897024278
 30
0.0
 10
450.4433886208426
 20
407.6845897010207
 30
0.0
 10
450.4433886208426
 20
407.6845897010207
 30
0.0
 10
450.4433886208426
 20
407.6845897010207
 30
0.0
 10
450.4433886208426
 20
407.6845897010207
 30
0.0
  0
SPLINE
  5
5C
330
14
100
AcDbEntity
  8
Layer 1
370
     0
100
AcDbSpline
210
0.0
220
0.0
230
1.0
 70
    11
 71
     3
 72
    20
 73
    16
 74
     0
 42
0.000000001
 43
0.0000000001
 40
0.0
 40
0.0
 40
0.0
 40
0.0
 40
1.0
 40
1.0
 40
1.0
 40
2.0
 40
2.0
 40
2.0
 40
3.0
 40
3.0
 40
3.0
 40
4.0
 40
4.0
 40
4.0
 40
5.0
 40
5.0
 40
5.0
 40
5.0
 10
449.7577886381623
 20
407.5145897053153
 30
0.0
 10
449.7577886381623
 20
407.5927897033398
 30
0.0
 10
449.8202886365834
 20
407.6562897017357
 30
0.0
 10
449.8983886346105
 20
407.6562897017357
 30
0.0
 10
449.976588632635
 20
407.6562897017357
 30
0.0
 10
450.0390886310561
 20
407.5927897033398
 30
0.0
 10
450.0390886310561
 20
407.5145897053153
 30
0.0
 10
450.0390886310561
 20
407.437489707263
 30
0.0
 10
449.976588632635
 20
407.3739999999998
 30
0.0
 10
449.8983886346105
 20
407.3739999999998
 30
0.0
 10
449.8202886365834
 20
407.3739999999998
 30
0.0
 10
449.7577886381623
 20
407.437489707263
 30
0.0
 10
449.7577886381623
 20
407.5145897053153
 30
0.0
 10
449.7577886381623
 20
407.5145897053153
 30
0.0
 10
449.7577886381623
 20
407.5145897053153
 30
0.0
 10
449.7577886381623
 20
407.5145897053153
 30
0.0
  0
SPLINE
  5
5D
330
14
100
AcDbEntity
  8
Layer 1
370
     0
100
AcDbSpline
210
0.0
220
0.0
230
1.0
 70
    11
 71
     3
 72
    20
 73
    16
 74
     0
 42
0.000000001
 43
0.0000000001
 40
0.0
 40
0.0
 40
0.0
 40
0.0
 40
1.0
 40
1.0
 40
1.0
 40
2.0
 40
2.0
 40
2.0
 40
3.0
 40
3.0
 40
3.0
 40
4.0
 40
4.0
 40
4.0
 40
5.0
 40
5.0
 40
5.0
 40
5.0
 10
449.154288653408
 20
407.879889696087
 30
0.0
 10
449.2090000000007
 20
407.9354896946825
 30
0.0
 10
449.2987886497576
 20
407.9354896946825
 30
0.0
 10
449.3534886483758
 20
407.879889696087
 30
0.0
 10
449.4081886469939
 20
407.8251896974689
 30
0.0
 10
449.4081886469939
 20
407.7353896997374
 30
0.0
 10
449.3534886483758
 20
407.6806897011193
 30
0.0
 10
449.2987886497576
 20
407.625
 30
0.0
 10
449.2090000000007
 20
407.625
 30
0.0
 10
449.154288653408
 20
407.6806897011193
 30
0.0
 10
449.0976886548378
 20
407.7353896997374
 30
0.0
 10
449.0976886548378
 20
407.8251896974689
 30
0.0
 10
449.154288653408
 20
407.879889696087
 30
0.0
 10
449.154288653408
 20
407.879889696087
 30
0.0
 10
449.154288653408
 20
407.879889696087
 30
0.0
 10
449.154288653408
 20
407.879889696087
 30
0.0
  0
SPLINE
  5
5E
330
14
100
AcDbEntity
  8
Layer 1
370
     0
100
AcDbSpline
210
0.0
220
0.0
230
1.0
 70
    11
 71
     3
 72
    20
 73
    16
 74
     0
 42
0.000000001
 43
0.0000000001
 40
0.0
 40
0.0
 40
0.0
 40
0.0
 40
1.0
 40
1.0
 40
1.0
 40
2.0
 40
2.0
 40
2.0
 40
3.0
 40
3.0
 40
3.0
 40
4.0
 40
4.0
 40
4.0
 40
5.0
 40
5.0
 40
5.0
 40
5.0
 10
448.9843886577
 20
408.5644896787926
 30
0.0
 10
448.906288659673
 20
408.5644896787926
 30
0.0
 10
448.8437886612519
 20
408.5020000000004
 30
0.0
 10
448.8437886612519
 20
408.423789682347
 30
0.0
 10
448.8437886612519
 20
408.34568968432
 30
0.0
 10
448.906288659673
 20
408.2831896858988
 30
0.0
 10
448.9843886577
 20
408.2831896858988
 30
0.0
 10
449.0634886557018
 20
408.2831896858988
 30
0.0
 10
449.1260000000002
 20
408.34568968432
 30
0.0
 10
449.1260000000002
 20
408.423789682347
 30
0.0
 10
449.1260000000002
 20
408.5020000000004
 30
0.0
 10
449.0634886557018
 20
408.5644896787926
 30
0.0
 10
448.9843886577
 20
408.5644896787926
 30
0.0
 10
448.9843886577
 20
408.5644896787926
 30
0.0
 10
448.9843886577
 20
408.5644896787926
 30
0.0
 10
448.9843886577
 20
408.5644896787926
 30
0.0
  0
SPLINE
  5
5F
330
14
100
AcDbEntity
  8
Layer 1
370
     0
100
AcDbSpline
210
0.0
220
0.0
230
1.0
 70
    11
 71
     3
 72
    32
 73
    28
 74
     0
 42
0.000000001
 43
0.0000000001
 40
0.0
 40
0.0
 40
0.0
 40
0.0
 40
1.0
 40
1.0
 40
1.0
 40
2.0
 40
2.0
 40
2.0
 40
3.0
 40
3.0
 40
3.0
 40
4.0
 40
4.0
 40
4.0
 40
5.0
 40
5.0
 40
5.0
 40
6.0
 40
6.0
 40
6.0
 40
7.0
 40
7.0
 40
7.0
 40
8.0
 40
8.0
 40
8.0
 40
9.0
 40
9.0
 40
9.0
 40
9.0
 10
449.8964886346585
 20
411.2782896102362
 30
0.0
 10
449.1083886545675
 20
411.2782896102362
 30
0.0
 10
448.3944886726022
 20
410.9599999999991
 30
0.0
 10
447.8788886856273
 20
410.4433896313276
 30
0.0
 10
447.3632886986525
 20
409.926789644378
 30
0.0
 10
447.0448887066959
 20
409.2147896623646
 30
0.0
 10
447.0448887066959
 20
408.4257896822965
 30
0.0
 10
447.0448887066959
 20
407.6386897021803
 30
0.0
 10
447.3632886986525
 20
406.9257897201896
 30
0.0
 10
447.8788886856273
 20
406.4091897332401
 30
0.0
 10
448.3944886726022
 20
405.8935897462652
 30
0.0
 10
449.1083886545675
 20
405.5741897543339
 30
0.0
 10
449.8964886346585
 20
405.5741897543339
 30
0.0
 10
450.6835886147746
 20
405.5741897543339
 30
0.0
 10
451.3964885967653
 20
405.8935897462652
 30
0.0
 10
451.9130885837149
 20
406.4091897332401
 30
0.0
 10
452.4296885706644
 20
406.9257897201896
 30
0.0
 10
452.7489999999998
 20
407.6386897021803
 30
0.0
 10
452.7489999999998
 20
408.4257896822965
 30
0.0
 10
452.7489999999998
 20
409.2147896623646
 30
0.0
 10
452.4296885706644
 20
409.926789644378
 30
0.0
 10
451.9130885837149
 20
410.4433896313276
 30
0.0
 10
451.3964885967653
 20
410.9599999999991
 30
0.0
 10
450.6835886147746
 20
411.2782896102362
 30
0.0
 10
449.8964886346585
 20
411.2782896102362
 30
0.0
 10
449.8964886346585
 20
411.2782896102362
 30
0.0
 10
449.8964886346585
 20
411.2782896102362
 30
0.0
 10
449.8964886346585
 20
411.2782896102362
 30
0.0
  0
POLYLINE
  5
60
330
14
100
AcDbEntity
  8
Layer 1
370
     0
100
AcDb2dPolyline
 66
     1
 10
0.0
 20
0.0
 30
0.0
  0
VERTEX
  5
61
330
60
100
AcDbEntity
  8
Layer 1
370
     0
100
AcDbVertex
100
AcDb2dVertex
 10
442.5683888197818
 20
418.2333894345356
 30
0.0
  0
VERTEX
  5
62
330
60
100
AcDbEntity
  8
Layer 1
370
     0
100
AcDbVertex
100
AcDb2dVertex
 10
443.193388803993
 20
418.2333894345356
 30
0.0
  0
VERTEX
  5
63
330
60
100
AcDbEntity
  8
Layer 1
370
     0
100
AcDbVertex
100
AcDb2dVertex
 10
443.193388803993
 20
414.0458895403208
 30
0.0
  0
VERTEX
  5
64
330
60
100
AcDbEntity
  8
Layer 1
370
     0
100
AcDbVertex
100
AcDb2dVertex
 10
442.5683888197818
 20
414.0458895403208
 30
0.0
  0
VERTEX
  5
65
330
60
100
AcDbEntity
  8
Layer 1
370
     0
100
AcDbVertex
100
AcDb2dVertex
 10
442.5683888197818
 20
418.2333894345356
 30
0.0
  0
VERTEX
  5
66
330
60
100
AcDbEntity
  8
Layer 1
370
     0
100
AcDbVertex
100
AcDb2dVertex
 10
442.5683888197818
 20
418.2333894345356
 30
0.0
  0
SEQEND
  5
67
330
60
100
AcDbEntity
  8
Layer 1
370
     0
  0
SPLINE
  5
68
330
14
100
AcDbEntity
  8
Layer 1
370
     0
100
AcDbSpline
210
0.0
220
0.0
230
1.0
 70
    11
 71
     3
 72
    32
 73
    28
 74
     0
 42
0.000000001
 43
0.0000000001
 40
0.0
 40
0.0
 40
0.0
 40
0.0
 40
1.0
 40
1.0
 40
1.0
 40
2.0
 40
2.0
 40
2.0
 40
3.0
 40
3.0
 40
3.0
 40
4.0
 40
4.0
 40
4.0
 40
5.0
 40
5.0
 40
5.0
 40
6.0
 40
6.0
 40
6.0
 40
7.0
 40
7.0
 40
7.0
 40
8.0
 40
8.0
 40
8.0
 40
9.0
 40
9.0
 40
9.0
 40
9.0
 10
435.1366890075224
 20
409.2567896613036
 30
0.0
 10
435.3476890021921
 20
409.0448896666567
 30
0.0
 10
435.4794889988625
 20
408.75
 30
0.0
 10
435.4794889988625
 20
408.4257896822965
 30
0.0
 10
435.4794889988625
 20
408.1015896904864
 30
0.0
 10
435.3476890021921
 20
407.8085896978882
 30
0.0
 10
435.1366890075224
 20
407.5956897032665
 30
0.0
 10
434.9237890129007
 20
407.3827897086449
 30
0.0
 10
434.6298890203252
 20
407.2520000000004
 30
0.0
 10
434.3056890285152
 20
407.2520000000004
 30
0.0
 10
433.9813890367077
 20
407.2520000000004
 30
0.0
 10
433.6874890441322
 20
407.3827897086449
 30
0.0
 10
433.4745890495105
 20
407.5956897032665
 30
0.0
 10
433.2626890548636
 20
407.8085896978882
 30
0.0
 10
433.1308890581931
 20
408.1015896904864
 30
0.0
 10
433.1308890581931
 20
408.4257896822965
 30
0.0
 10
433.1308890581931
 20
408.75
 30
0.0
 10
433.2626890548636
 20
409.0448896666567
 30
0.0
 10
433.4745890495105
 20
409.2567896613036
 30
0.0
 10
433.6874890441322
 20
409.4687896559481
 30
0.0
 10
433.9813890367077
 20
409.5995896526438
 30
0.0
 10
434.3056890285152
 20
409.5995896526438
 30
0.0
 10
434.6298890203252
 20
409.5995896526438
 30
0.0
 10
434.9237890129007
 20
409.4687896559481
 30
0.0
 10
435.1366890075224
 20
409.2567896613036
 30
0.0
 10
435.1366890075224
 20
409.2567896613036
 30
0.0
 10
435.1366890075224
 20
409.2567896613036
 30
0.0
 10
435.1366890075224
 20
409.2567896613036
 30
0.0
  0
SPLINE
  5
69
330
14
100
AcDbEntity
  8
Layer 1
370
     0
100
AcDbSpline
210
0.0
220
0.0
230
1.0
 70
    11
 71
     3
 72
    20
 73
    16
 74
     0
 42
0.000000001
 43
0.0000000001
 40
0.0
 40
0.0
 40
0.0
 40
0.0
 40
1.0
 40
1.0
 40
1.0
 40
2.0
 40
2.0
 40
2.0
 40
3.0
 40
3.0
 40
3.0
 40
4.0
 40
4.0
 40
4.0
 40
5.0
 40
5.0
 40
5.0
 40
5.0
 10
433.7597890423058
 20
409.1679999999997
 30
0.0
 10
433.8144890409239
 20
409.1142896649035
 30
0.0
 10
433.8144890409239
 20
409.0233896671998
 30
0.0
 10
433.7597890423058
 20
408.9696896685564
 30
0.0
 10
433.7030890437381
 20
408.914089669961
 30
0.0
 10
433.6151890459587
 20
408.914089669961
 30
0.0
 10
433.5604890473405
 20
408.9696896685564
 30
0.0
 10
433.5038890487704
 20
409.0233896671998
 30
0.0
 10
433.5038890487704
 20
409.1142896649035
 30
0.0
 10
433.5604890473405
 20
409.1679999999997
 30
0.0
 10
433.6151890459587
 20
409.2245896621171
 30
0.0
 10
433.7030890437381
 20
409.2245896621171
 30
0.0
 10
433.7597890423058
 20
409.1679999999997
 30
0.0
 10
433.7597890423058
 20
409.1679999999997
 30
0.0
 10
433.7597890423058
 20
409.1679999999997
 30
0.0
 10
433.7597890423058
 20
409.1679999999997
 30
0.0
  0
SPLINE
  5
6A
330
14
100
AcDbEntity
  8
Layer 1
370
     0
100
AcDbSpline
210
0.0
220
0.0
230
1.0
 70
    11
 71
     3
 72
    20
 73
    16
 74
     0
 42
0.000000001
 43
0.0000000001
 40
0.0
 40
0.0
 40
0.0
 40
0.0
 40
1.0
 40
1.0
 40
1.0
 40
2.0
 40
2.0
 40
2.0
 40
3.0
 40
3.0
 40
3.0
 40
4.0
 40
4.0
 40
4.0
 40
5.0
 40
5.0
 40
5.0
 40
5.0
 10
434.4433890250366
 20
409.3378896592549
 30
0.0
 10
434.4433890250366
 20
409.2597896612278
 30
0.0
 10
434.3808890266155
 20
409.1972896628067
 30
0.0
 10
434.302689028591
 20
409.1972896628067
 30
0.0
 10
434.2245890305639
 20
409.1972896628067
 30
0.0
 10
434.1620890321428
 20
409.2597896612278
 30
0.0
 10
434.1620890321428
 20
409.3378896592549
 30
0.0
 10
434.1620890321428
 20
409.4159999999993
 30
0.0
 10
434.2245890305639
 20
409.478489655703
 30
0.0
 10
434.302689028591
 20
409.478489655703
 30
0.0
 10
434.3808890266155
 20
409.478489655703
 30
0.0
 10
434.4433890250366
 20
409.4159999999993
 30
0.0
 10
434.4433890250366
 20
409.3378896592549
 30
0.0
 10
434.4433890250366
 20
409.3378896592549
 30
0.0
 10
434.4433890250366
 20
409.3378896592549
 30
0.0
 10
434.4433890250366
 20
409.3378896592549
 30
0.0
  0
SPLINE
  5
6B
330
14
100
AcDbEntity
  8
Layer 1
370
     0
100
AcDbSpline
210
0.0
220
0.0
230
1.0
 70
    11
 71
     3
 72
    20
 73
    16
 74
     0
 42
0.000000001
 43
0.0000000001
 40
0.0
 40
0.0
 40
0.0
 40
0.0
 40
1.0
 40
1.0
 40
1.0
 40
2.0
 40
2.0
 40
2.0
 40
3.0
 40
3.0
 40
3.0
 40
4.0
 40
4.0
 40
4.0
 40
5.0
 40
5.0
 40
5.0
 40
5.0
 10
435.0478890097656
 20
408.9726896684806
 30
0.0
 10
434.9921890111727
 20
408.9179999999997
 30
0.0
 10
434.9032890134185
 20
408.9179999999997
 30
0.0
 10
434.8485890148004
 20
408.9726896684806
 30
0.0
 10
434.7929999999997
 20
409.0272896671013
 30
0.0
 10
434.7929999999997
 20
409.1171896648302
 30
0.0
 10
434.8485890148004
 20
409.1718896634484
 30
0.0
 10
434.9032890134185
 20
409.2265896620665
 30
0.0
 10
434.9921890111727
 20
409.2265896620665
 30
0.0
 10
435.0478890097656
 20
409.1718896634484
 30
0.0
 10
435.1024890083863
 20
409.1171896648302
 30
0.0
 10
435.1024890083863
 20
409.0272896671013
 30
0.0
 10
435.0478890097656
 20
408.9726896684806
 30
0.0
 10
435.0478890097656
 20
408.9726896684806
 30
0.0
 10
435.0478890097656
 20
408.9726896684806
 30
0.0
 10
435.0478890097656
 20
408.9726896684806
 30
0.0
  0
SPLINE
  5
6C
330
14
100
AcDbEntity
  8
Layer 1
370
     0
100
AcDbSpline
210
0.0
220
0.0
230
1.0
 70
    11
 71
     3
 72
    20
 73
    16
 74
     0
 42
0.000000001
 43
0.0000000001
 40
0.0
 40
0.0
 40
0.0
 40
0.0
 40
1.0
 40
1.0
 40
1.0
 40
2.0
 40
2.0
 40
2.0
 40
3.0
 40
3.0
 40
3.0
 40
4.0
 40
4.0
 40
4.0
 40
5.0
 40
5.0
 40
5.0
 40
5.0
 10
435.2167890054989
 20
408.2870896858003
 30
0.0
 10
435.1386890074718
 20
408.2870896858003
 30
0.0
 10
435.0761890090507
 20
408.3515896841709
 30
0.0
 10
435.0761890090507
 20
408.4296896821979
 30
0.0
 10
435.0761890090507
 20
408.5067896802502
 30
0.0
 10
435.1386890074718
 20
408.5702896786461
 30
0.0
 10
435.2167890054989
 20
408.5702896786461
 30
0.0
 10
435.2948890035259
 20
408.5702896786461
 30
0.0
 10
435.357389001947
 20
408.5067896802502
 30
0.0
 10
435.357389001947
 20
408.4296896821979
 30
0.0
 10
435.357389001947
 20
408.3515896841709
 30
0.0
 10
435.2948890035259
 20
408.2870896858003
 30
0.0
 10
435.2167890054989
 20
408.2870896858003
 30
0.0
 10
435.2167890054989
 20
408.2870896858003
 30
0.0
 10
435.2167890054989
 20
408.2870896858003
 30
0.0
 10
435.2167890054989
 20
408.2870896858003
 30
0.0
  0
SPLINE
  5
6D
330
14
100
AcDbEntity
  8
Layer 1
370
     0
100
AcDbSpline
210
0.0
220
0.0
230
1.0
 70
    11
 71
     3
 72
    20
 73
    16
 74
     0
 42
0.000000001
 43
0.0000000001
 40
0.0
 40
0.0
 40
0.0
 40
0.0
 40
1.0
 40
1.0
 40
1.0
 40
2.0
 40
2.0
 40
2.0
 40
3.0
 40
3.0
 40
3.0
 40
4.0
 40
4.0
 40
4.0
 40
5.0
 40
5.0
 40
5.0
 40
5.0
 10
434.8515890147246
 20
407.6845897010207
 30
0.0
 10
434.9062890133428
 20
407.6288897024278
 30
0.0
 10
434.9960890110742
 20
407.6288897024278
 30
0.0
 10
435.0517890096671
 20
407.6845897010207
 30
0.0
 10
435.1063890082878
 20
407.7392896996389
 30
0.0
 10
435.1063890082878
 20
407.8280896973956
 30
0.0
 10
435.0517890096671
 20
407.8827896960138
 30
0.0
 10
434.9960890110742
 20
407.9394896945814
 30
0.0
 10
434.9062890133428
 20
407.9394896945814
 30
0.0
 10
434.8515890147246
 20
407.8827896960138
 30
0.0
 10
434.7968890161064
 20
407.8280896973956
 30
0.0
 10
434.7968890161064
 20
407.7392896996389
 30
0.0
 10
434.8515890147246
 20
407.6845897010207
 30
0.0
 10
434.8515890147246
 20
407.6845897010207
 30
0.0
 10
434.8515890147246
 20
407.6845897010207
 30
0.0
 10
434.8515890147246
 20
407.6845897010207
 30
0.0
  0
SPLINE
  5
6E
330
14
100
AcDbEntity
  8
Layer 1
370
     0
100
AcDbSpline
210
0.0
220
0.0
230
1.0
 70
    11
 71
     3
 72
    20
 73
    16
 74
     0
 42
0.000000001
 43
0.0000000001
 40
0.0
 40
0.0
 40
0.0
 40
0.0
 40
1.0
 40
1.0
 40
1.0
 40
2.0
 40
2.0
 40
2.0
 40
3.0
 40
3.0
 40
3.0
 40
4.0
 40
4.0
 40
4.0
 40
5.0
 40
5.0
 40
5.0
 40
5.0
 10
434.1669999999995
 20
407.5145897053153
 30
0.0
 10
434.1669999999995
 20
407.437489707263
 30
0.0
 10
434.2304890304149
 20
407.3739999999998
 30
0.0
 10
434.3075890284672
 20
407.3739999999998
 30
0.0
 10
434.3856890264942
 20
407.3739999999998
 30
0.0
 10
434.4491890248901
 20
407.437489707263
 30
0.0
 10
434.4491890248901
 20
407.5145897053153
 30
0.0
 10
434.4491890248901
 20
407.5927897033398
 30
0.0
 10
434.3856890264942
 20
407.6562897017357
 30
0.0
 10
434.3075890284672
 20
407.6562897017357
 30
0.0
 10
434.2304890304149
 20
407.6562897017357
 30
0.0
 10
434.1669999999995
 20
407.5927897033398
 30
0.0
 10
434.1669999999995
 20
407.5145897053153
 30
0.0
 10
434.1669999999995
 20
407.5145897053153
 30
0.0
 10
434.1669999999995
 20
407.5145897053153
 30
0.0
 10
434.1669999999995
 20
407.5145897053153
 30
0.0
  0
SPLINE
  5
6F
330
14
100
AcDbEntity
  8
Layer 1
370
     0
100
AcDbSpline
210
0.0
220
0.0
230
1.0
 70
    11
 71
     3
 72
    20
 73
    16
 74
     0
 42
0.000000001
 43
0.0000000001
 40
0.0
 40
0.0
 40
0.0
 40
0.0
 40
1.0
 40
1.0
 40
1.0
 40
2.0
 40
2.0
 40
2.0
 40
3.0
 40
3.0
 40
3.0
 40
4.0
 40
4.0
 40
4.0
 40
5.0
 40
5.0
 40
5.0
 40
5.0
 10
433.56248904729
 20
407.879889696087
 30
0.0
 10
433.5077890486718
 20
407.8251896974689
 30
0.0
 10
433.5077890486718
 20
407.7353896997374
 30
0.0
 10
433.56248904729
 20
407.6806897011193
 30
0.0
 10
433.6181890458829
 20
407.625
 30
0.0
 10
433.7070000000003
 20
407.625
 30
0.0
 10
433.7636890422073
 20
407.6806897011193
 30
0.0
 10
433.8183890408254
 20
407.7353896997374
 30
0.0
 10
433.8183890408254
 20
407.8251896974689
 30
0.0
 10
433.7636890422073
 20
407.879889696087
 30
0.0
 10
433.7070000000003
 20
407.9354896946825
 30
0.0
 10
433.6181890458829
 20
407.9354896946825
 30
0.0
 10
433.56248904729
 20
407.879889696087
 30
0.0
 10
433.56248904729
 20
407.879889696087
 30
0.0
 10
433.56248904729
 20
407.879889696087
 30
0.0
 10
433.56248904729
 20
407.879889696087
 30
0.0
  0
SPLINE
  5
70
330
14
100
AcDbEntity
  8
Layer 1
370
     0
100
AcDbSpline
210
0.0
220
0.0
230
1.0
 70
    11
 71
     3
 72
    20
 73
    16
 74
     0
 42
0.000000001
 43
0.0000000001
 40
0.0
 40
0.0
 40
0.0
 40
0.0
 40
1.0
 40
1.0
 40
1.0
 40
2.0
 40
2.0
 40
2.0
 40
3.0
 40
3.0
 40
3.0
 40
4.0
 40
4.0
 40
4.0
 40
5.0
 40
5.0
 40
5.0
 40
5.0
 10
433.394489051534
 20
408.5644896787926
 30
0.0
 10
433.4726890495585
 20
408.5644896787926
 30
0.0
 10
433.5351890479797
 20
408.5020000000004
 30
0.0
 10
433.5351890479797
 20
408.423789682347
 30
0.0
 10
433.5351890479797
 20
408.34568968432
 30
0.0
 10
433.4726890495585
 20
408.2831896858988
 30
0.0
 10
433.394489051534
 20
408.2831896858988
 30
0.0
 10
433.316389053507
 20
408.2831896858988
 30
0.0
 10
433.2538890550859
 20
408.34568968432
 30
0.0
 10
433.2538890550859
 20
408.423789682347
 30
0.0
 10
433.2538890550859
 20
408.5020000000004
 30
0.0
 10
433.316389053507
 20
408.5644896787926
 30
0.0
 10
433.394489051534
 20
408.5644896787926
 30
0.0
 10
433.394489051534
 20
408.5644896787926
 30
0.0
 10
433.394489051534
 20
408.5644896787926
 30
0.0
 10
433.394489051534
 20
408.5644896787926
 30
0.0
  0
SPLINE
  5
71
330
14
100
AcDbEntity
  8
Layer 1
370
     0
100
AcDbSpline
210
0.0
220
0.0
230
1.0
 70
    11
 71
     3
 72
    32
 73
    28
 74
     0
 42
0.000000001
 43
0.0000000001
 40
0.0
 40
0.0
 40
0.0
 40
0.0
 40
1.0
 40
1.0
 40
1.0
 40
2.0
 40
2.0
 40
2.0
 40
3.0
 40
3.0
 40
3.0
 40
4.0
 40
4.0
 40
4.0
 40
5.0
 40
5.0
 40
5.0
 40
6.0
 40
6.0
 40
6.0
 40
7.0
 40
7.0
 40
7.0
 40
8.0
 40
8.0
 40
8.0
 40
9.0
 40
9.0
 40
9.0
 40
9.0
 10
434.3056890285152
 20
411.2782896102362
 30
0.0
 10
435.0937890086061
 20
411.2782896102362
 30
0.0
 10
435.805688990622
 20
410.9599999999991
 30
0.0
 10
436.3222889775716
 20
410.4433896313276
 30
0.0
 10
436.8388889645212
 20
409.926789644378
 30
0.0
 10
437.158188956455
 20
409.2147896623646
 30
0.0
 10
437.158188956455
 20
408.4257896822965
 30
0.0
 10
437.158188956455
 20
407.6386897021803
 30
0.0
 10
436.8388889645212
 20
406.9257897201896
 30
0.0
 10
436.3222889775716
 20
406.4091897332401
 30
0.0
 10
435.805688990622
 20
405.8935897462652
 30
0.0
 10
435.0937890086061
 20
405.5741897543339
 30
0.0
 10
434.3056890285152
 20
405.5741897543339
 30
0.0
 10
433.5175890484243
 20
405.5741897543339
 30
0.0
 10
432.8046890664336
 20
405.8935897462652
 30
0.0
 10
432.2890890794588
 20
406.4091897332401
 30
0.0
 10
431.7733890924865
 20
406.9257897201896
 30
0.0
 10
431.4530891005779
 20
407.6386897021803
 30
0.0
 10
431.4530891005779
 20
408.4257896822965
 30
0.0
 10
431.4530891005779
 20
409.2147896623646
 30
0.0
 10
431.7733890924865
 20
409.926789644378
 30
0.0
 10
432.2890890794588
 20
410.4433896313276
 30
0.0
 10
432.8046890664336
 20
410.9599999999991
 30
0.0
 10
433.5175890484243
 20
411.2782896102362
 30
0.0
 10
434.3056890285152
 20
411.2782896102362
 30
0.0
 10
434.3056890285152
 20
411.2782896102362
 30
0.0
 10
434.3056890285152
 20
411.2782896102362
 30
0.0
 10
434.3056890285152
 20
411.2782896102362
 30
0.0
  0
SPLINE
  5
72
330
14
100
AcDbEntity
  8
Layer 1
370
     0
100
AcDbSpline
210
0.0
220
0.0
230
1.0
 70
    11
 71
     3
 72
    20
 73
    16
 74
     0
 42
0.000000001
 43
0.0000000001
 40
0.0
 40
0.0
 40
0.0
 40
0.0
 40
1.0
 40
1.0
 40
1.0
 40
2.0
 40
2.0
 40
2.0
 40
3.0
 40
3.0
 40
3.0
 40
4.0
 40
4.0
 40
4.0
 40
5.0
 40
5.0
 40
5.0
 40
5.0
 10
428.2226891821847
 20
408.2870896858003
 30
0.0
 10
428.1444891841602
 20
408.2870896858003
 30
0.0
 10
428.0820000000003
 20
408.3515896841709
 30
0.0
 10
428.0820000000003
 20
408.4296896821979
 30
0.0
 10
428.0820000000003
 20
408.5067896802502
 30
0.0
 10
428.1444891841602
 20
408.5702896786461
 30
0.0
 10
428.2226891821847
 20
408.5702896786461
 30
0.0
 10
428.299789180237
 20
408.5702896786461
 30
0.0
 10
428.3632891786328
 20
408.5067896802502
 30
0.0
 10
428.3632891786328
 20
408.4296896821979
 30
0.0
 10
428.3632891786328
 20
408.3515896841709
 30
0.0
 10
428.299789180237
 20
408.2870896858003
 30
0.0
 10
428.2226891821847
 20
408.2870896858003
 30
0.0
 10
428.2226891821847
 20
408.2870896858003
 30
0.0
 10
428.2226891821847
 20
408.2870896858003
 30
0.0
 10
428.2226891821847
 20
408.2870896858003
 30
0.0
  0
SPLINE
  5
73
330
14
100
AcDbEntity
  8
Layer 1
370
     0
100
AcDbSpline
210
0.0
220
0.0
230
1.0
 70
    11
 71
     3
 72
    20
 73
    16
 74
     0
 42
0.000000001
 43
0.0000000001
 40
0.0
 40
0.0
 40
0.0
 40
0.0
 40
1.0
 40
1.0
 40
1.0
 40
2.0
 40
2.0
 40
2.0
 40
3.0
 40
3.0
 40
3.0
 40
4.0
 40
4.0
 40
4.0
 40
5.0
 40
5.0
 40
5.0
 40
5.0
 10
438.4823889230029
 20
418.2333894345356
 30
0.0
 10
438.6894889177711
 20
418.2333894345356
 30
0.0
 10
438.8983889124938
 20
418.2333894345356
 30
0.0
 10
439.107388907214
 20
418.2333894345356
 30
0.0
 10
439.107388907214
 20
416.8378894697889
 30
0.0
 10
439.107388907214
 20
415.4413895050675
 30
0.0
 10
439.107388907214
 20
414.0458895403208
 30
0.0
 10
438.8983889124938
 20
414.0458895403208
 30
0.0
 10
438.6894889177711
 20
414.0458895403208
 30
0.0
 10
438.4823889230029
 20
414.0458895403208
 30
0.0
 10
438.4823889230029
 20
415.4413895050675
 30
0.0
 10
438.4823889230029
 20
416.8378894697889
 30
0.0
 10
438.4823889230029
 20
418.2333894345356
 30
0.0
 10
438.4823889230029
 20
418.2333894345356
 30
0.0
 10
438.4823889230029
 20
418.2333894345356
 30
0.0
 10
438.4823889230029
 20
418.2333894345356
 30
0.0
  0
SPLINE
  5
74
330
14
100
AcDbEntity
  8
Layer 1
370
     0
100
AcDbSpline
210
0.0
220
0.0
230
1.0
 70
    11
 71
     3
 72
    20
 73
    16
 74
     0
 42
0.000000001
 43
0.0000000001
 40
0.0
 40
0.0
 40
0.0
 40
0.0
 40
1.0
 40
1.0
 40
1.0
 40
2.0
 40
2.0
 40
2.0
 40
3.0
 40
3.0
 40
3.0
 40
4.0
 40
4.0
 40
4.0
 40
5.0
 40
5.0
 40
5.0
 40
5.0
 10
434.3954890262467
 20
418.2333894345356
 30
0.0
 10
434.6034890209921
 20
418.2333894345356
 30
0.0
 10
434.8124890157123
 20
418.2333894345356
 30
0.0
 10
435.0194890104831
 20
418.2333894345356
 30
0.0
 10
435.0194890104831
 20
416.8378894697889
 30
0.0
 10
435.0194890104831
 20
415.4413895050675
 30
0.0
 10
435.0194890104831
 20
414.0458895403208
 30
0.0
 10
434.8124890157123
 20
414.0458895403208
 30
0.0
 10
434.6034890209921
 20
414.0458895403208
 30
0.0
 10
434.3954890262467
 20
414.0458895403208
 30
0.0
 10
434.3954890262467
 20
415.4413895050675
 30
0.0
 10
434.3954890262467
 20
416.8378894697889
 30
0.0
 10
434.3954890262467
 20
418.2333894345356
 30
0.0
 10
434.3954890262467
 20
418.2333894345356
 30
0.0
 10
434.3954890262467
 20
418.2333894345356
 30
0.0
 10
434.3954890262467
 20
418.2333894345356
 30
0.0
  0
SPLINE
  5
75
330
14
100
AcDbEntity
  8
Layer 1
370
     0
100
AcDbSpline
210
0.0
220
0.0
230
1.0
 70
    11
 71
     3
 72
    20
 73
    16
 74
     0
 42
0.000000001
 43
0.0000000001
 40
0.0
 40
0.0
 40
0.0
 40
0.0
 40
1.0
 40
1.0
 40
1.0
 40
2.0
 40
2.0
 40
2.0
 40
3.0
 40
3.0
 40
3.0
 40
4.0
 40
4.0
 40
4.0
 40
5.0
 40
5.0
 40
5.0
 40
5.0
 10
430.3085891294904
 20
418.2333894345356
 30
0.0
 10
430.5175891242106
 20
418.2333894345356
 30
0.0
 10
430.7255891189561
 20
418.2333894345356
 30
0.0
 10
430.9335891137016
 20
418.2333894345356
 30
0.0
 10
430.9335891137016
 20
416.8378894697889
 30
0.0
 10
430.9335891137016
 20
415.4413895050675
 30
0.0
 10
430.9335891137016
 20
414.0458895403208
 30
0.0
 10
430.7255891189561
 20
414.0458895403208
 30
0.0
 10
430.5175891242106
 20
414.0458895403208
 30
0.0
 10
430.3085891294904
 20
414.0458895403208
 30
0.0
 10
430.3085891294904
 20
415.4413895050675
 30
0.0
 10
430.3085891294904
 20
416.8378894697889
 30
0.0
 10
430.3085891294904
 20
418.2333894345356
 30
0.0
 10
430.3085891294904
 20
418.2333894345356
 30
0.0
 10
430.3085891294904
 20
418.2333894345356
 30
0.0
 10
430.3085891294904
 20
418.2333894345356
 30
0.0
  0
SPLINE
  5
76
330
14
100
AcDbEntity
  8
Layer 1
370
     0
100
AcDbSpline
210
0.0
220
0.0
230
1.0
 70
    11
 71
     3
 72
    20
 73
    16
 74
     0
 42
0.000000001
 43
0.0000000001
 40
0.0
 40
0.0
 40
0.0
 40
0.0
 40
1.0
 40
1.0
 40
1.0
 40
2.0
 40
2.0
 40
2.0
 40
3.0
 40
3.0
 40
3.0
 40
4.0
 40
4.0
 40
4.0
 40
5.0
 40
5.0
 40
5.0
 40
5.0
 10
426.7655892189941
 20
409.1679999999997
 30
0.0
 10
426.8202892176123
 20
409.1142896649035
 30
0.0
 10
426.8202892176123
 20
409.0233896671998
 30
0.0
 10
426.7655892189941
 20
408.9696896685564
 30
0.0
 10
426.7090000000007
 20
408.914089669961
 30
0.0
 10
426.6210892226445
 20
408.914089669961
 30
0.0
 10
426.5644892240744
 20
408.9696896685564
 30
0.0
 10
426.5097892254562
 20
409.0233896671998
 30
0.0
 10
426.5097892254562
 20
409.1142896649035
 30
0.0
 10
426.5644892240744
 20
409.1679999999997
 30
0.0
 10
426.6210892226445
 20
409.2245896621171
 30
0.0
 10
426.7090000000007
 20
409.2245896621171
 30
0.0
 10
426.7655892189941
 20
409.1679999999997
 30
0.0
 10
426.7655892189941
 20
409.1679999999997
 30
0.0
 10
426.7655892189941
 20
409.1679999999997
 30
0.0
 10
426.7655892189941
 20
409.1679999999997
 30
0.0
  0
SPLINE
  5
77
330
14
100
AcDbEntity
  8
Layer 1
370
     0
100
AcDbSpline
210
0.0
220
0.0
230
1.0
 70
    11
 71
     3
 72
    20
 73
    16
 74
     0
 42
0.000000001
 43
0.0000000001
 40
0.0
 40
0.0
 40
0.0
 40
0.0
 40
1.0
 40
1.0
 40
1.0
 40
2.0
 40
2.0
 40
2.0
 40
3.0
 40
3.0
 40
3.0
 40
4.0
 40
4.0
 40
4.0
 40
5.0
 40
5.0
 40
5.0
 40
5.0
 10
427.4491892017249
 20
409.3378896592549
 30
0.0
 10
427.4491892017249
 20
409.2597896612278
 30
0.0
 10
427.3866892033038
 20
409.1972896628067
 30
0.0
 10
427.3085892052768
 20
409.1972896628067
 30
0.0
 10
427.2304892072498
 20
409.1972896628067
 30
0.0
 10
427.1679999999997
 20
409.2597896612278
 30
0.0
 10
427.1679999999997
 20
409.3378896592549
 30
0.0
 10
427.1679999999997
 20
409.4159999999993
 30
0.0
 10
427.2304892072498
 20
409.478489655703
 30
0.0
 10
427.3085892052768
 20
409.478489655703
 30
0.0
 10
427.3866892033038
 20
409.478489655703
 30
0.0
 10
427.4491892017249
 20
409.4159999999993
 30
0.0
 10
427.4491892017249
 20
409.3378896592549
 30
0.0
 10
427.4491892017249
 20
409.3378896592549
 30
0.0
 10
427.4491892017249
 20
409.3378896592549
 30
0.0
 10
427.4491892017249
 20
409.3378896592549
 30
0.0
  0
SPLINE
  5
78
330
14
100
AcDbEntity
  8
Layer 1
370
     0
100
AcDbSpline
210
0.0
220
0.0
230
1.0
 70
    11
 71
     3
 72
    20
 73
    16
 74
     0
 42
0.000000001
 43
0.0000000001
 40
0.0
 40
0.0
 40
0.0
 40
0.0
 40
1.0
 40
1.0
 40
1.0
 40
2.0
 40
2.0
 40
2.0
 40
3.0
 40
3.0
 40
3.0
 40
4.0
 40
4.0
 40
4.0
 40
5.0
 40
5.0
 40
5.0
 40
5.0
 10
427.1718892087301
 20
407.5145897053153
 30
0.0
 10
427.1718892087301
 20
407.437489707263
 30
0.0
 10
427.235389207126
 20
407.3739999999998
 30
0.0
 10
427.313489205153
 20
407.3739999999998
 30
0.0
 10
427.3905892032053
 20
407.3739999999998
 30
0.0
 10
427.4550892015759
 20
407.437489707263
 30
0.0
 10
427.4550892015759
 20
407.5145897053153
 30
0.0
 10
427.4550892015759
 20
407.5927897033398
 30
0.0
 10
427.3905892032053
 20
407.6562897017357
 30
0.0
 10
427.313489205153
 20
407.6562897017357
 30
0.0
 10
427.235389207126
 20
407.6562897017357
 30
0.0
 10
427.1718892087301
 20
407.5927897033398
 30
0.0
 10
427.1718892087301
 20
407.5145897053153
 30
0.0
 10
427.1718892087301
 20
407.5145897053153
 30
0.0
 10
427.1718892087301
 20
407.5145897053153
 30
0.0
 10
427.1718892087301
 20
407.5145897053153
 30
0.0
  0
SPLINE
  5
79
330
14
100
AcDbEntity
  8
Layer 1
370
     0
100
AcDbSpline
210
0.0
220
0.0
230
1.0
 70
    11
 71
     3
 72
    20
 73
    16
 74
     0
 42
0.000000001
 43
0.0000000001
 40
0.0
 40
0.0
 40
0.0
 40
0.0
 40
1.0
 40
1.0
 40
1.0
 40
2.0
 40
2.0
 40
2.0
 40
3.0
 40
3.0
 40
3.0
 40
4.0
 40
4.0
 40
4.0
 40
5.0
 40
5.0
 40
5.0
 40
5.0
 10
426.5683892239758
 20
407.879889696087
 30
0.0
 10
426.5136892253577
 20
407.8251896974689
 30
0.0
 10
426.5136892253577
 20
407.7353896997374
 30
0.0
 10
426.5683892239758
 20
407.6806897011193
 30
0.0
 10
426.6239999999998
 20
407.625
 30
0.0
 10
426.7128892203255
 20
407.625
 30
0.0
 10
426.7685892189184
 20
407.6806897011193
 30
0.0
 10
426.823189217539
 20
407.7353896997374
 30
0.0
 10
426.823189217539
 20
407.8251896974689
 30
0.0
 10
426.7685892189184
 20
407.879889696087
 30
0.0
 10
426.7128892203255
 20
407.9354896946825
 30
0.0
 10
426.6239999999998
 20
407.9354896946825
 30
0.0
 10
426.5683892239758
 20
407.879889696087
 30
0.0
 10
426.5683892239758
 20
407.879889696087
 30
0.0
 10
426.5683892239758
 20
407.879889696087
 30
0.0
 10
426.5683892239758
 20
407.879889696087
 30
0.0
  0
SPLINE
  5
7A
330
14
100
AcDbEntity
  8
Layer 1
370
     0
100
AcDbSpline
210
0.0
220
0.0
230
1.0
 70
    11
 71
     3
 72
    20
 73
    16
 74
     0
 42
0.000000001
 43
0.0000000001
 40
0.0
 40
0.0
 40
0.0
 40
0.0
 40
1.0
 40
1.0
 40
1.0
 40
2.0
 40
2.0
 40
2.0
 40
3.0
 40
3.0
 40
3.0
 40
4.0
 40
4.0
 40
4.0
 40
5.0
 40
5.0
 40
5.0
 40
5.0
 10
426.4003892282199
 20
408.5644896787926
 30
0.0
 10
426.4774892262722
 20
408.5644896787926
 30
0.0
 10
426.5409999999993
 20
408.5020000000004
 30
0.0
 10
426.5409999999993
 20
408.423789682347
 30
0.0
 10
426.5409999999993
 20
408.34568968432
 30
0.0
 10
426.4774892262722
 20
408.2831896858988
 30
0.0
 10
426.4003892282199
 20
408.2831896858988
 30
0.0
 10
426.3222892301928
 20
408.2831896858988
 30
0.0
 10
426.2597892317717
 20
408.34568968432
 30
0.0
 10
426.2597892317717
 20
408.423789682347
 30
0.0
 10
426.2597892317717
 20
408.5020000000004
 30
0.0
 10
426.3222892301928
 20
408.5644896787926
 30
0.0
 10
426.4003892282199
 20
408.5644896787926
 30
0.0
 10
426.4003892282199
 20
408.5644896787926
 30
0.0
 10
426.4003892282199
 20
408.5644896787926
 30
0.0
 10
426.4003892282199
 20
408.5644896787926
 30
0.0
  0
POLYLINE
  5
7B
330
14
100
AcDbEntity
  8
Layer 1
370
     0
100
AcDb2dPolyline
 66
     1
 10
0.0
 20
0.0
 30
0.0
  0
VERTEX
  5
7C
330
7B
100
AcDbEntity
  8
Layer 1
370
     0
100
AcDbVertex
100
AcDb2dVertex
 10
426.2226892327089
 20
418.2333894345356
 30
0.0
  0
VERTEX
  5
7D
330
7B
100
AcDbEntity
  8
Layer 1
370
     0
100
AcDbVertex
100
AcDb2dVertex
 10
426.8476892169201
 20
418.2333894345356
 30
0.0
  0
VERTEX
  5
7E
330
7B
100
AcDbEntity
  8
Layer 1
370
     0
100
AcDbVertex
100
AcDb2dVertex
 10
426.8476892169201
 20
414.0458895403208
 30
0.0
  0
VERTEX
  5
7F
330
7B
100
AcDbEntity
  8
Layer 1
370
     0
100
AcDbVertex
100
AcDb2dVertex
 10
426.2226892327089
 20
414.0458895403208
 30
0.0
  0
VERTEX
  5
80
330
7B
100
AcDbEntity
  8
Layer 1
370
     0
100
AcDbVertex
100
AcDb2dVertex
 10
426.2226892327089
 20
418.2333894345356
 30
0.0
  0
VERTEX
  5
81
330
7B
100
AcDbEntity
  8
Layer 1
370
     0
100
AcDbVertex
100
AcDb2dVertex
 10
426.2226892327089
 20
418.2333894345356
 30
0.0
  0
SEQEND
  5
82
330
7B
100
AcDbEntity
  8
Layer 1
370
     0
  0
SPLINE
  5
83
330
14
100
AcDbEntity
  8
Layer 1
370
     0
100
AcDbSpline
210
0.0
220
0.0
230
1.0
 70
    11
 71
     3
 72
    32
 73
    28
 74
     0
 42
0.000000001
 43
0.0000000001
 40
0.0
 40
0.0
 40
0.0
 40
0.0
 40
1.0
 40
1.0
 40
1.0
 40
2.0
 40
2.0
 40
2.0
 40
3.0
 40
3.0
 40
3.0
 40
4.0
 40
4.0
 40
4.0
 40
5.0
 40
5.0
 40
5.0
 40
6.0
 40
6.0
 40
6.0
 40
7.0
 40
7.0
 40
7.0
 40
8.0
 40
8.0
 40
8.0
 40
9.0
 40
9.0
 40
9.0
 40
9.0
 10
428.1425891842082
 20
409.2567896613036
 30
0.0
 10
428.3534891788804
 20
409.0448896666567
 30
0.0
 10
428.4862891755256
 20
408.75
 30
0.0
 10
428.4862891755256
 20
408.4257896822965
 30
0.0
 10
428.4862891755256
 20
408.1015896904864
 30
0.0
 10
428.3534891788804
 20
407.8085896978882
 30
0.0
 10
428.1425891842082
 20
407.5956897032665
 30
0.0
 10
427.9286891896118
 20
407.3827897086449
 30
0.0
 10
427.6356891970136
 20
407.2520000000004
 30
0.0
 10
427.3114892052035
 20
407.2520000000004
 30
0.0
 10
426.9862892134188
 20
407.2520000000004
 30
0.0
 10
426.6933892208181
 20
407.3827897086449
 30
0.0
 10
426.4804892261964
 20
407.5956897032665
 30
0.0
 10
426.2685892315494
 20
407.8085896978882
 30
0.0
 10
426.1366892348815
 20
408.1015896904864
 30
0.0
 10
426.1366892348815
 20
408.4257896822965
 30
0.0
 10
426.1366892348815
 20
408.75
 30
0.0
 10
426.2685892315494
 20
409.0448896666567
 30
0.0
 10
426.4804892261964
 20
409.2567896613036
 30
0.0
 10
426.6933892208181
 20
409.4687896559481
 30
0.0
 10
426.9862892134188
 20
409.5995896526438
 30
0.0
 10
427.3114892052035
 20
409.5995896526438
 30
0.0
 10
427.6356891970136
 20
409.5995896526438
 30
0.0
 10
427.9286891896118
 20
409.4687896559481
 30
0.0
 10
428.1425891842082
 20
409.2567896613036
 30
0.0
 10
428.1425891842082
 20
409.2567896613036
 30
0.0
 10
428.1425891842082
 20
409.2567896613036
 30
0.0
 10
428.1425891842082
 20
409.2567896613036
 30
0.0
  0
SPLINE
  5
84
330
14
100
AcDbEntity
  8
Layer 1
370
     0
100
AcDbSpline
210
0.0
220
0.0
230
1.0
 70
    11
 71
     3
 72
    20
 73
    16
 74
     0
 42
0.000000001
 43
0.0000000001
 40
0.0
 40
0.0
 40
0.0
 40
0.0
 40
1.0
 40
1.0
 40
1.0
 40
2.0
 40
2.0
 40
2.0
 40
3.0
 40
3.0
 40
3.0
 40
4.0
 40
4.0
 40
4.0
 40
5.0
 40
5.0
 40
5.0
 40
5.0
 10
428.053689186454
 20
408.9726896684806
 30
0.0
 10
427.9979999999996
 20
408.9179999999997
 30
0.0
 10
427.9091891901044
 20
408.9179999999997
 30
0.0
 10
427.8534891915115
 20
408.9726896684806
 30
0.0
 10
427.7987891928933
 20
409.0272896671013
 30
0.0
 10
427.7987891928933
 20
409.1171896648302
 30
0.0
 10
427.8534891915115
 20
409.1718896634484
 30
0.0
 10
427.9091891901044
 20
409.2265896620665
 30
0.0
 10
427.9979999999996
 20
409.2265896620665
 30
0.0
 10
428.053689186454
 20
409.1718896634484
 30
0.0
 10
428.1083891850722
 20
409.1171896648302
 30
0.0
 10
428.1083891850722
 20
409.0272896671013
 30
0.0
 10
428.053689186454
 20
408.9726896684806
 30
0.0
 10
428.053689186454
 20
408.9726896684806
 30
0.0
 10
428.053689186454
 20
408.9726896684806
 30
0.0
 10
428.053689186454
 20
408.9726896684806
 30
0.0
  0
SPLINE
  5
85
330
14
100
AcDbEntity
  8
Layer 1
370
     0
100
AcDbSpline
210
0.0
220
0.0
230
1.0
 70
    11
 71
     3
 72
    20
 73
    16
 74
     0
 42
0.000000001
 43
0.0000000001
 40
0.0
 40
0.0
 40
0.0
 40
0.0
 40
1.0
 40
1.0
 40
1.0
 40
2.0
 40
2.0
 40
2.0
 40
3.0
 40
3.0
 40
3.0
 40
4.0
 40
4.0
 40
4.0
 40
5.0
 40
5.0
 40
5.0
 40
5.0
 10
427.8573891914129
 20
407.6845897010207
 30
0.0
 10
427.9120891900311
 20
407.6288897024278
 30
0.0
 10
428.0020000000004
 20
407.6288897024278
 30
0.0
 10
428.0565891863807
 20
407.6845897010207
 30
0.0
 10
428.1112891849989
 20
407.7392896996389
 30
0.0
 10
428.1112891849989
 20
407.8280896973956
 30
0.0
 10
428.0565891863807
 20
407.8827896960138
 30
0.0
 10
428.0020000000004
 20
407.9394896945814
 30
0.0
 10
427.9120891900311
 20
407.9394896945814
 30
0.0
 10
427.8573891914129
 20
407.8827896960138
 30
0.0
 10
427.8026891927948
 20
407.8280896973956
 30
0.0
 10
427.8026891927948
 20
407.7392896996389
 30
0.0
 10
427.8573891914129
 20
407.6845897010207
 30
0.0
 10
427.8573891914129
 20
407.6845897010207
 30
0.0
 10
427.8573891914129
 20
407.6845897010207
 30
0.0
 10
427.8573891914129
 20
407.6845897010207
 30
0.0
  0
SPLINE
  5
86
330
14
100
AcDbEntity
  8
Layer 1
370
     0
100
AcDbSpline
210
0.0
220
0.0
230
1.0
 70
    11
 71
     3
 72
    32
 73
    28
 74
     0
 42
0.000000001
 43
0.0000000001
 40
0.0
 40
0.0
 40
0.0
 40
0.0
 40
1.0
 40
1.0
 40
1.0
 40
2.0
 40
2.0
 40
2.0
 40
3.0
 40
3.0
 40
3.0
 40
4.0
 40
4.0
 40
4.0
 40
5.0
 40
5.0
 40
5.0
 40
6.0
 40
6.0
 40
6.0
 40
7.0
 40
7.0
 40
7.0
 40
8.0
 40
8.0
 40
8.0
 40
9.0
 40
9.0
 40
9.0
 40
9.0
 10
427.3114892052035
 20
411.2782896102362
 30
0.0
 10
428.0995891852945
 20
411.2782896102362
 30
0.0
 10
428.8114891673104
 20
410.9599999999991
 30
0.0
 10
429.3280891542599
 20
410.4433896313276
 30
0.0
 10
429.8437891412323
 20
409.926789644378
 30
0.0
 10
430.1640891331408
 20
409.2147896623646
 30
0.0
 10
430.1640891331408
 20
408.4257896822965
 30
0.0
 10
430.1640891331408
 20
407.6386897021803
 30
0.0
 10
429.8437891412323
 20
406.9257897201896
 30
0.0
 10
429.3280891542599
 20
406.4091897332401
 30
0.0
 10
428.8114891673104
 20
405.8935897462652
 30
0.0
 10
428.0995891852945
 20
405.5741897543339
 30
0.0
 10
427.3114892052035
 20
405.5741897543339
 30
0.0
 10
426.5233892251126
 20
405.5741897543339
 30
0.0
 10
425.810489243122
 20
405.8935897462652
 30
0.0
 10
425.2948892561471
 20
406.4091897332401
 30
0.0
 10
424.7792892691723
 20
406.9257897201896
 30
0.0
 10
424.4590000000007
 20
407.6386897021803
 30
0.0
 10
424.4590000000007
 20
408.4257896822965
 30
0.0
 10
424.4590000000007
 20
409.2147896623646
 30
0.0
 10
424.7792892691723
 20
409.926789644378
 30
0.0
 10
425.2948892561471
 20
410.4433896313276
 30
0.0
 10
425.810489243122
 20
410.9599999999991
 30
0.0
 10
426.5233892251126
 20
411.2782896102362
 30
0.0
 10
427.3114892052035
 20
411.2782896102362
 30
0.0
 10
427.3114892052035
 20
411.2782896102362
 30
0.0
 10
427.3114892052035
 20
411.2782896102362
 30
0.0
 10
427.3114892052035
 20
411.2782896102362
 30
0.0
  0
SPLINE
  5
87
330
14
100
AcDbEntity
  8
Layer 1
370
     0
100
AcDbSpline
210
0.0
220
0.0
230
1.0
 70
    11
 71
     3
 72
   110
 73
   106
 74
     0
 42
0.000000001
 43
0.0000000001
 40
0.0
 40
0.0
 40
0.0
 40
0.0
 40
1.0
 40
1.0
 40
1.0
 40
2.0
 40
2.0
 40
2.0
 40
3.0
 40
3.0
 40
3.0
 40
4.0
 40
4.0
 40
4.0
 40
5.0
 40
5.0
 40
5.0
 40
6.0
 40
6.0
 40
6.0
 40
7.0
 40
7.0
 40
7.0
 40
8.0
 40
8.0
 40
8.0
 40
9.0
 40
9.0
 40
9.0
 40
10.0
 40
10.0
 40
10.0
 40
11.0
 40
11.0
 40
11.0
 40
12.0
 40
12.0
 40
12.0
 40
13.0
 40
13.0
 40
13.0
 40
14.0
 40
14.0
 40
14.0
 40
15.0
 40
15.0
 40
15.0
 40
16.0
 40
16.0
 40
16.0
 40
17.0
 40
17.0
 40
17.0
 40
18.0
 40
18.0
 40
18.0
 40
19.0
 40
19.0
 40
19.0
 40
20.0
 40
20.0
 40
20.0
 40
21.0
 40
21.0
 40
21.0
 40
22.0
 40
22.0
 40
22.0
 40
23.0
 40
23.0
 40
23.0
 40
24.0
 40
24.0
 40
24.0
 40
25.0
 40
25.0
 40
25.0
 40
26.0
 40
26.0
 40
26.0
 40
27.0
 40
27.0
 40
27.0
 40
28.0
 40
28.0
 40
28.0
 40
29.0
 40
29.0
 40
29.0
 40
30.0
 40
30.0
 40
30.0
 40
31.0
 40
31.0
 40
31.0
 40
32.0
 40
32.0
 40
32.0
 40
33.0
 40
33.0
 40
33.0
 40
34.0
 40
34.0
 40
34.0
 40
35.0
 40
35.0
 40
35.0
 40
35.0
 10
423.9853892892279
 20
411.0028896171934
 30
0.0
 10
423.9853892892279
 20
411.0028896171934
 30
0.0
 10
422.9882893144168
 20
411.0028896171934
 30
0.0
 10
422.9882893144168
 20
411.0028896171934
 30
0.0
 10
422.9882893144168
 20
411.0028896171934
 30
0.0
 10
422.9882893144168
 20
408.8261896721815
 30
0.0
 10
422.9882893144168
 20
408.8261896721815
 30
0.0
 10
422.9882893144168
 20
408.8261896721815
 30
0.0
 10
423.7108892961623
 20
408.8261896721815
 30
0.0
 10
423.7108892961623
 20
408.8261896721815
 30
0.0
 10
423.6972892965059
 20
408.6376896769434
 30
0.0
 10
423.691389296655
 20
408.4433896818518
 30
0.0
 10
423.6952892965564
 20
408.2401896869851
 30
0.0
 10
423.6952892965564
 20
408.2401896869851
 30
0.0
 10
423.9472892901904
 20
408.2401896869851
 30
0.0
 10
423.9472892901904
 20
408.2401896869851
 30
0.0
 10
423.9472892901904
 20
408.2401896869851
 30
0.0
 10
424.1933892839734
 20
408.2128896876748
 30
0.0
 10
424.1933892839734
 20
408.2128896876748
 30
0.0
 10
424.2655892821494
 20
408.8983896703576
 30
0.0
 10
424.4208892782262
 20
409.5292896544197
 30
0.0
 10
424.6229999999996
 20
410.0830000000005
 30
0.0
 10
424.8349999999991
 20
410.6581896259013
 30
0.0
 10
425.0956892611794
 20
411.151389613442
 30
0.0
 10
425.3729999999996
 20
411.5409999999993
 30
0.0
 10
425.3729999999996
 20
411.5409999999993
 30
0.0
 10
429.4765891505085
 20
411.5409999999993
 30
0.0
 10
429.4765891505085
 20
411.5409999999993
 30
0.0
 10
429.7128891445391
 20
411.0868896150714
 30
0.0
 10
429.9062891396534
 20
410.5956896274802
 30
0.0
 10
430.058589135806
 20
410.0702896407529
 30
0.0
 10
430.2245891316124
 20
409.4940896553089
 30
0.0
 10
430.3417891286517
 20
408.875
 30
0.0
 10
430.4091891269491
 20
408.2147896876268
 30
0.0
 10
430.4091891269491
 20
408.2147896876268
 30
0.0
 10
430.8104891168114
 20
408.2558896865885
 30
0.0
 10
430.8104891168114
 20
408.2558896865885
 30
0.0
 10
430.8104891168114
 20
408.2558896865885
 30
0.0
 10
431.2050891068429
 20
408.2128896876748
 30
0.0
 10
431.2050891068429
 20
408.2128896876748
 30
0.0
 10
431.277289105019
 20
408.8983896703576
 30
0.0
 10
431.4325891010958
 20
409.5292896544197
 30
0.0
 10
431.6356890959651
 20
410.0830000000005
 30
0.0
 10
431.8466890906348
 20
410.6581896259013
 30
0.0
 10
432.1093890839984
 20
411.151389613442
 30
0.0
 10
432.3847890770412
 20
411.5409999999993
 30
0.0
 10
432.3847890770412
 20
411.5409999999993
 30
0.0
 10
436.4882889733781
 20
411.5409999999993
 30
0.0
 10
436.4882889733781
 20
411.5409999999993
 30
0.0
 10
436.7245889674086
 20
411.0868896150714
 30
0.0
 10
436.9179999999997
 20
410.5956896274802
 30
0.0
 10
437.0702889586755
 20
410.0702896407529
 30
0.0
 10
437.2372889544567
 20
409.4940896553089
 30
0.0
 10
437.3534889515213
 20
408.875
 30
0.0
 10
437.4218889497934
 20
408.2147896876268
 30
0.0
 10
437.4218889497934
 20
408.2147896876268
 30
0.0
 10
437.9140889373593
 20
408.2655896863434
 30
0.0
 10
437.9140889373593
 20
408.2655896863434
 30
0.0
 10
437.9022889376574
 20
408.3729999999996
 30
0.0
 10
437.8895889379783
 20
408.4823896808666
 30
0.0
 10
437.8760000000002
 20
408.5878896782015
 30
0.0
 10
437.8770000000004
 20
408.6679999999997
 30
0.0
 10
437.8770000000004
 20
408.7479999999996
 30
0.0
 10
437.8760000000002
 20
408.8261896721815
 30
0.0
 10
437.8760000000002
 20
408.8261896721815
 30
0.0
 10
446.1190887300836
 20
408.8261896721815
 30
0.0
 10
446.1190887300836
 20
408.8261896721815
 30
0.0
 10
446.1054887304272
 20
408.6376896769434
 30
0.0
 10
446.1015887305257
 20
408.4423896818771
 30
0.0
 10
446.1054887304272
 20
408.2401896869851
 30
0.0
 10
446.2812887259861
 20
408.2401896869851
 30
0.0
 10
446.4580000000005
 20
408.2401896869851
 30
0.0
 10
446.6337887170812
 20
408.2401896869851
 30
0.0
 10
446.5741887185868
 20
410.0020000000004
 30
0.0
 10
447.2001887027727
 20
411.2851896100619
 30
0.0
 10
448.8866886601681
 20
411.8212895965189
 30
0.0
 10
448.8866886601681
 20
411.9833895924239
 30
0.0
 10
448.8866886601681
 20
412.1464895883037
 30
0.0
 10
448.8866886601681
 20
412.3085895842087
 30
0.0
 10
448.5487886687042
 20
412.2226895863787
 30
0.0
 10
448.2421886764496
 20
412.1083895892662
 30
0.0
 10
447.9647886834573
 20
411.9667895928433
 30
0.0
 10
447.9647886834573
 20
411.9667895928433
 30
0.0
 10
447.9647886834573
 20
412.4062895817406
 30
0.0
 10
447.9647886834573
 20
412.4062895817406
 30
0.0
 10
447.2987887002819
 20
412.4062895817406
 30
0.0
 10
446.6952887155276
 20
412.4315895811014
 30
0.0
 10
446.0429999999997
 20
412.4315895811014
 30
0.0
 10
446.0429999999997
 20
412.4315895811014
 30
0.0
 10
446.0429999999997
 20
411.0028896171934
 30
0.0
 10
446.0429999999997
 20
411.0028896171934
 30
0.0
 10
446.0429999999997
 20
411.0028896171934
 30
0.0
 10
443.8720887868476
 20
411.0028896171934
 30
0.0
 10
443.8720887868476
 20
411.0028896171934
 30
0.0
 10
443.8720887868476
 20
411.0028896171934
 30
0.0
 10
443.3534887999485
 20
412.4315895811014
 30
0.0
 10
443.3534887999485
 20
412.4315895811014
 30
0.0
 10
437.0263889597845
 20
412.4315895811014
 30
0.0
 10
432.9003890640161
 20
412.4315895811014
 30
0.0
 10
423.9853892892279
 20
412.4315895811014
 30
0.0
 10
423.9853892892279
 20
412.4315895811014
 30
0.0
 10
423.9853892892279
 20
411.0028896171934
 30
0.0
 10
423.9853892892279
 20
411.0028896171934
 30
0.0
 10
423.9853892892279
 20
411.0028896171934
 30
0.0
 10
423.9853892892279
 20
411.0028896171934
 30
0.0
 10
423.9853892892279
 20
411.0028896171934
 30
0.0
  0
POLYLINE
  5
88
330
14
100
AcDbEntity
  8
Layer 1
370
     0
100
AcDb2dPolyline
 66
     1
 10
0.0
 20
0.0
 30
0.0
  0
VERTEX
  5
89
330
88
100
AcDbEntity
  8
Layer 1
370
     0
100
AcDbVertex
100
AcDb2dVertex
 10
423.7108892961623
 20
413.2177895612404
 30
0.0
  0
VERTEX
  5
8A
330
88
100
AcDbEntity
  8
Layer 1
370
     0
100
AcDbVertex
100
AcDb2dVertex
 10
445.4647887466126
 20
413.2177895612404
 30
0.0
  0
VERTEX
  5
8B
330
88
100
AcDbEntity
  8
Layer 1
370
     0
100
AcDbVertex
100
AcDb2dVertex
 10
446.6220887173768
 20
413.2177895612404
 30
0.0
  0
VERTEX
  5
8C
330
88
100
AcDbEntity
  8
Layer 1
370
     0
100
AcDbVertex
100
AcDb2dVertex
 10
447.6845886905357
 20
420.875
 30
0.0
  0
VERTEX
  5
8D
330
88
100
AcDbEntity
  8
Layer 1
370
     0
100
AcDbVertex
100
AcDb2dVertex
 10
450.3407886234345
 20
420.875
 30
0.0
  0
VERTEX
  5
8E
330
88
100
AcDbEntity
  8
Layer 1
370
     0
100
AcDbVertex
100
AcDb2dVertex
 10
450.3407886234345
 20
421.8130000000001
 30
0.0
  0
VERTEX
  5
8F
330
88
100
AcDbEntity
  8
Layer 1
370
     0
100
AcDbVertex
100
AcDb2dVertex
 10
445.4647887466126
 20
421.8130000000001
 30
0.0
  0
VERTEX
  5
90
330
88
100
AcDbEntity
  8
Layer 1
370
     0
100
AcDbVertex
100
AcDb2dVertex
 10
444.4022887734536
 20
419.031289414379
 30
0.0
  0
VERTEX
  5
91
330
88
100
AcDbEntity
  8
Layer 1
370
     0
100
AcDbVertex
100
AcDb2dVertex
 10
422.6474893230261
 20
419.031289414379
 30
0.0
  0
VERTEX
  5
92
330
88
100
AcDbEntity
  8
Layer 1
370
     0
100
AcDbVertex
100
AcDb2dVertex
 10
422.6737893223617
 20
416.9511894669267
 30
0.0
  0
VERTEX
  5
93
330
88
100
AcDbEntity
  8
Layer 1
370
     0
100
AcDbVertex
100
AcDb2dVertex
 10
423.7108892961623
 20
413.2177895612404
 30
0.0
  0
VERTEX
  5
94
330
88
100
AcDbEntity
  8
Layer 1
370
     0
100
AcDbVertex
100
AcDb2dVertex
 10
423.7108892961623
 20
413.2177895612404
 30
0.0
  0
SEQEND
  5
95
330
88
100
AcDbEntity
  8
Layer 1
370
     0
  0
POLYLINE
  5
96
330
14
100
AcDbEntity
  8
Layer 1
370
     0
100
AcDb2dPolyline
 66
     1
 10
0.0
 20
0.0
 30
0.0
  0
VERTEX
  5
97
330
96
100
AcDbEntity
  8
Layer 1
370
     0
100
AcDbVertex
100
AcDb2dVertex
 10
452.9511885574902
 20
412.0028895919313
 30
0.0
  0
VERTEX
  5
98
330
96
100
AcDbEntity
  8
Layer 1
370
     0
100
AcDbVertex
100
AcDb2dVertex
 10
452.9511885574902
 20
411.6991895996034
 30
0.0
  0
VERTEX
  5
99
330
96
100
AcDbEntity
  8
Layer 1
370
     0
100
AcDbVertex
100
AcDb2dVertex
 10
455.5565884916723
 20
411.6991895996034
 30
0.0
  0
VERTEX
  5
9A
330
96
100
AcDbEntity
  8
Layer 1
370
     0
100
AcDbVertex
100
AcDb2dVertex
 10
455.5565884916723
 20
412.0028895919313
 30
0.0
  0
VERTEX
  5
9B
330
96
100
AcDbEntity
  8
Layer 1
370
     0
100
AcDbVertex
100
AcDb2dVertex
 10
452.9511885574902
 20
412.0028895919313
 30
0.0
  0
VERTEX
  5
9C
330
96
100
AcDbEntity
  8
Layer 1
370
     0
100
AcDbVertex
100
AcDb2dVertex
 10
452.9511885574902
 20
412.0028895919313
 30
0.0
  0
SEQEND
  5
9D
330
96
100
AcDbEntity
  8
Layer 1
370
     0
  0
POLYLINE
  5
9E
330
14
100
AcDbEntity
  8
Layer 1
370
     0
100
AcDb2dPolyline
 66
     1
 10
0.0
 20
0.0
 30
0.0
  0
VERTEX
  5
9F
330
9E
100
AcDbEntity
  8
Layer 1
370
     0
100
AcDbVertex
100
AcDb2dVertex
 10
453.6581885396299
 20
410.8886896200784
 30
0.0
  0
VERTEX
  5
A0
330
9E
100
AcDbEntity
  8
Layer 1
370
     0
100
AcDbVertex
100
AcDb2dVertex
 10
453.6581885396299
 20
410.5840000000007
 30
0.0
  0
VERTEX
  5
A1
330
9E
100
AcDbEntity
  8
Layer 1
370
     0
100
AcDbVertex
100
AcDb2dVertex
 10
455.5565884916723
 20
410.5840000000007
 30
0.0
  0
VERTEX
  5
A2
330
9E
100
AcDbEntity
  8
Layer 1
370
     0
100
AcDbVertex
100
AcDb2dVertex
 10
455.5565884916723
 20
410.8886896200784
 30
0.0
  0
VERTEX
  5
A3
330
9E
100
AcDbEntity
  8
Layer 1
370
     0
100
AcDbVertex
100
AcDb2dVertex
 10
453.6581885396299
 20
410.8886896200784
 30
0.0
  0
VERTEX
  5
A4
330
9E
100
AcDbEntity
  8
Layer 1
370
     0
100
AcDbVertex
100
AcDb2dVertex
 10
453.6581885396299
 20
410.8886896200784
 30
0.0
  0
SEQEND
  5
A5
330
9E
100
AcDbEntity
  8
Layer 1
370
     0
  0
SPLINE
  5
A6
330
14
100
AcDbEntity
  8
Layer 1
370
     0
100
AcDbSpline
210
0.0
220
0.0
230
1.0
 70
    11
 71
     3
 72
    35
 73
    31
 74
     0
 42
0.000000001
 43
0.0000000001
 40
0.0
 40
0.0
 40
0.0
 40
0.0
 40
1.0
 40
1.0
 40
1.0
 40
2.0
 40
2.0
 40
2.0
 40
3.0
 40
3.0
 40
3.0
 40
4.0
 40
4.0
 40
4.0
 40
5.0
 40
5.0
 40
5.0
 40
6.0
 40
6.0
 40
6.0
 40
7.0
 40
7.0
 40
7.0
 40
8.0
 40
8.0
 40
8.0
 40
9.0
 40
9.0
 40
9.0
 40
10.0
 40
10.0
 40
10.0
 40
10.0
 10
450.1796886275042
 20
418.8349999999991
 30
0.0
 10
450.1796886275042
 20
418.8349999999991
 30
0.0
 10
450.1796886275042
 20
416.3935894810129
 30
0.0
 10
450.1796886275042
 20
416.3935894810129
 30
0.0
 10
450.1796886275042
 20
416.3935894810129
 30
0.0
 10
455.1737885013426
 20
415.7362894976177
 30
0.0
 10
455.1737885013426
 20
415.7362894976177
 30
0.0
 10
455.0878885035127
 20
416.7304894725021
 30
0.0
 10
454.8622885092118
 20
417.6854894483768
 30
0.0
 10
454.4267885202134
 20
418.5840000000007
 30
0.0
 10
454.4267885202134
 20
418.5840000000007
 30
0.0
 10
454.4267885202134
 20
417.4979999999996
 30
0.0
 10
454.4267885202134
 20
417.4979999999996
 30
0.0
 10
454.4267885202134
 20
417.4032894555057
 30
0.0
 10
454.3495885221637
 20
417.3261894574534
 30
0.0
 10
454.2538885245813
 20
417.3261894574534
 30
0.0
 10
454.2538885245813
 20
417.3261894574534
 30
0.0
 10
453.6151885407162
 20
417.3261894574534
 30
0.0
 10
453.6151885407162
 20
417.3261894574534
 30
0.0
 10
453.5204885431085
 20
417.3261894574534
 30
0.0
 10
453.4433885450562
 20
417.4032894555057
 30
0.0
 10
453.4433885450562
 20
417.4979999999996
 30
0.0
 10
453.4433885450562
 20
417.4979999999996
 30
0.0
 10
453.4433885450562
 20
418.8349999999991
 30
0.0
 10
453.4433885450562
 20
418.8349999999991
 30
0.0
 10
453.4433885450562
 20
418.8349999999991
 30
0.0
 10
450.1796886275042
 20
418.8349999999991
 30
0.0
 10
450.1796886275042
 20
418.8349999999991
 30
0.0
 10
450.1796886275042
 20
418.8349999999991
 30
0.0
 10
450.1796886275042
 20
418.8349999999991
 30
0.0
 10
450.1796886275042
 20
418.8349999999991
 30
0.0
  0
SPLINE
  5
A7
330
14
100
AcDbEntity
  8
Layer 1
370
     0
100
AcDbSpline
210
0.0
220
0.0
230
1.0
 70
    11
 71
     3
 72
    65
 73
    61
 74
     0
 42
0.000000001
 43
0.0000000001
 40
0.0
 40
0.0
 40
0.0
 40
0.0
 40
1.0
 40
1.0
 40
1.0
 40
2.0
 40
2.0
 40
2.0
 40
3.0
 40
3.0
 40
3.0
 40
4.0
 40
4.0
 40
4.0
 40
5.0
 40
5.0
 40
5.0
 40
6.0
 40
6.0
 40
6.0
 40
7.0
 40
7.0
 40
7.0
 40
8.0
 40
8.0
 40
8.0
 40
9.0
 40
9.0
 40
9.0
 40
10.0
 40
10.0
 40
10.0
 40
11.0
 40
11.0
 40
11.0
 40
12.0
 40
12.0
 40
12.0
 40
13.0
 40
13.0
 40
13.0
 40
14.0
 40
14.0
 40
14.0
 40
15.0
 40
15.0
 40
15.0
 40
16.0
 40
16.0
 40
16.0
 40
17.0
 40
17.0
 40
17.0
 40
18.0
 40
18.0
 40
18.0
 40
19.0
 40
19.0
 40
19.0
 40
20.0
 40
20.0
 40
20.0
 40
20.0
 10
455.921888482444
 20
413.0
 30
0.0
 10
455.921888482444
 20
413.0
 30
0.0
 10
456.4765884684311
 20
412.2479999999996
 30
0.0
 10
456.4765884684311
 20
412.2479999999996
 30
0.0
 10
456.4765884684311
 20
412.2479999999996
 30
0.0
 10
456.4765884684311
 20
409.6132896522977
 30
0.0
 10
456.4765884684311
 20
409.6132896522977
 30
0.0
 10
456.4765884684311
 20
409.6132896522977
 30
0.0
 10
455.7812884859959
 20
408.8026896727752
 30
0.0
 10
455.7812884859959
 20
408.8026896727752
 30
0.0
 10
455.7812884859959
 20
408.8026896727752
 30
0.0
 10
453.6972885386422
 20
408.8026896727752
 30
0.0
 10
453.6972885386422
 20
408.8026896727752
 30
0.0
 10
453.6972885386422
 20
408.6796896758824
 30
0.0
 10
453.6972885386422
 20
408.5546896790402
 30
0.0
 10
453.6952885386927
 20
408.4276896822485
 30
0.0
 10
453.5370885426892
 20
408.4276896822485
 30
0.0
 10
453.3788885466856
 20
408.4276896822485
 30
0.0
 10
453.2206885506821
 20
408.4276896822485
 30
0.0
 10
453.2187885507301
 20
410.5868896277025
 30
0.0
 10
451.8671885848744
 20
412.1757895875635
 30
0.0
 10
449.2440886511395
 20
411.8554895956549
 30
0.0
 10
449.2440886511395
 20
411.8554895956549
 30
0.0
 10
449.2440886511395
 20
413.0
 30
0.0
 10
449.2440886511395
 20
413.0
 30
0.0
 10
449.2440886511395
 20
413.0
 30
0.0
 10
448.2313886767224
 20
413.0
 30
0.0
 10
448.2313886767224
 20
413.0
 30
0.0
 10
448.2313886767224
 20
413.0
 30
0.0
 10
448.2313886767224
 20
419.0077894149726
 30
0.0
 10
448.2313886767224
 20
419.0077894149726
 30
0.0
 10
448.2313886767224
 20
419.0077894149726
 30
0.0
 10
448.6679999999997
 20
419.8320000000003
 30
0.0
 10
448.6679999999997
 20
419.8320000000003
 30
0.0
 10
448.6679999999997
 20
419.8320000000003
 30
0.0
 10
454.9413885072136
 20
419.8320000000003
 30
0.0
 10
454.9413885072136
 20
419.8320000000003
 30
0.0
 10
455.7226884874763
 20
418.3983894303674
 30
0.0
 10
456.1327884771163
 20
416.9354894673234
 30
0.0
 10
456.3770000000004
 20
415.4628895045244
 30
0.0
 10
456.3770000000004
 20
415.4628895045244
 30
0.0
 10
449.3183886492625
 20
415.4628895045244
 30
0.0
 10
449.3183886492625
 20
415.4628895045244
 30
0.0
 10
449.3183886492625
 20
415.4628895045244
 30
0.0
 10
449.3183886492625
 20
415.2304895103953
 30
0.0
 10
449.3183886492625
 20
415.2304895103953
 30
0.0
 10
449.3183886492625
 20
415.2304895103953
 30
0.0
 10
456.3866884707022
 20
415.2304895103953
 30
0.0
 10
456.3866884707022
 20
415.2304895103953
 30
0.0
 10
456.3866884707022
 20
415.2304895103953
 30
0.0
 10
456.4257884697145
 20
413.7616895475003
 30
0.0
 10
456.4257884697145
 20
413.7616895475003
 30
0.0
 10
456.4257884697145
 20
413.7616895475003
 30
0.0
 10
456.055688479064
 20
413.0
 30
0.0
 10
456.055688479064
 20
413.0
 30
0.0
 10
456.055688479064
 20
413.0
 30
0.0
 10
455.921888482444
 20
413.0
 30
0.0
 10
455.921888482444
 20
413.0
 30
0.0
 10
455.921888482444
 20
413.0
 30
0.0
 10
455.921888482444
 20
413.0
 30
0.0
 10
455.921888482444
 20
413.0
 30
0.0
  0
HATCH
  5
A8
330
14
100
AcDbEntity
  8
Layer 1
 62
     7
100
AcDbHatch
 10
0.0
 20
0.0
 30
0.0
210
0.0
220
0.0
230
1.0
  2
SOLID
 70
     1
 71
     0
 91
       43
 92
        1
 93
        1
 72
     4
 94
        3
 73
     0
 74
     1
 95
       65
 96
       61
 40
0.0
 40
0.0
 40
0.0
 40
0.0
 40
1.0
 40
1.0
 40
1.0
 40
2.0
 40
2.0
 40
2.0
 40
3.0
 40
3.0
 40
3.0
 40
4.0
 40
4.0
 40
4.0
 40
5.0
 40
5.0
 40
5.0
 40
6.0
 40
6.0
 40
6.0
 40
7.0
 40
7.0
 40
7.0
 40
8.0
 40
8.0
 40
8.0
 40
9.0
 40
9.0
 40
9.0
 40
10.0
 40
10.0
 40
10.0
 40
11.0
 40
11.0
 40
11.0
 40
12.0
 40
12.0
 40
12.0
 40
13.0
 40
13.0
 40
13.0
 40
14.0
 40
14.0
 40
14.0
 40
15.0
 40
15.0
 40
15.0
 40
16.0
 40
16.0
 40
16.0
 40
17.0
 40
17.0
 40
17.0
 40
18.0
 40
18.0
 40
18.0
 40
19.0
 40
19.0
 40
19.0
 40
20.0
 40
20.0
 40
20.0
 40
20.0
 10
455.921888482444
 20
413.0
 10
455.921888482444
 20
413.0
 10
456.4765884684311
 20
412.2479999999996
 10
456.4765884684311
 20
412.2479999999996
 10
456.4765884684311
 20
412.2479999999996
 10
456.4765884684311
 20
409.6132896522977
 10
456.4765884684311
 20
409.6132896522977
 10
456.4765884684311
 20
409.6132896522977
 10
455.7812884859959
 20
408.8026896727752
 10
455.7812884859959
 20
408.8026896727752
 10
455.7812884859959
 20
408.8026896727752
 10
453.6972885386422
 20
408.8026896727752
 10
453.6972885386422
 20
408.8026896727752
 10
453.6972885386422
 20
408.6796896758824
 10
453.6972885386422
 20
408.5546896790402
 10
453.6952885386927
 20
408.4276896822485
 10
453.5370885426892
 20
408.4276896822485
 10
453.3788885466856
 20
408.4276896822485
 10
453.2206885506821
 20
408.4276896822485
 10
453.2187885507301
 20
410.5868896277025
 10
451.8671885848744
 20
412.1757895875635
 10
449.2440886511395
 20
411.8554895956549
 10
449.2440886511395
 20
411.8554895956549
 10
449.2440886511395
 20
413.0
 10
449.2440886511395
 20
413.0
 10
449.2440886511395
 20
413.0
 10
448.2313886767224
 20
413.0
 10
448.2313886767224
 20
413.0
 10
448.2313886767224
 20
413.0
 10
448.2313886767224
 20
419.0077894149726
 10
448.2313886767224
 20
419.0077894149726
 10
448.2313886767224
 20
419.0077894149726
 10
448.6679999999997
 20
419.8320000000003
 10
448.6679999999997
 20
419.8320000000003
 10
448.6679999999997
 20
419.8320000000003
 10
454.9413885072136
 20
419.8320000000003
 10
454.9413885072136
 20
419.8320000000003
 10
455.7226884874763
 20
418.3983894303674
 10
456.1327884771163
 20
416.9354894673234
 10
456.3770000000004
 20
415.4628895045244
 10
456.3770000000004
 20
415.4628895045244
 10
449.3183886492625
 20
415.4628895045244
 10
449.3183886492625
 20
415.4628895045244
 10
449.3183886492625
 20
415.4628895045244
 10
449.3183886492625
 20
415.2304895103953
 10
449.3183886492625
 20
415.2304895103953
 10
449.3183886492625
 20
415.2304895103953
 10
456.3866884707022
 20
415.2304895103953
 10
456.3866884707022
 20
415.2304895103953
 10
456.3866884707022
 20
415.2304895103953
 10
456.4257884697145
 20
413.7616895475003
 10
456.4257884697145
 20
413.7616895475003
 10
456.4257884697145
 20
413.7616895475003
 10
456.055688479064
 20
413.0
 10
456.055688479064
 20
413.0
 10
456.055688479064
 20
413.0
 10
455.921888482444
 20
413.0
 10
455.921888482444
 20
413.0
 10
455.921888482444
 20
413.0
 10
455.921888482444
 20
413.0
 10
455.921888482444
 20
413.0
 97
        0
 92
        1
 93
        1
 72
     4
 94
        3
 73
     0
 74
     1
 95
       35
 96
       31
 40
0.0
 40
0.0
 40
0.0
 40
0.0
 40
1.0
 40
1.0
 40
1.0
 40
2.0
 40
2.0
 40
2.0
 40
3.0
 40
3.0
 40
3.0
 40
4.0
 40
4.0
 40
4.0
 40
5.0
 40
5.0
 40
5.0
 40
6.0
 40
6.0
 40
6.0
 40
7.0
 40
7.0
 40
7.0
 40
8.0
 40
8.0
 40
8.0
 40
9.0
 40
9.0
 40
9.0
 40
10.0
 40
10.0
 40
10.0
 40
10.0
 10
425.4257892528403
 20
419.5038894024401
 10
425.4257892528403
 20
419.5038894024401
 10
434.3495890274062
 20
419.5038894024401
 10
434.3495890274062
 20
419.5038894024401
 10
434.3495890274062
 20
419.5038894024401
 10
436.4901889733301
 20
419.5038894024401
 10
436.4901889733301
 20
419.5038894024401
 10
436.4901889733301
 20
419.5038894024401
 10
442.7880888142317
 20
419.5038894024401
 10
442.7880888142317
 20
419.5038894024401
 10
442.7880888142317
 20
419.5038894024401
 10
440.2392888786198
 20
421.3578893556041
 10
440.2392888786198
 20
421.3578893556041
 10
439.3847889002063
 20
421.9784893399265
 10
438.7929999999997
 20
422.6068893240517
 10
437.6161889448849
 20
422.1732893350054
 10
437.2080000000005
 20
422.0228893388048
 10
436.1112889829019
 20
421.0897893623769
 10
435.3007890033768
 20
420.3681893806061
 10
435.3007890033768
 20
420.3681893806061
 10
433.146489057799
 20
421.9350893410228
 10
433.146489057799
 20
421.9350893410228
 10
432.0272890860724
 20
422.7494893204494
 10
431.25
 20
423.5731892996409
 10
429.7070000000003
 20
423.0048893139974
 10
428.8163891671866
 20
422.6762893222985
 10
425.4257892528403
 20
419.5038894024401
 10
425.4257892528403
 20
419.5038894024401
 10
425.4257892528403
 20
419.5038894024401
 10
425.4257892528403
 20
419.5038894024401
 10
425.4257892528403
 20
419.5038894024401
 97
        0
 92
        1
 93
       10
 72
     1
 10
423.7108892961623
 20
413.2177895612404
 11
445.4647887466126
 21
413.2177895612404
 72
     1
 10
445.4647887466126
 20
413.2177895612404
 11
446.6220887173768
 21
413.2177895612404
 72
     1
 10
446.6220887173768
 20
413.2177895612404
 11
447.6845886905357
 21
420.875
 72
     1
 10
447.6845886905357
 20
420.875
 11
450.3407886234345
 21
420.875
 72
     1
 10
450.3407886234345
 20
420.875
 11
450.3407886234345
 21
421.8130000000001
 72
     1
 10
450.3407886234345
 20
421.8130000000001
 11
445.4647887466126
 21
421.8130000000001
 72
     1
 10
445.4647887466126
 20
421.8130000000001
 11
444.4022887734536
 21
419.031289414379
 72
     1
 10
444.4022887734536
 20
419.031289414379
 11
422.6474893230261
 21
419.031289414379
 72
     1
 10
422.6474893230261
 20
419.031289414379
 11
422.6737893223617
 21
416.9511894669267
 72
     1
 10
422.6737893223617
 20
416.9511894669267
 11
423.7108892961623
 21
413.2177895612404
 97
        0
 92
        1
 93
        1
 72
     4
 94
        3
 73
     0
 74
     1
 95
       20
 96
       16
 40
0.0
 40
0.0
 40
0.0
 40
0.0
 40
1.0
 40
1.0
 40
1.0
 40
2.0
 40
2.0
 40
2.0
 40
3.0
 40
3.0
 40
3.0
 40
4.0
 40
4.0
 40
4.0
 40
5.0
 40
5.0
 40
5.0
 40
5.0
 10
430.3085891294904
 20
418.2333894345356
 10
430.5175891242106
 20
418.2333894345356
 10
430.7255891189561
 20
418.2333894345356
 10
430.9335891137016
 20
418.2333894345356
 10
430.9335891137016
 20
416.8378894697889
 10
430.9335891137016
 20
415.4413895050675
 10
430.9335891137016
 20
414.0458895403208
 10
430.7255891189561
 20
414.0458895403208
 10
430.5175891242106
 20
414.0458895403208
 10
430.3085891294904
 20
414.0458895403208
 10
430.3085891294904
 20
415.4413895050675
 10
430.3085891294904
 20
416.8378894697889
 10
430.3085891294904
 20
418.2333894345356
 10
430.3085891294904
 20
418.2333894345356
 10
430.3085891294904
 20
418.2333894345356
 10
430.3085891294904
 20
418.2333894345356
 97
        0
 92
        1
 93
        4
 72
     1
 10
426.2226892327089
 20
418.2333894345356
 11
426.8476892169201
 21
418.2333894345356
 72
     1
 10
426.8476892169201
 20
418.2333894345356
 11
426.8476892169201
 21
414.0458895403208
 72
     1
 10
426.8476892169201
 20
414.0458895403208
 11
426.2226892327089
 21
414.0458895403208
 72
     1
 10
426.2226892327089
 20
414.0458895403208
 11
426.2226892327089
 21
418.2333894345356
 97
        0
 92
        1
 93
        1
 72
     4
 94
        3
 73
     0
 74
     1
 95
       20
 96
       16
 40
0.0
 40
0.0
 40
0.0
 40
0.0
 40
1.0
 40
1.0
 40
1.0
 40
2.0
 40
2.0
 40
2.0
 40
3.0
 40
3.0
 40
3.0
 40
4.0
 40
4.0
 40
4.0
 40
5.0
 40
5.0
 40
5.0
 40
5.0
 10
434.3954890262467
 20
418.2333894345356
 10
434.6034890209921
 20
418.2333894345356
 10
434.8124890157123
 20
418.2333894345356
 10
435.0194890104831
 20
418.2333894345356
 10
435.0194890104831
 20
416.8378894697889
 10
435.0194890104831
 20
415.4413895050675
 10
435.0194890104831
 20
414.0458895403208
 10
434.8124890157123
 20
414.0458895403208
 10
434.6034890209921
 20
414.0458895403208
 10
434.3954890262467
 20
414.0458895403208
 10
434.3954890262467
 20
415.4413895050675
 10
434.3954890262467
 20
416.8378894697889
 10
434.3954890262467
 20
418.2333894345356
 10
434.3954890262467
 20
418.2333894345356
 10
434.3954890262467
 20
418.2333894345356
 10
434.3954890262467
 20
418.2333894345356
 97
        0
 92
        1
 93
        1
 72
     4
 94
        3
 73
     0
 74
     1
 95
       20
 96
       16
 40
0.0
 40
0.0
 40
0.0
 40
0.0
 40
1.0
 40
1.0
 40
1.0
 40
2.0
 40
2.0
 40
2.0
 40
3.0
 40
3.0
 40
3.0
 40
4.0
 40
4.0
 40
4.0
 40
5.0
 40
5.0
 40
5.0
 40
5.0
 10
438.4823889230029
 20
418.2333894345356
 10
438.6894889177711
 20
418.2333894345356
 10
438.8983889124938
 20
418.2333894345356
 10
439.107388907214
 20
418.2333894345356
 10
439.107388907214
 20
416.8378894697889
 10
439.107388907214
 20
415.4413895050675
 10
439.107388907214
 20
414.0458895403208
 10
438.8983889124938
 20
414.0458895403208
 10
438.6894889177711
 20
414.0458895403208
 10
438.4823889230029
 20
414.0458895403208
 10
438.4823889230029
 20
415.4413895050675
 10
438.4823889230029
 20
416.8378894697889
 10
438.4823889230029
 20
418.2333894345356
 10
438.4823889230029
 20
418.2333894345356
 10
438.4823889230029
 20
418.2333894345356
 10
438.4823889230029
 20
418.2333894345356
 97
        0
 92
        1
 93
        4
 72
     1
 10
442.5683888197818
 20
418.2333894345356
 11
443.193388803993
 21
418.2333894345356
 72
     1
 10
443.193388803993
 20
418.2333894345356
 11
443.193388803993
 21
414.0458895403208
 72
     1
 10
443.193388803993
 20
414.0458895403208
 11
442.5683888197818
 21
414.0458895403208
 72
     1
 10
442.5683888197818
 20
414.0458895403208
 11
442.5683888197818
 21
418.2333894345356
 97
        0
 92
        1
 93
        1
 72
     4
 94
        3
 73
     0
 74
     1
 95
      110
 96
      106
 40
0.0
 40
0.0
 40
0.0
 40
0.0
 40
1.0
 40
1.0
 40
1.0
 40
2.0
 40
2.0
 40
2.0
 40
3.0
 40
3.0
 40
3.0
 40
4.0
 40
4.0
 40
4.0
 40
5.0
 40
5.0
 40
5.0
 40
6.0
 40
6.0
 40
6.0
 40
7.0
 40
7.0
 40
7.0
 40
8.0
 40
8.0
 40
8.0
 40
9.0
 40
9.0
 40
9.0
 40
10.0
 40
10.0
 40
10.0
 40
11.0
 40
11.0
 40
11.0
 40
12.0
 40
12.0
 40
12.0
 40
13.0
 40
13.0
 40
13.0
 40
14.0
 40
14.0
 40
14.0
 40
15.0
 40
15.0
 40
15.0
 40
16.0
 40
16.0
 40
16.0
 40
17.0
 40
17.0
 40
17.0
 40
18.0
 40
18.0
 40
18.0
 40
19.0
 40
19.0
 40
19.0
 40
20.0
 40
20.0
 40
20.0
 40
21.0
 40
21.0
 40
21.0
 40
22.0
 40
22.0
 40
22.0
 40
23.0
 40
23.0
 40
23.0
 40
24.0
 40
24.0
 40
24.0
 40
25.0
 40
25.0
 40
25.0
 40
26.0
 40
26.0
 40
26.0
 40
27.0
 40
27.0
 40
27.0
 40
28.0
 40
28.0
 40
28.0
 40
29.0
 40
29.0
 40
29.0
 40
30.0
 40
30.0
 40
30.0
 40
31.0
 40
31.0
 40
31.0
 40
32.0
 40
32.0
 40
32.0
 40
33.0
 40
33.0
 40
33.0
 40
34.0
 40
34.0
 40
34.0
 40
35.0
 40
35.0
 40
35.0
 40
35.0
 10
423.9853892892279
 20
411.0028896171934
 10
423.9853892892279
 20
411.0028896171934
 10
422.9882893144168
 20
411.0028896171934
 10
422.9882893144168
 20
411.0028896171934
 10
422.9882893144168
 20
411.0028896171934
 10
422.9882893144168
 20
408.8261896721815
 10
422.9882893144168
 20
408.8261896721815
 10
422.9882893144168
 20
408.8261896721815
 10
423.7108892961623
 20
408.8261896721815
 10
423.7108892961623
 20
408.8261896721815
 10
423.6972892965059
 20
408.6376896769434
 10
423.691389296655
 20
408.4433896818518
 10
423.6952892965564
 20
408.2401896869851
 10
423.6952892965564
 20
408.2401896869851
 10
423.9472892901904
 20
408.2401896869851
 10
423.9472892901904
 20
408.2401896869851
 10
423.9472892901904
 20
408.2401896869851
 10
424.1933892839734
 20
408.2128896876748
 10
424.1933892839734
 20
408.2128896876748
 10
424.2655892821494
 20
408.8983896703576
 10
424.4208892782262
 20
409.5292896544197
 10
424.6229999999996
 20
410.0830000000005
 10
424.8349999999991
 20
410.6581896259013
 10
425.0956892611794
 20
411.151389613442
 10
425.3729999999996
 20
411.5409999999993
 10
425.3729999999996
 20
411.5409999999993
 10
429.4765891505085
 20
411.5409999999993
 10
429.4765891505085
 20
411.5409999999993
 10
429.7128891445391
 20
411.0868896150714
 10
429.9062891396534
 20
410.5956896274802
 10
430.058589135806
 20
410.0702896407529
 10
430.2245891316124
 20
409.4940896553089
 10
430.3417891286517
 20
408.875
 10
430.4091891269491
 20
408.2147896876268
 10
430.4091891269491
 20
408.2147896876268
 10
430.8104891168114
 20
408.2558896865885
 10
430.8104891168114
 20
408.2558896865885
 10
430.8104891168114
 20
408.2558896865885
 10
431.2050891068429
 20
408.2128896876748
 10
431.2050891068429
 20
408.2128896876748
 10
431.277289105019
 20
408.8983896703576
 10
431.4325891010958
 20
409.5292896544197
 10
431.6356890959651
 20
410.0830000000005
 10
431.8466890906348
 20
410.6581896259013
 10
432.1093890839984
 20
411.151389613442
 10
432.3847890770412
 20
411.5409999999993
 10
432.3847890770412
 20
411.5409999999993
 10
436.4882889733781
 20
411.5409999999993
 10
436.4882889733781
 20
411.5409999999993
 10
436.7245889674086
 20
411.0868896150714
 10
436.9179999999997
 20
410.5956896274802
 10
437.0702889586755
 20
410.0702896407529
 10
437.2372889544567
 20
409.4940896553089
 10
437.3534889515213
 20
408.875
 10
437.4218889497934
 20
408.2147896876268
 10
437.4218889497934
 20
408.2147896876268
 10
437.9140889373593
 20
408.2655896863434
 10
437.9140889373593
 20
408.2655896863434
 10
437.9022889376574
 20
408.3729999999996
 10
437.8895889379783
 20
408.4823896808666
 10
437.8760000000002
 20
408.5878896782015
 10
437.8770000000004
 20
408.6679999999997
 10
437.8770000000004
 20
408.7479999999996
 10
437.8760000000002
 20
408.8261896721815
 10
437.8760000000002
 20
408.8261896721815
 10
446.1190887300836
 20
408.8261896721815
 10
446.1190887300836
 20
408.8261896721815
 10
446.1054887304272
 20
408.6376896769434
 10
446.1015887305257
 20
408.4423896818771
 10
446.1054887304272
 20
408.2401896869851
 10
446.2812887259861
 20
408.2401896869851
 10
446.4580000000005
 20
408.2401896869851
 10
446.6337887170812
 20
408.2401896869851
 10
446.5741887185868
 20
410.0020000000004
 10
447.2001887027727
 20
411.2851896100619
 10
448.8866886601681
 20
411.8212895965189
 10
448.8866886601681
 20
411.9833895924239
 10
448.8866886601681
 20
412.1464895883037
 10
448.8866886601681
 20
412.3085895842087
 10
448.5487886687042
 20
412.2226895863787
 10
448.2421886764496
 20
412.1083895892662
 10
447.9647886834573
 20
411.9667895928433
 10
447.9647886834573
 20
411.9667895928433
 10
447.9647886834573
 20
412.4062895817406
 10
447.9647886834573
 20
412.4062895817406
 10
447.2987887002819
 20
412.4062895817406
 10
446.6952887155276
 20
412.4315895811014
 10
446.0429999999997
 20
412.4315895811014
 10
446.0429999999997
 20
412.4315895811014
 10
446.0429999999997
 20
411.0028896171934
 10
446.0429999999997
 20
411.0028896171934
 10
446.0429999999997
 20
411.0028896171934
 10
443.8720887868476
 20
411.0028896171934
 10
443.8720887868476
 20
411.0028896171934
 10
443.8720887868476
 20
411.0028896171934
 10
443.3534887999485
 20
412.4315895811014
 10
443.3534887999485
 20
412.4315895811014
 10
437.0263889597845
 20
412.4315895811014
 10
432.9003890640161
 20
412.4315895811014
 10
423.9853892892279
 20
412.4315895811014
 10
423.9853892892279
 20
412.4315895811014
 10
423.9853892892279
 20
411.0028896171934
 10
423.9853892892279
 20
411.0028896171934
 10
423.9853892892279
 20
411.0028896171934
 10
423.9853892892279
 20
411.0028896171934
 10
423.9853892892279
 20
411.0028896171934
 97
        0
 92
        1
 93
        1
 72
     4
 94
        3
 73
     0
 74
     1
 95
       35
 96
       31
 40
0.0
 40
0.0
 40
0.0
 40
0.0
 40
1.0
 40
1.0
 40
1.0
 40
2.0
 40
2.0
 40
2.0
 40
3.0
 40
3.0
 40
3.0
 40
4.0
 40
4.0
 40
4.0
 40
5.0
 40
5.0
 40
5.0
 40
6.0
 40
6.0
 40
6.0
 40
7.0
 40
7.0
 40
7.0
 40
8.0
 40
8.0
 40
8.0
 40
9.0
 40
9.0
 40
9.0
 40
10.0
 40
10.0
 40
10.0
 40
10.0
 10
450.1796886275042
 20
418.8349999999991
 10
450.1796886275042
 20
418.8349999999991
 10
450.1796886275042
 20
416.3935894810129
 10
450.1796886275042
 20
416.3935894810129
 10
450.1796886275042
 20
416.3935894810129
 10
455.1737885013426
 20
415.7362894976177
 10
455.1737885013426
 20
415.7362894976177
 10
455.0878885035127
 20
416.7304894725021
 10
454.8622885092118
 20
417.6854894483768
 10
454.4267885202134
 20
418.5840000000007
 10
454.4267885202134
 20
418.5840000000007
 10
454.4267885202134
 20
417.4979999999996
 10
454.4267885202134
 20
417.4979999999996
 10
454.4267885202134
 20
417.4032894555057
 10
454.3495885221637
 20
417.3261894574534
 10
454.2538885245813
 20
417.3261894574534
 10
454.2538885245813
 20
417.3261894574534
 10
453.6151885407162
 20
417.3261894574534
 10
453.6151885407162
 20
417.3261894574534
 10
453.5204885431085
 20
417.3261894574534
 10
453.4433885450562
 20
417.4032894555057
 10
453.4433885450562
 20
417.4979999999996
 10
453.4433885450562
 20
417.4979999999996
 10
453.4433885450562
 20
418.8349999999991
 10
453.4433885450562
 20
418.8349999999991
 10
453.4433885450562
 20
418.8349999999991
 10
450.1796886275042
 20
418.8349999999991
 10
450.1796886275042
 20
418.8349999999991
 10
450.1796886275042
 20
418.8349999999991
 10
450.1796886275042
 20
418.8349999999991
 10
450.1796886275042
 20
418.8349999999991
 97
        0
 92
        1
 93
        4
 72
     1
 10
454.0517885296867
 20
409.7440896489934
 11
454.0517885296867
 21
409.4394896566882
 72
     1
 10
454.0517885296867
 20
409.4394896566882
 11
455.5565884916723
 21
409.4394896566882
 72
     1
 10
455.5565884916723
 20
409.4394896566882
 11
455.5565884916723
 21
409.7440896489934
 72
     1
 10
455.5565884916723
 20
409.7440896489934
 11
454.0517885296867
 21
409.7440896489934
 97
        0
 92
        1
 93
        4
 72
     1
 10
453.6581885396299
 20
410.8886896200784
 11
453.6581885396299
 21
410.5840000000007
 72
     1
 10
453.6581885396299
 20
410.5840000000007
 11
455.5565884916723
 21
410.5840000000007
 72
     1
 10
455.5565884916723
 20
410.5840000000007
 11
455.5565884916723
 21
410.8886896200784
 72
     1
 10
455.5565884916723
 20
410.8886896200784
 11
453.6581885396299
 21
410.8886896200784
 97
        0
 92
        1
 93
        4
 72
     1
 10
452.9511885574902
 20
412.0028895919313
 11
452.9511885574902
 21
411.6991895996034
 72
     1
 10
452.9511885574902
 20
411.6991895996034
 11
455.5565884916723
 21
411.6991895996034
 72
     1
 10
455.5565884916723
 20
411.6991895996034
 11
455.5565884916723
 21
412.0028895919313
 72
     1
 10
455.5565884916723
 20
412.0028895919313
 11
452.9511885574902
 21
412.0028895919313
 97
        0
 92
        1
 93
        1
 72
     4
 94
        3
 73
     0
 74
     1
 95
       32
 96
       28
 40
0.0
 40
0.0
 40
0.0
 40
0.0
 40
1.0
 40
1.0
 40
1.0
 40
2.0
 40
2.0
 40
2.0
 40
3.0
 40
3.0
 40
3.0
 40
4.0
 40
4.0
 40
4.0
 40
5.0
 40
5.0
 40
5.0
 40
6.0
 40
6.0
 40
6.0
 40
7.0
 40
7.0
 40
7.0
 40
8.0
 40
8.0
 40
8.0
 40
9.0
 40
9.0
 40
9.0
 40
9.0
 10
427.3114892052035
 20
411.2782896102362
 10
428.0995891852945
 20
411.2782896102362
 10
428.8114891673104
 20
410.9599999999991
 10
429.3280891542599
 20
410.4433896313276
 10
429.8437891412323
 20
409.926789644378
 10
430.1640891331408
 20
409.2147896623646
 10
430.1640891331408
 20
408.4257896822965
 10
430.1640891331408
 20
407.6386897021803
 10
429.8437891412323
 20
406.9257897201896
 10
429.3280891542599
 20
406.4091897332401
 10
428.8114891673104
 20
405.8935897462652
 10
428.0995891852945
 20
405.5741897543339
 10
427.3114892052035
 20
405.5741897543339
 10
426.5233892251126
 20
405.5741897543339
 10
425.810489243122
 20
405.8935897462652
 10
425.2948892561471
 20
406.4091897332401
 10
424.7792892691723
 20
406.9257897201896
 10
424.4590000000007
 20
407.6386897021803
 10
424.4590000000007
 20
408.4257896822965
 10
424.4590000000007
 20
409.2147896623646
 10
424.7792892691723
 20
409.926789644378
 10
425.2948892561471
 20
410.4433896313276
 10
425.810489243122
 20
410.9599999999991
 10
426.5233892251126
 20
411.2782896102362
 10
427.3114892052035
 20
411.2782896102362
 10
427.3114892052035
 20
411.2782896102362
 10
427.3114892052035
 20
411.2782896102362
 10
427.3114892052035
 20
411.2782896102362
 97
        0
 92
        1
 93
        1
 72
     4
 94
        3
 73
     0
 74
     1
 95
       20
 96
       16
 40
0.0
 40
0.0
 40
0.0
 40
0.0
 40
1.0
 40
1.0
 40
1.0
 40
2.0
 40
2.0
 40
2.0
 40
3.0
 40
3.0
 40
3.0
 40
4.0
 40
4.0
 40
4.0
 40
5.0
 40
5.0
 40
5.0
 40
5.0
 10
426.4003892282199
 20
408.5644896787926
 10
426.4774892262722
 20
408.5644896787926
 10
426.5409999999993
 20
408.5020000000004
 10
426.5409999999993
 20
408.423789682347
 10
426.5409999999993
 20
408.34568968432
 10
426.4774892262722
 20
408.2831896858988
 10
426.4003892282199
 20
408.2831896858988
 10
426.3222892301928
 20
408.2831896858988
 10
426.2597892317717
 20
408.34568968432
 10
426.2597892317717
 20
408.423789682347
 10
426.2597892317717
 20
408.5020000000004
 10
426.3222892301928
 20
408.5644896787926
 10
426.4003892282199
 20
408.5644896787926
 10
426.4003892282199
 20
408.5644896787926
 10
426.4003892282199
 20
408.5644896787926
 10
426.4003892282199
 20
408.5644896787926
 97
        0
 92
        1
 93
        1
 72
     4
 94
        3
 73
     0
 74
     1
 95
       20
 96
       16
 40
0.0
 40
0.0
 40
0.0
 40
0.0
 40
1.0
 40
1.0
 40
1.0
 40
2.0
 40
2.0
 40
2.0
 40
3.0
 40
3.0
 40
3.0
 40
4.0
 40
4.0
 40
4.0
 40
5.0
 40
5.0
 40
5.0
 40
5.0
 10
426.5683892239758
 20
407.879889696087
 10
426.5136892253577
 20
407.8251896974689
 10
426.5136892253577
 20
407.7353896997374
 10
426.5683892239758
 20
407.6806897011193
 10
426.6239999999998
 20
407.625
 10
426.7128892203255
 20
407.625
 10
426.7685892189184
 20
407.6806897011193
 10
426.823189217539
 20
407.7353896997374
 10
426.823189217539
 20
407.8251896974689
 10
426.7685892189184
 20
407.879889696087
 10
426.7128892203255
 20
407.9354896946825
 10
426.6239999999998
 20
407.9354896946825
 10
426.5683892239758
 20
407.879889696087
 10
426.5683892239758
 20
407.879889696087
 10
426.5683892239758
 20
407.879889696087
 10
426.5683892239758
 20
407.879889696087
 97
        0
 92
        1
 93
        1
 72
     4
 94
        3
 73
     0
 74
     1
 95
       20
 96
       16
 40
0.0
 40
0.0
 40
0.0
 40
0.0
 40
1.0
 40
1.0
 40
1.0
 40
2.0
 40
2.0
 40
2.0
 40
3.0
 40
3.0
 40
3.0
 40
4.0
 40
4.0
 40
4.0
 40
5.0
 40
5.0
 40
5.0
 40
5.0
 10
427.1718892087301
 20
407.5145897053153
 10
427.1718892087301
 20
407.437489707263
 10
427.235389207126
 20
407.3739999999998
 10
427.313489205153
 20
407.3739999999998
 10
427.3905892032053
 20
407.3739999999998
 10
427.4550892015759
 20
407.437489707263
 10
427.4550892015759
 20
407.5145897053153
 10
427.4550892015759
 20
407.5927897033398
 10
427.3905892032053
 20
407.6562897017357
 10
427.313489205153
 20
407.6562897017357
 10
427.235389207126
 20
407.6562897017357
 10
427.1718892087301
 20
407.5927897033398
 10
427.1718892087301
 20
407.5145897053153
 10
427.1718892087301
 20
407.5145897053153
 10
427.1718892087301
 20
407.5145897053153
 10
427.1718892087301
 20
407.5145897053153
 97
        0
 92
        1
 93
        1
 72
     4
 94
        3
 73
     0
 74
     1
 95
       20
 96
       16
 40
0.0
 40
0.0
 40
0.0
 40
0.0
 40
1.0
 40
1.0
 40
1.0
 40
2.0
 40
2.0
 40
2.0
 40
3.0
 40
3.0
 40
3.0
 40
4.0
 40
4.0
 40
4.0
 40
5.0
 40
5.0
 40
5.0
 40
5.0
 10
427.8573891914129
 20
407.6845897010207
 10
427.9120891900311
 20
407.6288897024278
 10
428.0020000000004
 20
407.6288897024278
 10
428.0565891863807
 20
407.6845897010207
 10
428.1112891849989
 20
407.7392896996389
 10
428.1112891849989
 20
407.8280896973956
 10
428.0565891863807
 20
407.8827896960138
 10
428.0020000000004
 20
407.9394896945814
 10
427.9120891900311
 20
407.9394896945814
 10
427.8573891914129
 20
407.8827896960138
 10
427.8026891927948
 20
407.8280896973956
 10
427.8026891927948
 20
407.7392896996389
 10
427.8573891914129
 20
407.6845897010207
 10
427.8573891914129
 20
407.6845897010207
 10
427.8573891914129
 20
407.6845897010207
 10
427.8573891914129
 20
407.6845897010207
 97
        0
 92
        1
 93
        1
 72
     4
 94
        3
 73
     0
 74
     1
 95
       20
 96
       16
 40
0.0
 40
0.0
 40
0.0
 40
0.0
 40
1.0
 40
1.0
 40
1.0
 40
2.0
 40
2.0
 40
2.0
 40
3.0
 40
3.0
 40
3.0
 40
4.0
 40
4.0
 40
4.0
 40
5.0
 40
5.0
 40
5.0
 40
5.0
 10
428.2226891821847
 20
408.2870896858003
 10
428.1444891841602
 20
408.2870896858003
 10
428.0820000000003
 20
408.3515896841709
 10
428.0820000000003
 20
408.4296896821979
 10
428.0820000000003
 20
408.5067896802502
 10
428.1444891841602
 20
408.5702896786461
 10
428.2226891821847
 20
408.5702896786461
 10
428.299789180237
 20
408.5702896786461
 10
428.3632891786328
 20
408.5067896802502
 10
428.3632891786328
 20
408.4296896821979
 10
428.3632891786328
 20
408.3515896841709
 10
428.299789180237
 20
408.2870896858003
 10
428.2226891821847
 20
408.2870896858003
 10
428.2226891821847
 20
408.2870896858003
 10
428.2226891821847
 20
408.2870896858003
 10
428.2226891821847
 20
408.2870896858003
 97
        0
 92
        1
 93
        1
 72
     4
 94
        3
 73
     0
 74
     1
 95
       20
 96
       16
 40
0.0
 40
0.0
 40
0.0
 40
0.0
 40
1.0
 40
1.0
 40
1.0
 40
2.0
 40
2.0
 40
2.0
 40
3.0
 40
3.0
 40
3.0
 40
4.0
 40
4.0
 40
4.0
 40
5.0
 40
5.0
 40
5.0
 40
5.0
 10
428.053689186454
 20
408.9726896684806
 10
427.9979999999996
 20
408.9179999999997
 10
427.9091891901044
 20
408.9179999999997
 10
427.8534891915115
 20
408.9726896684806
 10
427.7987891928933
 20
409.0272896671013
 10
427.7987891928933
 20
409.1171896648302
 10
427.8534891915115
 20
409.1718896634484
 10
427.9091891901044
 20
409.2265896620665
 10
427.9979999999996
 20
409.2265896620665
 10
428.053689186454
 20
409.1718896634484
 10
428.1083891850722
 20
409.1171896648302
 10
428.1083891850722
 20
409.0272896671013
 10
428.053689186454
 20
408.9726896684806
 10
428.053689186454
 20
408.9726896684806
 10
428.053689186454
 20
408.9726896684806
 10
428.053689186454
 20
408.9726896684806
 97
        0
 92
        1
 93
        1
 72
     4
 94
        3
 73
     0
 74
     1
 95
       20
 96
       16
 40
0.0
 40
0.0
 40
0.0
 40
0.0
 40
1.0
 40
1.0
 40
1.0
 40
2.0
 40
2.0
 40
2.0
 40
3.0
 40
3.0
 40
3.0
 40
4.0
 40
4.0
 40
4.0
 40
5.0
 40
5.0
 40
5.0
 40
5.0
 10
427.4491892017249
 20
409.3378896592549
 10
427.4491892017249
 20
409.2597896612278
 10
427.3866892033038
 20
409.1972896628067
 10
427.3085892052768
 20
409.1972896628067
 10
427.2304892072498
 20
409.1972896628067
 10
427.1679999999997
 20
409.2597896612278
 10
427.1679999999997
 20
409.3378896592549
 10
427.1679999999997
 20
409.4159999999993
 10
427.2304892072498
 20
409.478489655703
 10
427.3085892052768
 20
409.478489655703
 10
427.3866892033038
 20
409.478489655703
 10
427.4491892017249
 20
409.4159999999993
 10
427.4491892017249
 20
409.3378896592549
 10
427.4491892017249
 20
409.3378896592549
 10
427.4491892017249
 20
409.3378896592549
 10
427.4491892017249
 20
409.3378896592549
 97
        0
 92
        1
 93
        1
 72
     4
 94
        3
 73
     0
 74
     1
 95
       20
 96
       16
 40
0.0
 40
0.0
 40
0.0
 40
0.0
 40
1.0
 40
1.0
 40
1.0
 40
2.0
 40
2.0
 40
2.0
 40
3.0
 40
3.0
 40
3.0
 40
4.0
 40
4.0
 40
4.0
 40
5.0
 40
5.0
 40
5.0
 40
5.0
 10
426.7655892189941
 20
409.1679999999997
 10
426.8202892176123
 20
409.1142896649035
 10
426.8202892176123
 20
409.0233896671998
 10
426.7655892189941
 20
408.9696896685564
 10
426.7090000000007
 20
408.914089669961
 10
426.6210892226445
 20
408.914089669961
 10
426.5644892240744
 20
408.9696896685564
 10
426.5097892254562
 20
409.0233896671998
 10
426.5097892254562
 20
409.1142896649035
 10
426.5644892240744
 20
409.1679999999997
 10
426.6210892226445
 20
409.2245896621171
 10
426.7090000000007
 20
409.2245896621171
 10
426.7655892189941
 20
409.1679999999997
 10
426.7655892189941
 20
409.1679999999997
 10
426.7655892189941
 20
409.1679999999997
 10
426.7655892189941
 20
409.1679999999997
 97
        0
 92
        1
 93
        1
 72
     4
 94
        3
 73
     0
 74
     1
 95
       32
 96
       28
 40
0.0
 40
0.0
 40
0.0
 40
0.0
 40
1.0
 40
1.0
 40
1.0
 40
2.0
 40
2.0
 40
2.0
 40
3.0
 40
3.0
 40
3.0
 40
4.0
 40
4.0
 40
4.0
 40
5.0
 40
5.0
 40
5.0
 40
6.0
 40
6.0
 40
6.0
 40
7.0
 40
7.0
 40
7.0
 40
8.0
 40
8.0
 40
8.0
 40
9.0
 40
9.0
 40
9.0
 40
9.0
 10
428.1425891842082
 20
409.2567896613036
 10
428.3534891788804
 20
409.0448896666567
 10
428.4862891755256
 20
408.75
 10
428.4862891755256
 20
408.4257896822965
 10
428.4862891755256
 20
408.1015896904864
 10
428.3534891788804
 20
407.8085896978882
 10
428.1425891842082
 20
407.5956897032665
 10
427.9286891896118
 20
407.3827897086449
 10
427.6356891970136
 20
407.2520000000004
 10
427.3114892052035
 20
407.2520000000004
 10
426.9862892134188
 20
407.2520000000004
 10
426.6933892208181
 20
407.3827897086449
 10
426.4804892261964
 20
407.5956897032665
 10
426.2685892315494
 20
407.8085896978882
 10
426.1366892348815
 20
408.1015896904864
 10
426.1366892348815
 20
408.4257896822965
 10
426.1366892348815
 20
408.75
 10
426.2685892315494
 20
409.0448896666567
 10
426.4804892261964
 20
409.2567896613036
 10
426.6933892208181
 20
409.4687896559481
 10
426.9862892134188
 20
409.5995896526438
 10
427.3114892052035
 20
409.5995896526438
 10
427.6356891970136
 20
409.5995896526438
 10
427.9286891896118
 20
409.4687896559481
 10
428.1425891842082
 20
409.2567896613036
 10
428.1425891842082
 20
409.2567896613036
 10
428.1425891842082
 20
409.2567896613036
 10
428.1425891842082
 20
409.2567896613036
 97
        0
 92
        1
 93
        1
 72
     4
 94
        3
 73
     0
 74
     1
 95
       32
 96
       28
 40
0.0
 40
0.0
 40
0.0
 40
0.0
 40
1.0
 40
1.0
 40
1.0
 40
2.0
 40
2.0
 40
2.0
 40
3.0
 40
3.0
 40
3.0
 40
4.0
 40
4.0
 40
4.0
 40
5.0
 40
5.0
 40
5.0
 40
6.0
 40
6.0
 40
6.0
 40
7.0
 40
7.0
 40
7.0
 40
8.0
 40
8.0
 40
8.0
 40
9.0
 40
9.0
 40
9.0
 40
9.0
 10
434.3056890285152
 20
411.2782896102362
 10
435.0937890086061
 20
411.2782896102362
 10
435.805688990622
 20
410.9599999999991
 10
436.3222889775716
 20
410.4433896313276
 10
436.8388889645212
 20
409.926789644378
 10
437.158188956455
 20
409.2147896623646
 10
437.158188956455
 20
408.4257896822965
 10
437.158188956455
 20
407.6386897021803
 10
436.8388889645212
 20
406.9257897201896
 10
436.3222889775716
 20
406.4091897332401
 10
435.805688990622
 20
405.8935897462652
 10
435.0937890086061
 20
405.5741897543339
 10
434.3056890285152
 20
405.5741897543339
 10
433.5175890484243
 20
405.5741897543339
 10
432.8046890664336
 20
405.8935897462652
 10
432.2890890794588
 20
406.4091897332401
 10
431.7733890924865
 20
406.9257897201896
 10
431.4530891005779
 20
407.6386897021803
 10
431.4530891005779
 20
408.4257896822965
 10
431.4530891005779
 20
409.2147896623646
 10
431.7733890924865
 20
409.926789644378
 10
432.2890890794588
 20
410.4433896313276
 10
432.8046890664336
 20
410.9599999999991
 10
433.5175890484243
 20
411.2782896102362
 10
434.3056890285152
 20
411.2782896102362
 10
434.3056890285152
 20
411.2782896102362
 10
434.3056890285152
 20
411.2782896102362
 10
434.3056890285152
 20
411.2782896102362
 97
        0
 92
        1
 93
        1
 72
     4
 94
        3
 73
     0
 74
     1
 95
       20
 96
       16
 40
0.0
 40
0.0
 40
0.0
 40
0.0
 40
1.0
 40
1.0
 40
1.0
 40
2.0
 40
2.0
 40
2.0
 40
3.0
 40
3.0
 40
3.0
 40
4.0
 40
4.0
 40
4.0
 40
5.0
 40
5.0
 40
5.0
 40
5.0
 10
433.394489051534
 20
408.5644896787926
 10
433.4726890495585
 20
408.5644896787926
 10
433.5351890479797
 20
408.5020000000004
 10
433.5351890479797
 20
408.423789682347
 10
433.5351890479797
 20
408.34568968432
 10
433.4726890495585
 20
408.2831896858988
 10
433.394489051534
 20
408.2831896858988
 10
433.316389053507
 20
408.2831896858988
 10
433.2538890550859
 20
408.34568968432
 10
433.2538890550859
 20
408.423789682347
 10
433.2538890550859
 20
408.5020000000004
 10
433.316389053507
 20
408.5644896787926
 10
433.394489051534
 20
408.5644896787926
 10
433.394489051534
 20
408.5644896787926
 10
433.394489051534
 20
408.5644896787926
 10
433.394489051534
 20
408.5644896787926
 97
        0
 92
        1
 93
        1
 72
     4
 94
        3
 73
     0
 74
     1
 95
       20
 96
       16
 40
0.0
 40
0.0
 40
0.0
 40
0.0
 40
1.0
 40
1.0
 40
1.0
 40
2.0
 40
2.0
 40
2.0
 40
3.0
 40
3.0
 40
3.0
 40
4.0
 40
4.0
 40
4.0
 40
5.0
 40
5.0
 40
5.0
 40
5.0
 10
433.56248904729
 20
407.879889696087
 10
433.5077890486718
 20
407.8251896974689
 10
433.5077890486718
 20
407.7353896997374
 10
433.56248904729
 20
407.6806897011193
 10
433.6181890458829
 20
407.625
 10
433.7070000000003
 20
407.625
 10
433.7636890422073
 20
407.6806897011193
 10
433.8183890408254
 20
407.7353896997374
 10
433.8183890408254
 20
407.8251896974689
 10
433.7636890422073
 20
407.879889696087
 10
433.7070000000003
 20
407.9354896946825
 10
433.6181890458829
 20
407.9354896946825
 10
433.56248904729
 20
407.879889696087
 10
433.56248904729
 20
407.879889696087
 10
433.56248904729
 20
407.879889696087
 10
433.56248904729
 20
407.879889696087
 97
        0
 92
        1
 93
        1
 72
     4
 94
        3
 73
     0
 74
     1
 95
       20
 96
       16
 40
0.0
 40
0.0
 40
0.0
 40
0.0
 40
1.0
 40
1.0
 40
1.0
 40
2.0
 40
2.0
 40
2.0
 40
3.0
 40
3.0
 40
3.0
 40
4.0
 40
4.0
 40
4.0
 40
5.0
 40
5.0
 40
5.0
 40
5.0
 10
434.1669999999995
 20
407.5145897053153
 10
434.1669999999995
 20
407.437489707263
 10
434.2304890304149
 20
407.3739999999998
 10
434.3075890284672
 20
407.3739999999998
 10
434.3856890264942
 20
407.3739999999998
 10
434.4491890248901
 20
407.437489707263
 10
434.4491890248901
 20
407.5145897053153
 10
434.4491890248901
 20
407.5927897033398
 10
434.3856890264942
 20
407.6562897017357
 10
434.3075890284672
 20
407.6562897017357
 10
434.2304890304149
 20
407.6562897017357
 10
434.1669999999995
 20
407.5927897033398
 10
434.1669999999995
 20
407.5145897053153
 10
434.1669999999995
 20
407.5145897053153
 10
434.1669999999995
 20
407.5145897053153
 10
434.1669999999995
 20
407.5145897053153
 97
        0
 92
        1
 93
        1
 72
     4
 94
        3
 73
     0
 74
     1
 95
       20
 96
       16
 40
0.0
 40
0.0
 40
0.0
 40
0.0
 40
1.0
 40
1.0
 40
1.0
 40
2.0
 40
2.0
 40
2.0
 40
3.0
 40
3.0
 40
3.0
 40
4.0
 40
4.0
 40
4.0
 40
5.0
 40
5.0
 40
5.0
 40
5.0
 10
434.8515890147246
 20
407.6845897010207
 10
434.9062890133428
 20
407.6288897024278
 10
434.9960890110742
 20
407.6288897024278
 10
435.0517890096671
 20
407.6845897010207
 10
435.1063890082878
 20
407.7392896996389
 10
435.1063890082878
 20
407.8280896973956
 10
435.0517890096671
 20
407.8827896960138
 10
434.9960890110742
 20
407.9394896945814
 10
434.9062890133428
 20
407.9394896945814
 10
434.8515890147246
 20
407.8827896960138
 10
434.7968890161064
 20
407.8280896973956
 10
434.7968890161064
 20
407.7392896996389
 10
434.8515890147246
 20
407.6845897010207
 10
434.8515890147246
 20
407.6845897010207
 10
434.8515890147246
 20
407.6845897010207
 10
434.8515890147246
 20
407.6845897010207
 97
        0
 92
        1
 93
        1
 72
     4
 94
        3
 73
     0
 74
     1
 95
       20
 96
       16
 40
0.0
 40
0.0
 40
0.0
 40
0.0
 40
1.0
 40
1.0
 40
1.0
 40
2.0
 40
2.0
 40
2.0
 40
3.0
 40
3.0
 40
3.0
 40
4.0
 40
4.0
 40
4.0
 40
5.0
 40
5.0
 40
5.0
 40
5.0
 10
435.2167890054989
 20
408.2870896858003
 10
435.1386890074718
 20
408.2870896858003
 10
435.0761890090507
 20
408.3515896841709
 10
435.0761890090507
 20
408.4296896821979
 10
435.0761890090507
 20
408.5067896802502
 10
435.1386890074718
 20
408.5702896786461
 10
435.2167890054989
 20
408.5702896786461
 10
435.2948890035259
 20
408.5702896786461
 10
435.357389001947
 20
408.5067896802502
 10
435.357389001947
 20
408.4296896821979
 10
435.357389001947
 20
408.3515896841709
 10
435.2948890035259
 20
408.2870896858003
 10
435.2167890054989
 20
408.2870896858003
 10
435.2167890054989
 20
408.2870896858003
 10
435.2167890054989
 20
408.2870896858003
 10
435.2167890054989
 20
408.2870896858003
 97
        0
 92
        1
 93
        1
 72
     4
 94
        3
 73
     0
 74
     1
 95
       20
 96
       16
 40
0.0
 40
0.0
 40
0.0
 40
0.0
 40
1.0
 40
1.0
 40
1.0
 40
2.0
 40
2.0
 40
2.0
 40
3.0
 40
3.0
 40
3.0
 40
4.0
 40
4.0
 40
4.0
 40
5.0
 40
5.0
 40
5.0
 40
5.0
 10
435.0478890097656
 20
408.9726896684806
 10
434.9921890111727
 20
408.9179999999997
 10
434.9032890134185
 20
408.9179999999997
 10
434.8485890148004
 20
408.9726896684806
 10
434.7929999999997
 20
409.0272896671013
 10
434.7929999999997
 20
409.1171896648302
 10
434.8485890148004
 20
409.1718896634484
 10
434.9032890134185
 20
409.2265896620665
 10
434.9921890111727
 20
409.2265896620665
 10
435.0478890097656
 20
409.1718896634484
 10
435.1024890083863
 20
409.1171896648302
 10
435.1024890083863
 20
409.0272896671013
 10
435.0478890097656
 20
408.9726896684806
 10
435.0478890097656
 20
408.9726896684806
 10
435.0478890097656
 20
408.9726896684806
 10
435.0478890097656
 20
408.9726896684806
 97
        0
 92
        1
 93
        1
 72
     4
 94
        3
 73
     0
 74
     1
 95
       20
 96
       16
 40
0.0
 40
0.0
 40
0.0
 40
0.0
 40
1.0
 40
1.0
 40
1.0
 40
2.0
 40
2.0
 40
2.0
 40
3.0
 40
3.0
 40
3.0
 40
4.0
 40
4.0
 40
4.0
 40
5.0
 40
5.0
 40
5.0
 40
5.0
 10
434.4433890250366
 20
409.3378896592549
 10
434.4433890250366
 20
409.2597896612278
 10
434.3808890266155
 20
409.1972896628067
 10
434.302689028591
 20
409.1972896628067
 10
434.2245890305639
 20
409.1972896628067
 10
434.1620890321428
 20
409.2597896612278
 10
434.1620890321428
 20
409.3378896592549
 10
434.1620890321428
 20
409.4159999999993
 10
434.2245890305639
 20
409.478489655703
 10
434.302689028591
 20
409.478489655703
 10
434.3808890266155
 20
409.478489655703
 10
434.4433890250366
 20
409.4159999999993
 10
434.4433890250366
 20
409.3378896592549
 10
434.4433890250366
 20
409.3378896592549
 10
434.4433890250366
 20
409.3378896592549
 10
434.4433890250366
 20
409.3378896592549
 97
        0
 92
        1
 93
        1
 72
     4
 94
        3
 73
     0
 74
     1
 95
       20
 96
       16
 40
0.0
 40
0.0
 40
0.0
 40
0.0
 40
1.0
 40
1.0
 40
1.0
 40
2.0
 40
2.0
 40
2.0
 40
3.0
 40
3.0
 40
3.0
 40
4.0
 40
4.0
 40
4.0
 40
5.0
 40
5.0
 40
5.0
 40
5.0
 10
433.7597890423058
 20
409.1679999999997
 10
433.8144890409239
 20
409.1142896649035
 10
433.8144890409239
 20
409.0233896671998
 10
433.7597890423058
 20
408.9696896685564
 10
433.7030890437381
 20
408.914089669961
 10
433.6151890459587
 20
408.914089669961
 10
433.5604890473405
 20
408.9696896685564
 10
433.5038890487704
 20
409.0233896671998
 10
433.5038890487704
 20
409.1142896649035
 10
433.5604890473405
 20
409.1679999999997
 10
433.6151890459587
 20
409.2245896621171
 10
433.7030890437381
 20
409.2245896621171
 10
433.7597890423058
 20
409.1679999999997
 10
433.7597890423058
 20
409.1679999999997
 10
433.7597890423058
 20
409.1679999999997
 10
433.7597890423058
 20
409.1679999999997
 97
        0
 92
        1
 93
        1
 72
     4
 94
        3
 73
     0
 74
     1
 95
       32
 96
       28
 40
0.0
 40
0.0
 40
0.0
 40
0.0
 40
1.0
 40
1.0
 40
1.0
 40
2.0
 40
2.0
 40
2.0
 40
3.0
 40
3.0
 40
3.0
 40
4.0
 40
4.0
 40
4.0
 40
5.0
 40
5.0
 40
5.0
 40
6.0
 40
6.0
 40
6.0
 40
7.0
 40
7.0
 40
7.0
 40
8.0
 40
8.0
 40
8.0
 40
9.0
 40
9.0
 40
9.0
 40
9.0
 10
435.1366890075224
 20
409.2567896613036
 10
435.3476890021921
 20
409.0448896666567
 10
435.4794889988625
 20
408.75
 10
435.4794889988625
 20
408.4257896822965
 10
435.4794889988625
 20
408.1015896904864
 10
435.3476890021921
 20
407.8085896978882
 10
435.1366890075224
 20
407.5956897032665
 10
434.9237890129007
 20
407.3827897086449
 10
434.6298890203252
 20
407.2520000000004
 10
434.3056890285152
 20
407.2520000000004
 10
433.9813890367077
 20
407.2520000000004
 10
433.6874890441322
 20
407.3827897086449
 10
433.4745890495105
 20
407.5956897032665
 10
433.2626890548636
 20
407.8085896978882
 10
433.1308890581931
 20
408.1015896904864
 10
433.1308890581931
 20
408.4257896822965
 10
433.1308890581931
 20
408.75
 10
433.2626890548636
 20
409.0448896666567
 10
433.4745890495105
 20
409.2567896613036
 10
433.6874890441322
 20
409.4687896559481
 10
433.9813890367077
 20
409.5995896526438
 10
434.3056890285152
 20
409.5995896526438
 10
434.6298890203252
 20
409.5995896526438
 10
434.9237890129007
 20
409.4687896559481
 10
435.1366890075224
 20
409.2567896613036
 10
435.1366890075224
 20
409.2567896613036
 10
435.1366890075224
 20
409.2567896613036
 10
435.1366890075224
 20
409.2567896613036
 97
        0
 92
        1
 93
        1
 72
     4
 94
        3
 73
     0
 74
     1
 95
       32
 96
       28
 40
0.0
 40
0.0
 40
0.0
 40
0.0
 40
1.0
 40
1.0
 40
1.0
 40
2.0
 40
2.0
 40
2.0
 40
3.0
 40
3.0
 40
3.0
 40
4.0
 40
4.0
 40
4.0
 40
5.0
 40
5.0
 40
5.0
 40
6.0
 40
6.0
 40
6.0
 40
7.0
 40
7.0
 40
7.0
 40
8.0
 40
8.0
 40
8.0
 40
9.0
 40
9.0
 40
9.0
 40
9.0
 10
449.8964886346585
 20
411.2782896102362
 10
449.1083886545675
 20
411.2782896102362
 10
448.3944886726022
 20
410.9599999999991
 10
447.8788886856273
 20
410.4433896313276
 10
447.3632886986525
 20
409.926789644378
 10
447.0448887066959
 20
409.2147896623646
 10
447.0448887066959
 20
408.4257896822965
 10
447.0448887066959
 20
407.6386897021803
 10
447.3632886986525
 20
406.9257897201896
 10
447.8788886856273
 20
406.4091897332401
 10
448.3944886726022
 20
405.8935897462652
 10
449.1083886545675
 20
405.5741897543339
 10
449.8964886346585
 20
405.5741897543339
 10
450.6835886147746
 20
405.5741897543339
 10
451.3964885967653
 20
405.8935897462652
 10
451.9130885837149
 20
406.4091897332401
 10
452.4296885706644
 20
406.9257897201896
 10
452.7489999999998
 20
407.6386897021803
 10
452.7489999999998
 20
408.4257896822965
 10
452.7489999999998
 20
409.2147896623646
 10
452.4296885706644
 20
409.926789644378
 10
451.9130885837149
 20
410.4433896313276
 10
451.3964885967653
 20
410.9599999999991
 10
450.6835886147746
 20
411.2782896102362
 10
449.8964886346585
 20
411.2782896102362
 10
449.8964886346585
 20
411.2782896102362
 10
449.8964886346585
 20
411.2782896102362
 10
449.8964886346585
 20
411.2782896102362
 97
        0
 92
        1
 93
        1
 72
     4
 94
        3
 73
     0
 74
     1
 95
       20
 96
       16
 40
0.0
 40
0.0
 40
0.0
 40
0.0
 40
1.0
 40
1.0
 40
1.0
 40
2.0
 40
2.0
 40
2.0
 40
3.0
 40
3.0
 40
3.0
 40
4.0
 40
4.0
 40
4.0
 40
5.0
 40
5.0
 40
5.0
 40
5.0
 10
448.9843886577
 20
408.5644896787926
 10
448.906288659673
 20
408.5644896787926
 10
448.8437886612519
 20
408.5020000000004
 10
448.8437886612519
 20
408.423789682347
 10
448.8437886612519
 20
408.34568968432
 10
448.906288659673
 20
408.2831896858988
 10
448.9843886577
 20
408.2831896858988
 10
449.0634886557018
 20
408.2831896858988
 10
449.1260000000002
 20
408.34568968432
 10
449.1260000000002
 20
408.423789682347
 10
449.1260000000002
 20
408.5020000000004
 10
449.0634886557018
 20
408.5644896787926
 10
448.9843886577
 20
408.5644896787926
 10
448.9843886577
 20
408.5644896787926
 10
448.9843886577
 20
408.5644896787926
 10
448.9843886577
 20
408.5644896787926
 97
        0
 92
        1
 93
        1
 72
     4
 94
        3
 73
     0
 74
     1
 95
       20
 96
       16
 40
0.0
 40
0.0
 40
0.0
 40
0.0
 40
1.0
 40
1.0
 40
1.0
 40
2.0
 40
2.0
 40
2.0
 40
3.0
 40
3.0
 40
3.0
 40
4.0
 40
4.0
 40
4.0
 40
5.0
 40
5.0
 40
5.0
 40
5.0
 10
449.154288653408
 20
407.879889696087
 10
449.2090000000007
 20
407.9354896946825
 10
449.2987886497576
 20
407.9354896946825
 10
449.3534886483758
 20
407.879889696087
 10
449.4081886469939
 20
407.8251896974689
 10
449.4081886469939
 20
407.7353896997374
 10
449.3534886483758
 20
407.6806897011193
 10
449.2987886497576
 20
407.625
 10
449.2090000000007
 20
407.625
 10
449.154288653408
 20
407.6806897011193
 10
449.0976886548378
 20
407.7353896997374
 10
449.0976886548378
 20
407.8251896974689
 10
449.154288653408
 20
407.879889696087
 10
449.154288653408
 20
407.879889696087
 10
449.154288653408
 20
407.879889696087
 10
449.154288653408
 20
407.879889696087
 97
        0
 92
        1
 93
        1
 72
     4
 94
        3
 73
     0
 74
     1
 95
       20
 96
       16
 40
0.0
 40
0.0
 40
0.0
 40
0.0
 40
1.0
 40
1.0
 40
1.0
 40
2.0
 40
2.0
 40
2.0
 40
3.0
 40
3.0
 40
3.0
 40
4.0
 40
4.0
 40
4.0
 40
5.0
 40
5.0
 40
5.0
 40
5.0
 10
449.7577886381623
 20
407.5145897053153
 10
449.7577886381623
 20
407.5927897033398
 10
449.8202886365834
 20
407.6562897017357
 10
449.8983886346105
 20
407.6562897017357
 10
449.976588632635
 20
407.6562897017357
 10
450.0390886310561
 20
407.5927897033398
 10
450.0390886310561
 20
407.5145897053153
 10
450.0390886310561
 20
407.437489707263
 10
449.976588632635
 20
407.3739999999998
 10
449.8983886346105
 20
407.3739999999998
 10
449.8202886365834
 20
407.3739999999998
 10
449.7577886381623
 20
407.437489707263
 10
449.7577886381623
 20
407.5145897053153
 10
449.7577886381623
 20
407.5145897053153
 10
449.7577886381623
 20
407.5145897053153
 10
449.7577886381623
 20
407.5145897053153
 97
        0
 92
        1
 93
        1
 72
     4
 94
        3
 73
     0
 74
     1
 95
       20
 96
       16
 40
0.0
 40
0.0
 40
0.0
 40
0.0
 40
1.0
 40
1.0
 40
1.0
 40
2.0
 40
2.0
 40
2.0
 40
3.0
 40
3.0
 40
3.0
 40
4.0
 40
4.0
 40
4.0
 40
5.0
 40
5.0
 40
5.0
 40
5.0
 10
450.4433886208426
 20
407.6845897010207
 10
450.3886886222244
 20
407.7392896996389
 10
450.3886886222244
 20
407.8280896973956
 10
450.4433886208426
 20
407.8827896960138
 10
450.4979999999996
 20
407.9394896945814
 10
450.5878886171922
 20
407.9394896945814
 10
450.6425886158104
 20
407.8827896960138
 10
450.6972886144285
 20
407.8280896973956
 10
450.6972886144285
 20
407.7392896996389
 10
450.6425886158104
 20
407.6845897010207
 10
450.5878886171922
 20
407.6288897024278
 10
450.4979999999996
 20
407.6288897024278
 10
450.4433886208426
 20
407.6845897010207
 10
450.4433886208426
 20
407.6845897010207
 10
450.4433886208426
 20
407.6845897010207
 10
450.4433886208426
 20
407.6845897010207
 97
        0
 92
        1
 93
        1
 72
     4
 94
        3
 73
     0
 74
     1
 95
       20
 96
       16
 40
0.0
 40
0.0
 40
0.0
 40
0.0
 40
1.0
 40
1.0
 40
1.0
 40
2.0
 40
2.0
 40
2.0
 40
3.0
 40
3.0
 40
3.0
 40
4.0
 40
4.0
 40
4.0
 40
5.0
 40
5.0
 40
5.0
 40
5.0
 10
450.8085886116169
 20
408.2870896858003
 10
450.8856886096692
 20
408.2870896858003
 10
450.949188608065
 20
408.3515896841709
 10
450.949188608065
 20
408.4296896821979
 10
450.949188608065
 20
408.5067896802502
 10
450.8856886096692
 20
408.5702896786461
 10
450.8085886116169
 20
408.5702896786461
 10
450.7304886135898
 20
408.5702896786461
 10
450.6659999999993
 20
408.5067896802502
 10
450.6659999999993
 20
408.4296896821979
 10
450.6659999999993
 20
408.3515896841709
 10
450.7304886135898
 20
408.2870896858003
 10
450.8085886116169
 20
408.2870896858003
 10
450.8085886116169
 20
408.2870896858003
 10
450.8085886116169
 20
408.2870896858003
 10
450.8085886116169
 20
408.2870896858003
 97
        0
 92
        1
 93
        1
 72
     4
 94
        3
 73
     0
 74
     1
 95
       20
 96
       16
 40
0.0
 40
0.0
 40
0.0
 40
0.0
 40
1.0
 40
1.0
 40
1.0
 40
2.0
 40
2.0
 40
2.0
 40
3.0
 40
3.0
 40
3.0
 40
4.0
 40
4.0
 40
4.0
 40
5.0
 40
5.0
 40
5.0
 40
5.0
 10
450.6386886159089
 20
408.9726896684806
 10
450.6933886145271
 20
409.0272896671013
 10
450.6933886145271
 20
409.1171896648302
 10
450.6386886159089
 20
409.1718896634484
 10
450.5840000000007
 20
409.2265896620665
 10
450.4940886195618
 20
409.2265896620665
 10
450.4394886209411
 20
409.1718896634484
 10
450.384788622323
 20
409.1171896648302
 10
450.384788622323
 20
409.0272896671013
 10
450.4394886209411
 20
408.9726896684806
 10
450.4940886195618
 20
408.9179999999997
 10
450.5840000000007
 20
408.9179999999997
 10
450.6386886159089
 20
408.9726896684806
 10
450.6386886159089
 20
408.9726896684806
 10
450.6386886159089
 20
408.9726896684806
 10
450.6386886159089
 20
408.9726896684806
 97
        0
 92
        1
 93
        1
 72
     4
 94
        3
 73
     0
 74
     1
 95
       20
 96
       16
 40
0.0
 40
0.0
 40
0.0
 40
0.0
 40
1.0
 40
1.0
 40
1.0
 40
2.0
 40
2.0
 40
2.0
 40
3.0
 40
3.0
 40
3.0
 40
4.0
 40
4.0
 40
4.0
 40
5.0
 40
5.0
 40
5.0
 40
5.0
 10
450.0351886311546
 20
409.3378896592549
 10
450.0351886311546
 20
409.4159999999993
 10
449.970688632784
 20
409.478489655703
 10
449.892588634757
 20
409.478489655703
 10
449.8163886366819
 20
409.478489655703
 10
449.7520000000004
 20
409.4159999999993
 10
449.7520000000004
 20
409.3378896592549
 10
449.7520000000004
 20
409.2597896612278
 10
449.8163886366819
 20
409.1972896628067
 10
449.892588634757
 20
409.1972896628067
 10
449.970688632784
 20
409.1972896628067
 10
450.0351886311546
 20
409.2597896612278
 10
450.0351886311546
 20
409.3378896592549
 10
450.0351886311546
 20
409.3378896592549
 10
450.0351886311546
 20
409.3378896592549
 10
450.0351886311546
 20
409.3378896592549
 97
        0
 92
        1
 93
        1
 72
     4
 94
        3
 73
     0
 74
     1
 95
       20
 96
       16
 40
0.0
 40
0.0
 40
0.0
 40
0.0
 40
1.0
 40
1.0
 40
1.0
 40
2.0
 40
2.0
 40
2.0
 40
3.0
 40
3.0
 40
3.0
 40
4.0
 40
4.0
 40
4.0
 40
5.0
 40
5.0
 40
5.0
 40
5.0
 10
449.3495886484743
 20
409.1679999999997
 10
449.2948886498561
 20
409.2245896621171
 10
449.2050886521247
 20
409.2245896621171
 10
449.1503886535065
 20
409.1679999999997
 10
449.0956886548884
 20
409.1142896649035
 10
449.0956886548884
 20
409.0233896671998
 10
449.1503886535065
 20
408.9696896685564
 10
449.2050886521247
 20
408.914089669961
 10
449.2948886498561
 20
408.914089669961
 10
449.3495886484743
 20
408.9696896685564
 10
449.4052886470672
 20
409.0233896671998
 10
449.4052886470672
 20
409.1142896649035
 10
449.3495886484743
 20
409.1679999999997
 10
449.3495886484743
 20
409.1679999999997
 10
449.3495886484743
 20
409.1679999999997
 10
449.3495886484743
 20
409.1679999999997
 97
        0
 92
        1
 93
        1
 72
     4
 94
        3
 73
     0
 74
     1
 95
       29
 96
       25
 40
0.0
 40
0.0
 40
0.0
 40
0.0
 40
1.0
 40
1.0
 40
1.0
 40
2.0
 40
2.0
 40
2.0
 40
3.0
 40
3.0
 40
3.0
 40
4.0
 40
4.0
 40
4.0
 40
5.0
 40
5.0
 40
5.0
 40
6.0
 40
6.0
 40
6.0
 40
7.0
 40
7.0
 40
7.0
 40
8.0
 40
8.0
 40
8.0
 40
8.0
 10
450.7265886136884
 20
409.2567896613036
 10
450.5136886190667
 20
409.4687896559481
 10
450.2206886264685
 20
409.5995896526438
 10
449.8964886346585
 20
409.5995896526438
 10
449.5722886428484
 20
409.5995896526438
 10
449.2772886503008
 20
409.4687896559481
 10
449.0663886556285
 20
409.2567896613036
 10
448.8534886610068
 20
409.0448896666567
 10
448.7226886643111
 20
408.75
 10
448.7226886643111
 20
408.4257896822965
 10
448.7226886643111
 20
408.1015896904864
 10
448.8534886610068
 20
407.8085896978882
 10
449.0663886556285
 20
407.5956897032665
 10
449.2772886503008
 20
407.3827897086449
 10
449.5722886428484
 20
407.2520000000004
 10
449.8964886346585
 20
407.2520000000004
 10
450.2206886264685
 20
407.2520000000004
 10
450.5136886190667
 20
407.3827897086449
 10
450.7265886136884
 20
407.5956897032665
 10
450.9394886083101
 20
407.8085896978882
 10
451.0702886050058
 20
408.1015896904864
 10
451.0702886050058
 20
408.4257896822965
 10
451.0702886050058
 20
408.75
 10
450.9394886083101
 20
409.0448896666567
 10
450.7265886136884
 20
409.2567896613036
 97
        0
 75
     0
 76
     1
 98
        0
  0
SPLINE
  5
A9
330
14
100
AcDbEntity
  8
Layer 1
370
     0
100
AcDbSpline
210
0.0
220
0.0
230
1.0
 70
    11
 71
     3
 72
    35
 73
    31
 74
     0
 42
0.000000001
 43
0.0000000001
 40
0.0
 40
0.0
 40
0.0
 40
0.0
 40
1.0
 40
1.0
 40
1.0
 40
2.0
 40
2.0
 40
2.0
 40
3.0
 40
3.0
 40
3.0
 40
4.0
 40
4.0
 40
4.0
 40
5.0
 40
5.0
 40
5.0
 40
6.0
 40
6.0
 40
6.0
 40
7.0
 40
7.0
 40
7.0
 40
8.0
 40
8.0
 40
8.0
 40
9.0
 40
9.0
 40
9.0
 40
10.0
 40
10.0
 40
10.0
 40
10.0
 10
425.4257892528403
 20
419.5038894024401
 30
0.0
 10
425.4257892528403
 20
419.5038894024401
 30
0.0
 10
434.3495890274062
 20
419.5038894024401
 30
0.0
 10
434.3495890274062
 20
419.5038894024401
 30
0.0
 10
434.3495890274062
 20
419.5038894024401
 30
0.0
 10
436.4901889733301
 20
419.5038894024401
 30
0.0
 10
436.4901889733301
 20
419.5038894024401
 30
0.0
 10
436.4901889733301
 20
419.5038894024401
 30
0.0
 10
442.7880888142317
 20
419.5038894024401
 30
0.0
 10
442.7880888142317
 20
419.5038894024401
 30
0.0
 10
442.7880888142317
 20
419.5038894024401
 30
0.0
 10
440.2392888786198
 20
421.3578893556041
 30
0.0
 10
440.2392888786198
 20
421.3578893556041
 30
0.0
 10
439.3847889002063
 20
421.9784893399265
 30
0.0
 10
438.7929999999997
 20
422.6068893240517
 30
0.0
 10
437.6161889448849
 20
422.1732893350054
 30
0.0
 10
437.2080000000005
 20
422.0228893388048
 30
0.0
 10
436.1112889829019
 20
421.0897893623769
 30
0.0
 10
435.3007890033768
 20
420.3681893806061
 30
0.0
 10
435.3007890033768
 20
420.3681893806061
 30
0.0
 10
433.146489057799
 20
421.9350893410228
 30
0.0
 10
433.146489057799
 20
421.9350893410228
 30
0.0
 10
432.0272890860724
 20
422.7494893204494
 30
0.0
 10
431.25
 20
423.5731892996409
 30
0.0
 10
429.7070000000003
 20
423.0048893139974
 30
0.0
 10
428.8163891671866
 20
422.6762893222985
 30
0.0
 10
425.4257892528403
 20
419.5038894024401
 30
0.0
 10
425.4257892528403
 20
419.5038894024401
 30
0.0
 10
425.4257892528403
 20
419.5038894024401
 30
0.0
 10
425.4257892528403
 20
419.5038894024401
 30
0.0
 10
425.4257892528403
 20
419.5038894024401
 30
0.0
  0
ENDSEC
  0
SECTION
  2
OBJECTS
  0
DICTIONARY
  5
5
330
0
100
AcDbDictionary
281
     1
  3
ACAD_GROUP
350
21
  3
ACAD_LAYOUT
350
18
  3
ACAD_MATERIAL
350
7
  3
ACAD_MLEADERSTYLE
350
AD
  3
ACAD_MLINESTYLE
350
12
  3
ACAD_PLOTSETTINGS
350
22
  3
ACAD_PLOTSTYLENAME
350
4
  3
ACAD_SCALELIST
350
29
  3
ACAD_TABLESTYLE
350
AC
  3
ACAD_VISUALSTYLE
350
23
  3
AcDbVariableDictionary
350
AA
  0
DICTIONARY
  5
CD
330
1F
100
AcDbDictionary
280
     1
281
     1
  3
ACAD_XREC_ROUNDTRIP
360
CE
  0
DICTIONARY
  5
21
102
{ACAD_REACTORS
330
5
102
}
330
5
100
AcDbDictionary
281
     1
  0
DICTIONARY
  5
18
102
{ACAD_REACTORS
330
5
102
}
330
5
100
AcDbDictionary
281
     1
  3
Layout1
350
1C
  3
Model
350
17
  0
DICTIONARY
  5
7
102
{ACAD_REACTORS
330
5
102
}
330
5
100
AcDbDictionary
281
     1
  3
ByBlock
350
4C
  3
ByLayer
350
E
  3
Global
350
6
  0
DICTIONARY
  5
AD
102
{ACAD_REACTORS
330
5
102
}
330
5
100
AcDbDictionary
281
     1
  3
Standard
350
B0
  0
DICTIONARY
  5
12
102
{ACAD_REACTORS
330
5
102
}
330
5
100
AcDbDictionary
281
     1
  3
Standard
350
11
  0
DICTIONARY
  5
22
102
{ACAD_REACTORS
330
5
102
}
330
5
100
AcDbDictionary
281
     1
  0
ACDBDICTIONARYWDFLT
  5
4
102
{ACAD_REACTORS
330
5
102
}
330
5
100
AcDbDictionary
281
     1
  3
Normal
350
3
100
AcDbDictionaryWithDefault
340
3
  0
DICTIONARY
  5
29
102
{ACAD_REACTORS
330
5
102
}
330
5
100
AcDbDictionary
281
     1
  3
*A1
350
4B
  0
DICTIONARY
  5
AC
102
{ACAD_REACTORS
330
5
102
}
330
5
100
AcDbDictionary
281
     1
  3
Standard
350
C8
  0
DICTIONARY
  5
23
102
{ACAD_REACTORS
330
5
102
}
330
5
100
AcDbDictionary
281
     1
  3
2dWireframe
350
26
  3
Basic
350
B7
  3
Brighten
350
BB
  3
ColorChange
350
BF
  3
Conceptual
350
B9
  3
Dim
350
BA
  3
EdgeColorOff
350
C2
  3
Facepattern
350
BE
  3
Flat
350
B1
  3
FlatWithEdges
350
B2
  3
Gouraud
350
B3
  3
GouraudWithEdges
350
B4
  3
Hidden
350
B6
  3
JitterOff
350
C0
  3
Linepattern
350
BD
  3
OverhangOff
350
C1
  3
Realistic
350
B8
  3
Shaded
350
C7
  3
Shaded with edges
350
C6
  3
Shades of Gray
350
C3
  3
Sketchy
350
C4
  3
Thicken
350
BC
  3
Wireframe
350
B5
  3
X-Ray
350
C5
  0
DICTIONARY
  5
AA
102
{ACAD_REACTORS
330
5
102
}
330
5
100
AcDbDictionary
281
     1
  3
CANNOSCALE
350
AB
  3
CMLEADERSTYLE
350
CA
  3
CTABLESTYLE
350
C9
  3
DIMASSOC
350
CB
  3
HIDETEXT
350
CC
  3
MSLTSCALE
350
CF
  0
XRECORD
  5
CE
102
{ACAD_REACTORS
330
CD
102
}
330
CD
100
AcDbXrecord
280
     1
102
VTR_0.000_0.000_1.000_1.000_VISUALSTYLE
340
26
102
VTR_0.000_0.000_1.000_1.000_GRIDDISPLAY
 70
     3
102
VTR_0.000_0.000_1.000_1.000_GRIDMAJOR
 70
     5
102
VTR_0.000_0.000_1.000_1.000_DEFAULTLIGHTING
280
     1
102
VTR_0.000_0.000_1.000_1.000_DEFAULTLIGHTINGTYPE
 70
     1
102
VTR_0.000_0.000_1.000_1.000_BRIGHTNESS
141
0.0
102
VTR_0.000_0.000_1.000_1.000_CONTRAST
142
0.0
  0
LAYOUT
  5
1C
102
{ACAD_REACTORS
330
18
102
}
330
18
100
AcDbPlotSettings
  1

  2
none_device
  4
Letter_(8.50_x_11.00_Inches)
  6

 40
6.35
 41
6.35
 42
6.35001
 43
6.35001
 44
215.9
 45
279.4
 46
0.0
 47
0.0
 48
0.0
 49
0.0
140
0.0
141
0.0
142
1.0
143
1.0
 70
   688
 72
     0
 73
     1
 74
     5
  7

 75
    16
147
1.0
148
0.0
149
0.0
100
AcDbLayout
  1
Layout1
 70
     1
 71
     1
 10
0.0
 20
0.0
 11
12.0
 21
9.0
 12
0.0
 22
0.0
 32
0.0
 14
1.000000000000000E+20
 24
1.000000000000000E+20
 34
1.000000000000000E+20
 15
-1.000000000000000E+20
 25
-1.000000000000000E+20
 35
-1.000000000000000E+20
146
0.0
 13
0.0
 23
0.0
 33
0.0
 16
1.0
 26
0.0
 36
0.0
 17
0.0
 27
1.0
 37
0.0
 76
     0
330
19
  0
LAYOUT
  5
17
102
{ACAD_REACTORS
330
18
102
}
330
18
100
AcDbPlotSettings
  1

  2
none_device
  4

  6

 40
0.0
 41
0.0
 42
0.0
 43
0.0
 44
0.0
 45
0.0
 46
0.0
 47
0.0
 48
0.0
 49
0.0
140
0.0
141
0.0
142
1.0
143
1.0
 70
  1712
 72
     0
 73
     0
 74
     0
  7

 75
     0
147
1.0
148
0.0
149
0.0
100
AcDbLayout
  1
Model
 70
     1
 71
     0
 10
0.0
 20
0.0
 11
12.0
 21
9.0
 12
0.0
 22
0.0
 32
0.0
 14
422.6474893230261
 24
405.5779026448651
 34
0.0
 15
456.4765884684312
 25
423.1893714554094
 35
0.0
146
0.0
 13
0.0
 23
0.0
 33
0.0
 16
1.0
 26
0.0
 36
0.0
 17
0.0
 27
1.0
 37
0.0
 76
     0
330
14
331
25
  0
MATERIAL
  5
4C
102
{ACAD_REACTORS
330
7
102
}
102
{ACAD_XDICTIONARY
360
D4
102
}
330
7
100
AcDbMaterial
  1
ByBlock
  0
MATERIAL
  5
E
102
{ACAD_REACTORS
330
7
102
}
102
{ACAD_XDICTIONARY
360
D0
102
}
330
7
100
AcDbMaterial
  1
ByLayer
  0
MATERIAL
  5
6
102
{ACAD_REACTORS
330
7
102
}
102
{ACAD_XDICTIONARY
360
D2
102
}
330
7
100
AcDbMaterial
  1
Global
  0
MLEADERSTYLE
  5
B0
102
{ACAD_REACTORS
330
AD
102
}
102
{ACAD_XDICTIONARY
360
107
102
}
330
AD
100
AcDbMLeaderStyle
170
     2
171
     1
172
     0
 90
        2
 40
0.0
 41
0.0
173
     1
 91
-1056964608
340
A
 92
       -2
290
     1
 42
0.09
291
     1
 43
0.36
  3
Standard
341
0
 44
0.18
300

342
C
174
     1
178
     6
175
     1
176
     0
 93
-1056964608
 45
0.18
292
     0
297
     0
 46
0.18
343
0
 94
-1056964608
 47
1.0
 49
1.0
140
1.0
293
     1
141
0.0
294
     1
177
     0
142
1.0
295
     0
296
     0
143
0.125
1001
ACAD_MLEADERVER
1070
     2
  0
MLINESTYLE
  5
11
102
{ACAD_REACTORS
330
12
102
}
330
12
100
AcDbMlineStyle
  2
Standard
 70
     0
  3

 62
   256
 51
90.0
 52
90.0
 71
     2
 49
0.5
 62
   256
  6
BYLAYER
 49
-0.5
 62
   256
  6
BYLAYER
  0
ACDBPLACEHOLDER
  5
3
102
{ACAD_REACTORS
330
4
102
}
330
4
  0
SCALE
  5
4B
102
{ACAD_REACTORS
330
29
102
}
330
29
100
AcDbScale
 70
     0
300
1:1
140
1.0
141
1.0
290
     1
  0
TABLESTYLE
  5
C8
102
{ACAD_REACTORS
330
AC
102
}
330
AC
100
AcDbTableStyle
  3
Standard
 70
     0
 71
     0
 40
0.06
 41
0.06
280
     0
281
     0
  7
Standard
140
0.18
170
     2
 62
     0
 63
   257
283
     0
274
    -2
284
     1
 64
     0
275
    -2
285
     1
 65
     0
276
    -2
286
     1
 66
     0
277
    -2
287
     1
 67
     0
278
    -2
288
     1
 68
     0
279
    -2
289
     1
 69
     0
  7
Standard
140
0.25
170
     5
 62
     0
 63
   257
283
     0
274
    -2
284
     1
 64
     0
275
    -2
285
     1
 65
     0
276
    -2
286
     1
 66
     0
277
    -2
287
     1
 67
     0
278
    -2
288
     1
 68
     0
279
    -2
289
     1
 69
     0
  7
Standard
140
0.18
170
     5
 62
     0
 63
   257
283
     0
274
    -2
284
     1
 64
     0
275
    -2
285
     1
 65
     0
276
    -2
286
     1
 66
     0
277
    -2
287
     1
 67
     0
278
    -2
288
     1
 68
     0
279
    -2
289
     1
 69
     0
  0
VISUALSTYLE
  5
26
102
{ACAD_REACTORS
330
23
102
}
102
{ACAD_XDICTIONARY
360
D6
102
}
330
23
100
AcDbVisualStyle
  2
2dWireframe
 70
     4
 71
     0
 72
     2
 73
     0
 90
        0
 40
-0.6
 41
-30.0
 62
     5
 63
     7
 74
     1
 91
        4
 64
     7
 65
   257
 75
     1
175
     1
 42
1.0
 92
        0
 66
   257
 43
1.0
 76
     1
 77
     6
 78
     2
 67
     7
 79
     5
170
     0
171
     0
290
     0
174
     0
 93
        1
 44
0.0
173
     0
291
     0
 45
0.0
1001
ACAD
1000
AcDbSavedByObjectVersion
1070
     0
  0
VISUALSTYLE
  5
B7
102
{ACAD_REACTORS
330
23
102
}
102
{ACAD_XDICTIONARY
360
E4
102
}
330
23
100
AcDbVisualStyle
  2
Basic
 70
     7
 71
     1
 72
     0
 73
     1
 90
        0
 40
0.6
 41
30.0
 62
     5
 63
     7
 74
     0
 91
        4
 64
     7
 65
   257
 75
     1
175
     1
 42
1.0
 92
        8
 66
     7
 43
1.0
 76
     1
 77
     6
 78
     2
 67
     7
 79
     5
170
     0
171
     0
290
     0
174
     0
 93
        1
 44
0.0
173
     0
291
     1
 45
0.0
1001
ACAD
1000
AcDbSavedByObjectVersion
1070
     0
  0
VISUALSTYLE
  5
BB
102
{ACAD_REACTORS
330
23
102
}
102
{ACAD_XDICTIONARY
360
EC
102
}
330
23
100
AcDbVisualStyle
  2
Brighten
 70
    12
 71
     2
 72
     2
 73
     0
 90
        0
 40
0.6
 41
30.0
 62
     5
 63
     7
 74
     1
 91
        4
 64
     7
 65
   257
 75
     1
175
     1
 42
1.0
 92
        8
 66
     7
 43
1.0
 76
     1
 77
     6
 78
     2
 67
     7
 79
     5
170
     0
171
     0
290
     0
174
     0
 93
        1
 44
50.0
173
     0
291
     1
 45
0.0
1001
ACAD
1000
AcDbSavedByObjectVersion
1070
     0
  0
VISUALSTYLE
  5
BF
102
{ACAD_REACTORS
330
23
102
}
102
{ACAD_XDICTIONARY
360
F4
102
}
330
23
100
AcDbVisualStyle
  2
ColorChange
 70
    16
 71
     2
 72
     2
 73
     3
 90
        0
 40
0.6
 41
30.0
 62
     5
 63
     8
 74
     1
 91
        4
 64
     7
 65
   257
 75
     1
175
     1
 42
1.0
 92
        8
 66
     8
 43
1.0
 76
     1
 77
     6
 78
     2
 67
     7
 79
     5
170
     0
171
     0
290
     0
174
     0
 93
        1
 44
0.0
173
     0
291
     1
 45
0.0
1001
ACAD
1000
AcDbSavedByObjectVersion
1070
     0
  0
VISUALSTYLE
  5
B9
102
{ACAD_REACTORS
330
23
102
}
102
{ACAD_XDICTIONARY
360
E8
102
}
330
23
100
AcDbVisualStyle
  2
Conceptual
 70
     9
 71
     3
 72
     2
 73
     0
 90
        0
 40
0.6
 41
30.0
 62
     5
 63
     7
 74
     2
 91
        2
 64
     7
 65
   257
 75
     1
175
     1
 42
179.0
 92
        8
 66
     7
 43
1.0
 76
     1
 77
     6
 78
     2
 67
     7
 79
     3
170
     0
171
     0
290
     0
174
     0
 93
        1
 44
0.0
173
     0
291
     0
 45
0.0
1001
ACAD
1000
AcDbSavedByObjectVersion
1070
     0
  0
VISUALSTYLE
  5
BA
102
{ACAD_REACTORS
330
23
102
}
102
{ACAD_XDICTIONARY
360
EA
102
}
330
23
100
AcDbVisualStyle
  2
Dim
 70
    11
 71
     2
 72
     2
 73
     0
 90
        0
 40
0.6
 41
30.0
 62
     5
 63
     7
 74
     1
 91
        4
 64
     7
 65
   257
 75
     1
175
     1
 42
1.0
 92
        8
 66
     7
 43
1.0
 76
     1
 77
     6
 78
     2
 67
     7
 79
     5
170
     0
171
     0
290
     0
174
     0
 93
        1
 44
-50.0
173
     0
291
     1
 45
0.0
1001
ACAD
1000
AcDbSavedByObjectVersion
1070
     0
  0
VISUALSTYLE
  5
C2
102
{ACAD_REACTORS
330
23
102
}
102
{ACAD_XDICTIONARY
360
FA
102
}
330
23
100
AcDbVisualStyle
  2
EdgeColorOff
 70
    22
 71
     2
 72
     2
 73
     0
 90
        0
 40
0.6
 41
30.0
 62
     5
 63
     7
 74
     1
 91
        4
 64
     7
 65
   257
 75
     1
175
     1
 42
1.0
 92
        8
 66
     7
 43
1.0
 76
     1
 77
     6
 78
     2
 67
     7
 79
     5
170
     0
171
     0
290
     0
174
     0
 93
        1
 44
0.0
173
     0
291
     1
 45
0.0
1001
ACAD
1000
AcDbSavedByObjectVersion
1070
     0
  0
VISUALSTYLE
  5
BE
102
{ACAD_REACTORS
330
23
102
}
102
{ACAD_XDICTIONARY
360
F2
102
}
330
23
100
AcDbVisualStyle
  2
Facepattern
 70
    15
 71
     2
 72
     2
 73
     0
 90
        0
 40
0.6
 41
30.0
 62
     5
 63
     7
 74
     1
 91
        4
 64
     7
 65
   257
 75
     1
175
     1
 42
1.0
 92
        8
 66
     7
 43
1.0
 76
     1
 77
     6
 78
     2
 67
     7
 79
     5
170
     0
171
     0
290
     0
174
     0
 93
        1
 44
0.0
173
     0
291
     1
 45
0.0
1001
ACAD
1000
AcDbSavedByObjectVersion
1070
     0
  0
VISUALSTYLE
  5
B1
102
{ACAD_REACTORS
330
23
102
}
102
{ACAD_XDICTIONARY
360
D8
102
}
330
23
100
AcDbVisualStyle
  2
Flat
 70
     0
 71
     2
 72
     1
 73
     1
 90
        2
 40
0.6
 41
30.0
 62
     5
 63
     7
 74
     0
 91
        0
 64
     7
 65
   257
 75
     1
175
     1
 42
1.0
 92
        8
 66
     7
 43
1.0
 76
     1
 77
     6
 78
     2
 67
     7
 79
     5
170
     0
171
     0
290
     0
174
     0
 93
       13
 44
0.0
173
     0
291
     1
 45
0.0
1001
ACAD
1000
AcDbSavedByObjectVersion
1070
     0
  0
VISUALSTYLE
  5
B2
102
{ACAD_REACTORS
330
23
102
}
102
{ACAD_XDICTIONARY
360
DA
102
}
330
23
100
AcDbVisualStyle
  2
FlatWithEdges
 70
     1
 71
     2
 72
     1
 73
     1
 90
        2
 40
0.6
 41
30.0
 62
     5
 63
     7
 74
     1
 91
        0
 64
     7
 65
   257
 75
     1
175
     1
 42
1.0
 92
        0
 66
   257
 43
1.0
 76
     1
 77
     6
 78
     2
 67
     7
 79
     5
170
     0
171
     0
290
     0
174
     0
 93
       13
 44
0.0
173
     0
291
     1
 45
0.0
1001
ACAD
1000
AcDbSavedByObjectVersion
1070
     0
  0
VISUALSTYLE
  5
B3
102
{ACAD_REACTORS
330
23
102
}
102
{ACAD_XDICTIONARY
360
DC
102
}
330
23
100
AcDbVisualStyle
  2
Gouraud
 70
     2
 71
     2
 72
     2
 73
     1
 90
        2
 40
0.6
 41
30.0
 62
     5
 63
     7
 74
     0
 91
        0
 64
     7
 65
   257
 75
     1
175
     1
 42
1.0
 92
        0
 66
     7
 43
1.0
 76
     1
 77
     6
 78
     2
 67
     7
 79
     5
170
     0
171
     0
290
     0
174
     0
 93
       13
 44
0.0
173
     0
291
     1
 45
0.0
1001
ACAD
1000
AcDbSavedByObjectVersion
1070
     0
  0
VISUALSTYLE
  5
B4
102
{ACAD_REACTORS
330
23
102
}
102
{ACAD_XDICTIONARY
360
DE
102
}
330
23
100
AcDbVisualStyle
  2
GouraudWithEdges
 70
     3
 71
     2
 72
     2
 73
     1
 90
        2
 40
0.6
 41
30.0
 62
     5
 63
     7
 74
     1
 91
        0
 64
     7
 65
   257
 75
     1
175
     1
 42
1.0
 92
        0
 66
   257
 43
1.0
 76
     1
 77
     6
 78
     2
 67
     7
 79
     5
170
     0
171
     0
290
     0
174
     0
 93
       13
 44
0.0
173
     0
291
     1
 45
0.0
1001
ACAD
1000
AcDbSavedByObjectVersion
1070
     0
  0
VISUALSTYLE
  5
B6
102
{ACAD_REACTORS
330
23
102
}
102
{ACAD_XDICTIONARY
360
E2
102
}
330
23
100
AcDbVisualStyle
  2
Hidden
 70
     6
 71
     1
 72
     2
 73
     2
 90
        0
 40
0.6
 41
30.0
 62
     5
 63
     7
 74
     2
 91
        2
 64
     7
 65
   257
 75
     2
175
     1
 42
40.0
 92
        0
 66
   257
 43
1.0
 76
     1
 77
     6
 78
     2
 67
     7
 79
     3
170
     0
171
     0
290
     0
174
     0
 93
        1
 44
0.0
173
     0
291
     0
 45
0.0
1001
ACAD
1000
AcDbSavedByObjectVersion
1070
     0
  0
VISUALSTYLE
  5
C0
102
{ACAD_REACTORS
330
23
102
}
102
{ACAD_XDICTIONARY
360
F6
102
}
330
23
100
AcDbVisualStyle
  2
JitterOff
 70
    20
 71
     2
 72
     2
 73
     0
 90
        0
 40
0.6
 41
30.0
 62
     5
 63
     7
 74
     1
 91
        4
 64
     7
 65
   257
 75
     1
175
     1
 42
1.0
 92
       10
 66
     7
 43
1.0
 76
     1
 77
     6
 78
     2
 67
     7
 79
     5
170
     0
171
     0
290
     0
174
     0
 93
        1
 44
0.0
173
     0
291
     1
 45
0.0
1001
ACAD
1000
AcDbSavedByObjectVersion
1070
     0
  0
VISUALSTYLE
  5
BD
102
{ACAD_REACTORS
330
23
102
}
102
{ACAD_XDICTIONARY
360
F0
102
}
330
23
100
AcDbVisualStyle
  2
Linepattern
 70
    14
 71
     2
 72
     2
 73
     0
 90
        0
 40
0.6
 41
30.0
 62
     5
 63
     7
 74
     1
 91
        4
 64
     7
 65
   257
 75
     7
175
     7
 42
1.0
 92
        8
 66
     7
 43
1.0
 76
     1
 77
     6
 78
     2
 67
     7
 79
     5
170
     0
171
     0
290
     0
174
     0
 93
        1
 44
0.0
173
     0
291
     1
 45
0.0
1001
ACAD
1000
AcDbSavedByObjectVersion
1070
     0
  0
VISUALSTYLE
  5
C1
102
{ACAD_REACTORS
330
23
102
}
102
{ACAD_XDICTIONARY
360
F8
102
}
330
23
100
AcDbVisualStyle
  2
OverhangOff
 70
    21
 71
     2
 72
     2
 73
     0
 90
        0
 40
0.6
 41
30.0
 62
     5
 63
     7
 74
     1
 91
        4
 64
     7
 65
   257
 75
     1
175
     1
 42
1.0
 92
        9
 66
     7
 43
1.0
 76
     1
 77
     6
 78
     2
 67
     7
 79
     5
170
     0
171
     0
290
     0
174
     0
 93
        1
 44
0.0
173
     0
291
     1
 45
0.0
1001
ACAD
1000
AcDbSavedByObjectVersion
1070
     0
  0
VISUALSTYLE
  5
B8
102
{ACAD_REACTORS
330
23
102
}
102
{ACAD_XDICTIONARY
360
E6
102
}
330
23
100
AcDbVisualStyle
  2
Realistic
 70
     8
 71
     2
 72
     3
 73
     0
 90
        2
 40
0.6
 41
30.0
 62
     5
 63
     7
 74
     0
 91
        0
 64
     7
 65
   257
 75
     1
175
     1
 42
1.0
 92
        8
 66
   257
 43
1.0
 76
     1
 77
     6
 78
     2
 67
     7
 79
     3
170
     0
171
     0
290
     0
174
     0
 93
       13
 44
0.0
173
     0
291
     0
 45
0.0
1001
ACAD
1000
AcDbSavedByObjectVersion
1070
     0
  0
VISUALSTYLE
  5
C7
102
{ACAD_REACTORS
330
23
102
}
102
{ACAD_XDICTIONARY
360
104
102
}
330
23
100
AcDbVisualStyle
  2
Shaded
 70
    27
 71
     2
 72
     2
 73
     1
 90
        2
 40
0.6
 41
30.0
 62
     5
 63
     7
 74
     0
 91
        4
 64
     7
 65
   257
 75
     1
175
     1
 42
1.0
 92
        8
 66
   257
 43
1.0
 76
     1
 77
     6
 78
     2
 67
     8
 79
     3
170
     0
171
     0
290
     0
174
     0
 93
        5
 44
0.0
173
     0
291
     0
 45
0.0
1001
ACAD
1000
AcDbSavedByObjectVersion
1070
     0
  0
VISUALSTYLE
  5
C6
102
{ACAD_REACTORS
330
23
102
}
102
{ACAD_XDICTIONARY
360
102
102
}
330
23
100
AcDbVisualStyle
  2
Shaded with edges
 70
    26
 71
     2
 72
     2
 73
     1
 90
        2
 40
0.6
 41
30.0
 62
     5
 63
     7
 74
     1
 91
       10
 64
     7
 65
   257
 75
     2
175
     1
 42
1.0
 92
        8
 66
   257
 43
1.0
 76
     1
 77
     6
 78
     2
 67
     7
 79
     3
170
     0
171
     0
290
     0
174
     0
 93
        5
 44
0.0
173
     0
291
     0
 45
0.0
1001
ACAD
1000
AcDbSavedByObjectVersion
1070
     0
  0
VISUALSTYLE
  5
C3
102
{ACAD_REACTORS
330
23
102
}
102
{ACAD_XDICTIONARY
360
FC
102
}
330
23
100
AcDbVisualStyle
  2
Shades of Gray
 70
    23
 71
     2
 72
     2
 73
     3
 90
        0
 40
0.6
 41
30.0
 62
     5
 63
     7
 74
     2
 91
        2
 64
     7
 65
     7
 75
     1
175
     1
 42
40.0
 92
        8
 66
     7
 43
1.0
 76
     1
 77
     6
 78
     2
 67
     7
 79
     3
170
     0
171
     0
290
     0
174
     0
 93
        1
 44
0.0
173
     0
291
     0
 45
0.0
1001
ACAD
1000
AcDbSavedByObjectVersion
1070
     0
  0
VISUALSTYLE
  5
C4
102
{ACAD_REACTORS
330
23
102
}
102
{ACAD_XDICTIONARY
360
FE
102
}
330
23
100
AcDbVisualStyle
  2
Sketchy
 70
    24
 71
     1
 72
     2
 73
     2
 90
        0
 40
0.6
 41
30.0
 62
     5
 63
     7
 74
     2
 91
        2
 64
     7
 65
     7
 75
     1
175
     1
 42
40.0
 92
       11
 66
     7
 43
1.0
 76
     1
 77
     6
 78
     2
 67
     7
 79
     6
170
     0
171
     0
290
     0
174
     0
 93
        1
 44
0.0
173
     0
291
     0
 45
0.0
1001
ACAD
1000
AcDbSavedByObjectVersion
1070
     0
  0
VISUALSTYLE
  5
BC
102
{ACAD_REACTORS
330
23
102
}
102
{ACAD_XDICTIONARY
360
EE
102
}
330
23
100
AcDbVisualStyle
  2
Thicken
 70
    13
 71
     2
 72
     2
 73
     0
 90
        0
 40
0.6
 41
30.0
 62
     5
 63
     7
 74
     1
 91
        4
 64
     7
 65
   257
 75
     1
175
     1
 42
1.0
 92
       12
 66
     7
 43
1.0
 76
     1
 77
     6
 78
     2
 67
     7
 79
     5
170
     0
171
     0
290
     0
174
     0
 93
        1
 44
0.0
173
     0
291
     1
 45
0.0
1001
ACAD
1000
AcDbSavedByObjectVersion
1070
     0
  0
VISUALSTYLE
  5
B5
102
{ACAD_REACTORS
330
23
102
}
102
{ACAD_XDICTIONARY
360
E0
102
}
330
23
100
AcDbVisualStyle
  2
Wireframe
 70
     5
 71
     0
 72
     2
 73
     0
 90
        0
 40
0.6
 41
30.0
 62
     5
 63
     7
 74
     1
 91
        4
 64
     7
 65
   257
 75
     1
175
     1
 42
1.0
 92
        0
 66
   257
 43
1.0
 76
     1
 77
     6
 78
     2
 67
     7
 79
     3
170
     0
171
     0
290
     0
174
     0
 93
        1
 44
0.0
173
     0
291
     0
 45
0.0
1001
ACAD
1000
AcDbSavedByObjectVersion
1070
     0
  0
VISUALSTYLE
  5
C5
102
{ACAD_REACTORS
330
23
102
}
102
{ACAD_XDICTIONARY
360
100
102
}
330
23
100
AcDbVisualStyle
  2
X-Ray
 70
    25
 71
     2
 72
     2
 73
     1
 90
        1
 40
0.5
 41
30.0
 62
     5
 63
     7
 74
     1
 91
        0
 64
     7
 65
   257
 75
     1
175
     1
 42
1.0
 92
        8
 66
     7
 43
1.0
 76
     1
 77
     6
 78
     2
 67
     7
 79
     3
170
     0
171
     0
290
     0
174
     0
 93
       13
 44
0.0
173
     0
291
     0
 45
0.0
1001
ACAD
1000
AcDbSavedByObjectVersion
1070
     0
  0
DICTIONARYVAR
  5
AB
102
{ACAD_REACTORS
330
AA
102
}
330
AA
100
DictionaryVariables
280
     0
  1
1:1
  0
DICTIONARYVAR
  5
CA
102
{ACAD_REACTORS
330
AA
102
}
330
AA
100
DictionaryVariables
280
     0
  1
Standard
  0
DICTIONARYVAR
  5
C9
102
{ACAD_REACTORS
330
AA
102
}
330
AA
100
DictionaryVariables
280
     0
  1
Standard
  0
DICTIONARYVAR
  5
CB
102
{ACAD_REACTORS
330
AA
102
}
330
AA
100
DictionaryVariables
280
     0
  1
2
  0
DICTIONARYVAR
  5
CC
102
{ACAD_REACTORS
330
AA
102
}
330
AA
100
DictionaryVariables
280
     0
  1
1
  0
DICTIONARYVAR
  5
CF
102
{ACAD_REACTORS
330
AA
102
}
330
AA
100
DictionaryVariables
280
     0
  1
1
  0
DICTIONARY
  5
D4
330
4C
100
AcDbDictionary
280
     1
281
     1
  3
ACAD_XREC_ROUNDTRIP
360
D5
  0
DICTIONARY
  5
D0
330
E
100
AcDbDictionary
280
     1
281
     1
  3
ACAD_XREC_ROUNDTRIP
360
D1
  0
DICTIONARY
  5
D2
330
6
100
AcDbDictionary
280
     1
281
     1
  3
ACAD_XREC_ROUNDTRIP
360
D3
  0
DICTIONARY
  5
107
330
B0
100
AcDbDictionary
280
     1
281
     1
  3
ACAD_XREC_ROUNDTRIP
360
108
  0
DICTIONARY
  5
D6
330
26
100
AcDbDictionary
280
     1
281
     1
  3
ACAD_XREC_ROUNDTRIP
360
D7
  0
DICTIONARY
  5
E4
330
B7
100
AcDbDictionary
280
     1
281
     1
  3
ACAD_XREC_ROUNDTRIP
360
E5
  0
DICTIONARY
  5
EC
330
BB
100
AcDbDictionary
280
     1
281
     1
  3
ACAD_XREC_ROUNDTRIP
360
ED
  0
DICTIONARY
  5
F4
330
BF
100
AcDbDictionary
280
     1
281
     1
  3
ACAD_XREC_ROUNDTRIP
360
F5
  0
DICTIONARY
  5
E8
330
B9
100
AcDbDictionary
280
     1
281
     1
  3
ACAD_XREC_ROUNDTRIP
360
E9
  0
DICTIONARY
  5
EA
330
BA
100
AcDbDictionary
280
     1
281
     1
  3
ACAD_XREC_ROUNDTRIP
360
EB
  0
DICTIONARY
  5
FA
330
C2
100
AcDbDictionary
280
     1
281
     1
  3
ACAD_XREC_ROUNDTRIP
360
FB
  0
DICTIONARY
  5
F2
330
BE
100
AcDbDictionary
280
     1
281
     1
  3
ACAD_XREC_ROUNDTRIP
360
F3
  0
DICTIONARY
  5
D8
330
B1
100
AcDbDictionary
280
     1
281
     1
  3
ACAD_XREC_ROUNDTRIP
360
D9
  0
DICTIONARY
  5
DA
330
B2
100
AcDbDictionary
280
     1
281
     1
  3
ACAD_XREC_ROUNDTRIP
360
DB
  0
DICTIONARY
  5
DC
330
B3
100
AcDbDictionary
280
     1
281
     1
  3
ACAD_XREC_ROUNDTRIP
360
DD
  0
DICTIONARY
  5
DE
330
B4
100
AcDbDictionary
280
     1
281
     1
  3
ACAD_XREC_ROUNDTRIP
360
DF
  0
DICTIONARY
  5
E2
330
B6
100
AcDbDictionary
280
     1
281
     1
  3
ACAD_XREC_ROUNDTRIP
360
E3
  0
DICTIONARY
  5
F6
330
C0
100
AcDbDictionary
280
     1
281
     1
  3
ACAD_XREC_ROUNDTRIP
360
F7
  0
DICTIONARY
  5
F0
330
BD
100
AcDbDictionary
280
     1
281
     1
  3
ACAD_XREC_ROUNDTRIP
360
F1
  0
DICTIONARY
  5
F8
330
C1
100
AcDbDictionary
280
     1
281
     1
  3
ACAD_XREC_ROUNDTRIP
360
F9
  0
DICTIONARY
  5
E6
330
B8
100
AcDbDictionary
280
     1
281
     1
  3
ACAD_XREC_ROUNDTRIP
360
E7
  0
DICTIONARY
  5
104
330
C7
100
AcDbDictionary
280
     1
281
     1
  3
ACAD_XREC_ROUNDTRIP
360
105
  0
DICTIONARY
  5
102
330
C6
100
AcDbDictionary
280
     1
281
     1
  3
ACAD_XREC_ROUNDTRIP
360
103
  0
DICTIONARY
  5
FC
330
C3
100
AcDbDictionary
280
     1
281
     1
  3
ACAD_XREC_ROUNDTRIP
360
FD
  0
DICTIONARY
  5
FE
330
C4
100
AcDbDictionary
280
     1
281
     1
  3
ACAD_XREC_ROUNDTRIP
360
FF
  0
DICTIONARY
  5
EE
330
BC
100
AcDbDictionary
280
     1
281
     1
  3
ACAD_XREC_ROUNDTRIP
360
EF
  0
DICTIONARY
  5
E0
330
B5
100
AcDbDictionary
280
     1
281
     1
  3
ACAD_XREC_ROUNDTRIP
360
E1
  0
DICTIONARY
  5
100
330
C5
100
AcDbDictionary
280
     1
281
     1
  3
ACAD_XREC_ROUNDTRIP
360
101
  0
XRECORD
  5
D5
102
{ACAD_REACTORS
330
D4
102
}
330
D4
100
AcDbXrecord
280
     1
102
MATERIAL
148
0.0
149
0.0
149
0.0
 93
        0
 94
      127
282
     0
 72
     1
 77
     1
171
     1
175
     1
179
     1
273
     0
  0
XRECORD
  5
D1
102
{ACAD_REACTORS
330
D0
102
}
330
D0
100
AcDbXrecord
280
     1
102
MATERIAL
148
0.0
149
0.0
149
0.0
 93
        0
 94
      127
282
     0
 72
     1
 77
     1
171
     1
175
     1
179
     1
273
     0
  0
XRECORD
  5
D3
102
{ACAD_REACTORS
330
D2
102
}
330
D2
100
AcDbXrecord
280
     1
102
MATERIAL
148
0.0
149
0.0
149
0.0
 93
        0
 94
      127
282
     0
 72
     1
 77
     1
171
     1
175
     1
179
     1
273
     0
  0
XRECORD
  5
108
102
{ACAD_REACTORS
330
107
102
}
330
107
100
AcDbXrecord
280
     1
102
ACAD_ROUNDTRIP_2010_MLEADER_STYLE
  0
XRECORD
  5
D7
102
{ACAD_REACTORS
330
D6
102
}
330
D6
100
AcDbXrecord
280
     1
102
RTVSPropertyOp0
 70
     1
102
RTVSPropertyOp1
 70
     1
102
RTVSPropertyOp2
 70
     1
102
RTVSPropertyOp3
 70
     1
102
RTVSPropertyOp4
 70
     1
102
RTVSPropertyOp5
 70
     1
102
RTVSPropertyOp6
 70
     1
102
RTVSPropertyOp7
 70
     1
102
RTVSPropertyOp8
 70
     1
102
RTVSPropertyOp9
 70
     1
102
RTVSPropertyOp10
 70
     1
102
RTVSPropertyOp11
 70
     1
102
RTVSPropertyOp12
 70
     1
102
RTVSPropertyOp13
 70
     1
102
RTVSPropertyOp14
 70
     1
102
RTVSPropertyOp15
 70
     1
102
RTVSPropertyOp16
 70
     1
102
RTVSPropertyOp17
 70
     1
102
RTVSPropertyOp18
 70
     1
102
RTVSPropertyOp19
 70
     1
102
RTVSPropertyOp20
 70
     1
102
RTVSPropertyOp21
 70
     1
102
RTVSPropertyOp22
 70
     1
102
RTVSPropertyOp23
 70
     1
102
RTVSPropertyOp24
 70
     1
102
RTVSPropertyOp25
 70
     1
102
RTVSPropertyOp26
 70
     1
102
RTVSPropertyOp27
 70
     1
102
RTVSPropertyOp28
 70
     1
102
RTVSPropertyOp29
 70
     1
102
RTVSPropertyOp30
 70
     1
102
RTVSPropertyOp31
 70
     1
102
RTVSPropertyOp32
 70
     1
102
RTVSPropertyOp33
 70
     1
102
RTVSPropertyOp34
 70
     1
102
RTVSPropertyOp35
 70
     1
102
RTVSPropertyOp36
 70
     1
102
RTVSPropertyOp37
 70
     1
102
RTVSPropertyOp38
 70
     1
102
RTVSPropertyOp39
 70
     1
102
RTVSPropertyOp40
 70
     1
102
RTVSPropertyOp41
 70
     1
102
RTVSPropertyOp42
 70
     1
102
RTVSPropertyOp43
 70
     1
102
RTVSPropertyOp44
 70
     1
102
RTVSPropertyOp45
 70
     1
102
RTVSPropertyOp46
 70
     1
102
RTVSPropertyOp47
 70
     1
102
RTVSPropertyOp48
 70
     1
102
RTVSPropertyOp49
 70
     1
102
RTVSPropertyOp50
 70
     1
102
RTVSPropertyOp51
 70
     0
102
RTVSPropertyOp52
 70
     0
102
RTVSPropertyOp53
 70
     1
102
RTVSPropertyOp54
 70
     1
102
RTVSPropertyOp55
 70
     1
102
RTVSPropertyOp56
 70
     1
102
RTVSPropertyOp57
 70
     1
102
RTVSPost2010Prop28
280
     1
102
RTVSPost2010PropOp28
 70
     1
102
RTVSPost2010Prop29
280
     1
102
RTVSPost2010PropOp29
 70
     1
102
RTVSPost2010Prop30
280
     0
102
RTVSPost2010PropOp30
 70
     1
102
RTVSPost2010Prop31
280
     0
102
RTVSPost2010PropOp31
 70
     1
102
RTVSPost2010Prop32
280
     0
102
RTVSPost2010PropOp32
 70
     1
102
RTVSPost2010Prop33
280
     0
102
RTVSPost2010PropOp33
 70
     1
102
RTVSPost2010Prop34
280
     0
102
RTVSPost2010PropOp34
 70
     1
102
RTVSPost2010Prop35
280
     0
102
RTVSPost2010PropOp35
 70
     1
102
RTVSPost2010Prop36
280
     0
102
RTVSPost2010PropOp36
 70
     1
102
RTVSPost2010Prop37
 90
       50
102
RTVSPost2010PropOp37
 70
     1
102
RTVSPost2010Prop38
140
0.0
102
RTVSPost2010PropOp38
 70
     1
102
RTVSPost2010Prop39
140
1.0
102
RTVSPost2010PropOp39
 70
     1
102
RTVSPost2010Prop40
 90
        0
102
RTVSPost2010PropOp40
 70
     1
102
RTVSPost2010Prop41ColorIndex
 90
       18
102
RTVSPost2010Prop41ColorRGB
 90
        0
102
RTVSPost2010PropOp41
 70
     1
102
RTVSPost2010Prop42
 90
       50
102
RTVSPost2010PropOp42
 70
     1
102
RTVSPost2010Prop43
 90
        3
102
RTVSPost2010PropOp43
 70
     1
102
RTVSPost2010Prop44ColorIndex
 90
        5
102
RTVSPost2010Prop44ColorRGB
 90
      255
102
RTVSPost2010PropOp44
 70
     1
102
RTVSPost2010Prop45
280
     0
102
RTVSPost2010PropOp45
 70
     1
102
RTVSPost2010Prop46
 90
       50
102
RTVSPost2010PropOp46
 70
     1
102
RTVSPost2010Prop47
 90
       50
102
RTVSPost2010PropOp47
 70
     1
102
RTVSPost2010Prop48
 90
       50
102
RTVSPost2010PropOp48
 70
     1
102
RTVSPost2010Prop49
280
     0
102
RTVSPost2010PropOp49
 70
     1
102
RTVSPost2010Prop50
 90
       50
102
RTVSPost2010PropOp50
 70
     1
102
RTVSPost2010Prop51ColorIndex
 90
      256
102
RTVSPost2010Prop51ColorRGB
 90
-16777216
102
RTVSPost2010PropOp51
 70
     0
102
RTVSPost2010Prop52
140
1.0
102
RTVSPost2010PropOp52
 70
     0
102
RTVSPost2010Prop53
 90
        2
102
RTVSPost2010PropOp53
 70
     1
102
RTVSPost2010Prop54
  1
strokes_ogs.tif
102
RTVSPost2010PropOp54
 70
     1
102
RTVSPost2010Prop55
280
     0
102
RTVSPost2010PropOp55
 70
     1
102
RTVSPost2010Prop56
140
1.0
102
RTVSPost2010PropOp56
 70
     1
102
RTVSPost2010Prop57
140
1.0
102
RTVSPost2010PropOp57
 70
     1
  0
XRECORD
  5
E5
102
{ACAD_REACTORS
330
E4
102
}
330
E4
100
AcDbXrecord
280
     1
102
RTVSPropertyOp0
 70
     1
102
RTVSPropertyOp1
 70
     1
102
RTVSPropertyOp2
 70
     1
102
RTVSPropertyOp3
 70
     1
102
RTVSPropertyOp4
 70
     1
102
RTVSPropertyOp5
 70
     1
102
RTVSPropertyOp6
 70
     1
102
RTVSPropertyOp7
 70
     1
102
RTVSPropertyOp8
 70
     1
102
RTVSPropertyOp9
 70
     1
102
RTVSPropertyOp10
 70
     1
102
RTVSPropertyOp11
 70
     1
102
RTVSPropertyOp12
 70
     1
102
RTVSPropertyOp13
 70
     1
102
RTVSPropertyOp14
 70
     1
102
RTVSPropertyOp15
 70
     1
102
RTVSPropertyOp16
 70
     1
102
RTVSPropertyOp17
 70
     1
102
RTVSPropertyOp18
 70
     1
102
RTVSPropertyOp19
 70
     1
102
RTVSPropertyOp20
 70
     1
102
RTVSPropertyOp21
 70
     1
102
RTVSPropertyOp22
 70
     1
102
RTVSPropertyOp23
 70
     1
102
RTVSPropertyOp24
 70
     1
102
RTVSPropertyOp25
 70
     1
102
RTVSPropertyOp26
 70
     1
102
RTVSPropertyOp27
 70
     1
102
RTVSPropertyOp28
 70
     1
102
RTVSPropertyOp29
 70
     1
102
RTVSPropertyOp30
 70
     1
102
RTVSPropertyOp31
 70
     1
102
RTVSPropertyOp32
 70
     1
102
RTVSPropertyOp33
 70
     1
102
RTVSPropertyOp34
 70
     1
102
RTVSPropertyOp35
 70
     1
102
RTVSPropertyOp36
 70
     1
102
RTVSPropertyOp37
 70
     1
102
RTVSPropertyOp38
 70
     1
102
RTVSPropertyOp39
 70
     1
102
RTVSPropertyOp40
 70
     1
102
RTVSPropertyOp41
 70
     1
102
RTVSPropertyOp42
 70
     1
102
RTVSPropertyOp43
 70
     1
102
RTVSPropertyOp44
 70
     1
102
RTVSPropertyOp45
 70
     1
102
RTVSPropertyOp46
 70
     1
102
RTVSPropertyOp47
 70
     1
102
RTVSPropertyOp48
 70
     1
102
RTVSPropertyOp49
 70
     1
102
RTVSPropertyOp50
 70
     1
102
RTVSPropertyOp51
 70
     0
102
RTVSPropertyOp52
 70
     0
102
RTVSPropertyOp53
 70
     1
102
RTVSPropertyOp54
 70
     1
102
RTVSPropertyOp55
 70
     1
102
RTVSPropertyOp56
 70
     1
102
RTVSPropertyOp57
 70
     1
102
RTVSPost2010Prop28
280
     0
102
RTVSPost2010PropOp28
 70
     1
102
RTVSPost2010Prop29
280
     1
102
RTVSPost2010PropOp29
 70
     1
102
RTVSPost2010Prop30
280
     1
102
RTVSPost2010PropOp30
 70
     1
102
RTVSPost2010Prop31
280
     0
102
RTVSPost2010PropOp31
 70
     1
102
RTVSPost2010Prop32
280
     0
102
RTVSPost2010PropOp32
 70
     1
102
RTVSPost2010Prop33
280
     0
102
RTVSPost2010PropOp33
 70
     1
102
RTVSPost2010Prop34
280
     0
102
RTVSPost2010PropOp34
 70
     1
102
RTVSPost2010Prop35
280
     0
102
RTVSPost2010PropOp35
 70
     1
102
RTVSPost2010Prop36
280
     0
102
RTVSPost2010PropOp36
 70
     1
102
RTVSPost2010Prop37
 90
       50
102
RTVSPost2010PropOp37
 70
     1
102
RTVSPost2010Prop38
140
0.0
102
RTVSPost2010PropOp38
 70
     1
102
RTVSPost2010Prop39
140
1.0
102
RTVSPost2010PropOp39
 70
     1
102
RTVSPost2010Prop40
 90
        0
102
RTVSPost2010PropOp40
 70
     1
102
RTVSPost2010Prop41ColorIndex
 90
       18
102
RTVSPost2010Prop41ColorRGB
 90
        0
102
RTVSPost2010PropOp41
 70
     1
102
RTVSPost2010Prop42
 90
       50
102
RTVSPost2010PropOp42
 70
     1
102
RTVSPost2010Prop43
 90
        3
102
RTVSPost2010PropOp43
 70
     1
102
RTVSPost2010Prop44ColorIndex
 90
        5
102
RTVSPost2010Prop44ColorRGB
 90
      255
102
RTVSPost2010PropOp44
 70
     1
102
RTVSPost2010Prop45
280
     0
102
RTVSPost2010PropOp45
 70
     1
102
RTVSPost2010Prop46
 90
       50
102
RTVSPost2010PropOp46
 70
     1
102
RTVSPost2010Prop47
 90
       50
102
RTVSPost2010PropOp47
 70
     1
102
RTVSPost2010Prop48
 90
       50
102
RTVSPost2010PropOp48
 70
     1
102
RTVSPost2010Prop49
280
     0
102
RTVSPost2010PropOp49
 70
     1
102
RTVSPost2010Prop50
 90
       50
102
RTVSPost2010PropOp50
 70
     1
102
RTVSPost2010Prop51ColorIndex
 90
      256
102
RTVSPost2010Prop51ColorRGB
 90
-16777216
102
RTVSPost2010PropOp51
 70
     0
102
RTVSPost2010Prop52
140
1.0
102
RTVSPost2010PropOp52
 70
     0
102
RTVSPost2010Prop53
 90
        2
102
RTVSPost2010PropOp53
 70
     1
102
RTVSPost2010Prop54
  1
strokes_ogs.tif
102
RTVSPost2010PropOp54
 70
     1
102
RTVSPost2010Prop55
280
     0
102
RTVSPost2010PropOp55
 70
     1
102
RTVSPost2010Prop56
140
1.0
102
RTVSPost2010PropOp56
 70
     1
102
RTVSPost2010Prop57
140
1.0
102
RTVSPost2010PropOp57
 70
     1
  0
XRECORD
  5
ED
102
{ACAD_REACTORS
330
EC
102
}
330
EC
100
AcDbXrecord
280
     1
102
RTVSPropertyOp0
 70
     1
102
RTVSPropertyOp1
 70
     1
102
RTVSPropertyOp2
 70
     1
102
RTVSPropertyOp3
 70
     1
102
RTVSPropertyOp4
 70
     1
102
RTVSPropertyOp5
 70
     1
102
RTVSPropertyOp6
 70
     1
102
RTVSPropertyOp7
 70
     1
102
RTVSPropertyOp8
 70
     1
102
RTVSPropertyOp9
 70
     1
102
RTVSPropertyOp10
 70
     1
102
RTVSPropertyOp11
 70
     1
102
RTVSPropertyOp12
 70
     1
102
RTVSPropertyOp13
 70
     1
102
RTVSPropertyOp14
 70
     1
102
RTVSPropertyOp15
 70
     1
102
RTVSPropertyOp16
 70
     1
102
RTVSPropertyOp17
 70
     1
102
RTVSPropertyOp18
 70
     1
102
RTVSPropertyOp19
 70
     1
102
RTVSPropertyOp20
 70
     1
102
RTVSPropertyOp21
 70
     1
102
RTVSPropertyOp22
 70
     1
102
RTVSPropertyOp23
 70
     1
102
RTVSPropertyOp24
 70
     1
102
RTVSPropertyOp25
 70
     1
102
RTVSPropertyOp26
 70
     1
102
RTVSPropertyOp27
 70
     1
102
RTVSPropertyOp28
 70
     1
102
RTVSPropertyOp29
 70
     1
102
RTVSPropertyOp30
 70
     1
102
RTVSPropertyOp31
 70
     1
102
RTVSPropertyOp32
 70
     1
102
RTVSPropertyOp33
 70
     1
102
RTVSPropertyOp34
 70
     1
102
RTVSPropertyOp35
 70
     1
102
RTVSPropertyOp36
 70
     1
102
RTVSPropertyOp37
 70
     1
102
RTVSPropertyOp38
 70
     1
102
RTVSPropertyOp39
 70
     1
102
RTVSPropertyOp40
 70
     1
102
RTVSPropertyOp41
 70
     1
102
RTVSPropertyOp42
 70
     1
102
RTVSPropertyOp43
 70
     1
102
RTVSPropertyOp44
 70
     1
102
RTVSPropertyOp45
 70
     1
102
RTVSPropertyOp46
 70
     1
102
RTVSPropertyOp47
 70
     1
102
RTVSPropertyOp48
 70
     1
102
RTVSPropertyOp49
 70
     1
102
RTVSPropertyOp50
 70
     1
102
RTVSPropertyOp51
 70
     0
102
RTVSPropertyOp52
 70
     0
102
RTVSPropertyOp53
 70
     1
102
RTVSPropertyOp54
 70
     1
102
RTVSPropertyOp55
 70
     1
102
RTVSPropertyOp56
 70
     1
102
RTVSPropertyOp57
 70
     1
102
RTVSPost2010Prop28
280
     0
102
RTVSPost2010PropOp28
 70
     1
102
RTVSPost2010Prop29
280
     1
102
RTVSPost2010PropOp29
 70
     1
102
RTVSPost2010Prop30
280
     1
102
RTVSPost2010PropOp30
 70
     1
102
RTVSPost2010Prop31
280
     0
102
RTVSPost2010PropOp31
 70
     1
102
RTVSPost2010Prop32
280
     0
102
RTVSPost2010PropOp32
 70
     1
102
RTVSPost2010Prop33
280
     0
102
RTVSPost2010PropOp33
 70
     1
102
RTVSPost2010Prop34
280
     0
102
RTVSPost2010PropOp34
 70
     1
102
RTVSPost2010Prop35
280
     0
102
RTVSPost2010PropOp35
 70
     1
102
RTVSPost2010Prop36
280
     0
102
RTVSPost2010PropOp36
 70
     1
102
RTVSPost2010Prop37
 90
       50
102
RTVSPost2010PropOp37
 70
     1
102
RTVSPost2010Prop38
140
0.0
102
RTVSPost2010PropOp38
 70
     1
102
RTVSPost2010Prop39
140
1.0
102
RTVSPost2010PropOp39
 70
     1
102
RTVSPost2010Prop40
 90
        0
102
RTVSPost2010PropOp40
 70
     1
102
RTVSPost2010Prop41ColorIndex
 90
       18
102
RTVSPost2010Prop41ColorRGB
 90
        0
102
RTVSPost2010PropOp41
 70
     1
102
RTVSPost2010Prop42
 90
       50
102
RTVSPost2010PropOp42
 70
     1
102
RTVSPost2010Prop43
 90
        3
102
RTVSPost2010PropOp43
 70
     1
102
RTVSPost2010Prop44ColorIndex
 90
        5
102
RTVSPost2010Prop44ColorRGB
 90
      255
102
RTVSPost2010PropOp44
 70
     1
102
RTVSPost2010Prop45
280
     0
102
RTVSPost2010PropOp45
 70
     1
102
RTVSPost2010Prop46
 90
       50
102
RTVSPost2010PropOp46
 70
     1
102
RTVSPost2010Prop47
 90
       50
102
RTVSPost2010PropOp47
 70
     1
102
RTVSPost2010Prop48
 90
       50
102
RTVSPost2010PropOp48
 70
     1
102
RTVSPost2010Prop49
280
     0
102
RTVSPost2010PropOp49
 70
     1
102
RTVSPost2010Prop50
 90
       50
102
RTVSPost2010PropOp50
 70
     1
102
RTVSPost2010Prop51ColorIndex
 90
      256
102
RTVSPost2010Prop51ColorRGB
 90
-16777216
102
RTVSPost2010PropOp51
 70
     0
102
RTVSPost2010Prop52
140
1.0
102
RTVSPost2010PropOp52
 70
     0
102
RTVSPost2010Prop53
 90
        2
102
RTVSPost2010PropOp53
 70
     1
102
RTVSPost2010Prop54
  1
strokes_ogs.tif
102
RTVSPost2010PropOp54
 70
     1
102
RTVSPost2010Prop55
280
     0
102
RTVSPost2010PropOp55
 70
     1
102
RTVSPost2010Prop56
140
1.0
102
RTVSPost2010PropOp56
 70
     1
102
RTVSPost2010Prop57
140
1.0
102
RTVSPost2010PropOp57
 70
     1
  0
XRECORD
  5
F5
102
{ACAD_REACTORS
330
F4
102
}
330
F4
100
AcDbXrecord
280
     1
102
RTVSPropertyOp0
 70
     1
102
RTVSPropertyOp1
 70
     1
102
RTVSPropertyOp2
 70
     1
102
RTVSPropertyOp3
 70
     1
102
RTVSPropertyOp4
 70
     1
102
RTVSPropertyOp5
 70
     1
102
RTVSPropertyOp6
 70
     1
102
RTVSPropertyOp7
 70
     1
102
RTVSPropertyOp8
 70
     1
102
RTVSPropertyOp9
 70
     1
102
RTVSPropertyOp10
 70
     1
102
RTVSPropertyOp11
 70
     1
102
RTVSPropertyOp12
 70
     1
102
RTVSPropertyOp13
 70
     1
102
RTVSPropertyOp14
 70
     1
102
RTVSPropertyOp15
 70
     1
102
RTVSPropertyOp16
 70
     1
102
RTVSPropertyOp17
 70
     1
102
RTVSPropertyOp18
 70
     1
102
RTVSPropertyOp19
 70
     1
102
RTVSPropertyOp20
 70
     1
102
RTVSPropertyOp21
 70
     1
102
RTVSPropertyOp22
 70
     1
102
RTVSPropertyOp23
 70
     1
102
RTVSPropertyOp24
 70
     1
102
RTVSPropertyOp25
 70
     1
102
RTVSPropertyOp26
 70
     1
102
RTVSPropertyOp27
 70
     1
102
RTVSPropertyOp28
 70
     1
102
RTVSPropertyOp29
 70
     1
102
RTVSPropertyOp30
 70
     1
102
RTVSPropertyOp31
 70
     1
102
RTVSPropertyOp32
 70
     1
102
RTVSPropertyOp33
 70
     1
102
RTVSPropertyOp34
 70
     1
102
RTVSPropertyOp35
 70
     1
102
RTVSPropertyOp36
 70
     1
102
RTVSPropertyOp37
 70
     1
102
RTVSPropertyOp38
 70
     1
102
RTVSPropertyOp39
 70
     1
102
RTVSPropertyOp40
 70
     1
102
RTVSPropertyOp41
 70
     1
102
RTVSPropertyOp42
 70
     1
102
RTVSPropertyOp43
 70
     1
102
RTVSPropertyOp44
 70
     1
102
RTVSPropertyOp45
 70
     1
102
RTVSPropertyOp46
 70
     1
102
RTVSPropertyOp47
 70
     1
102
RTVSPropertyOp48
 70
     1
102
RTVSPropertyOp49
 70
     1
102
RTVSPropertyOp50
 70
     1
102
RTVSPropertyOp51
 70
     0
102
RTVSPropertyOp52
 70
     0
102
RTVSPropertyOp53
 70
     1
102
RTVSPropertyOp54
 70
     1
102
RTVSPropertyOp55
 70
     1
102
RTVSPropertyOp56
 70
     1
102
RTVSPropertyOp57
 70
     1
102
RTVSPost2010Prop28
280
     0
102
RTVSPost2010PropOp28
 70
     1
102
RTVSPost2010Prop29
280
     1
102
RTVSPost2010PropOp29
 70
     1
102
RTVSPost2010Prop30
280
     1
102
RTVSPost2010PropOp30
 70
     1
102
RTVSPost2010Prop31
280
     0
102
RTVSPost2010PropOp31
 70
     1
102
RTVSPost2010Prop32
280
     0
102
RTVSPost2010PropOp32
 70
     1
102
RTVSPost2010Prop33
280
     0
102
RTVSPost2010PropOp33
 70
     1
102
RTVSPost2010Prop34
280
     0
102
RTVSPost2010PropOp34
 70
     1
102
RTVSPost2010Prop35
280
     0
102
RTVSPost2010PropOp35
 70
     1
102
RTVSPost2010Prop36
280
     0
102
RTVSPost2010PropOp36
 70
     1
102
RTVSPost2010Prop37
 90
       50
102
RTVSPost2010PropOp37
 70
     1
102
RTVSPost2010Prop38
140
0.0
102
RTVSPost2010PropOp38
 70
     1
102
RTVSPost2010Prop39
140
1.0
102
RTVSPost2010PropOp39
 70
     1
102
RTVSPost2010Prop40
 90
        0
102
RTVSPost2010PropOp40
 70
     1
102
RTVSPost2010Prop41ColorIndex
 90
       18
102
RTVSPost2010Prop41ColorRGB
 90
        0
102
RTVSPost2010PropOp41
 70
     1
102
RTVSPost2010Prop42
 90
       50
102
RTVSPost2010PropOp42
 70
     1
102
RTVSPost2010Prop43
 90
        3
102
RTVSPost2010PropOp43
 70
     1
102
RTVSPost2010Prop44ColorIndex
 90
        5
102
RTVSPost2010Prop44ColorRGB
 90
      255
102
RTVSPost2010PropOp44
 70
     1
102
RTVSPost2010Prop45
280
     0
102
RTVSPost2010PropOp45
 70
     1
102
RTVSPost2010Prop46
 90
       50
102
RTVSPost2010PropOp46
 70
     1
102
RTVSPost2010Prop47
 90
       50
102
RTVSPost2010PropOp47
 70
     1
102
RTVSPost2010Prop48
 90
       50
102
RTVSPost2010PropOp48
 70
     1
102
RTVSPost2010Prop49
280
     0
102
RTVSPost2010PropOp49
 70
     1
102
RTVSPost2010Prop50
 90
       50
102
RTVSPost2010PropOp50
 70
     1
102
RTVSPost2010Prop51ColorIndex
 90
      256
102
RTVSPost2010Prop51ColorRGB
 90
-16777216
102
RTVSPost2010PropOp51
 70
     0
102
RTVSPost2010Prop52
140
1.0
102
RTVSPost2010PropOp52
 70
     0
102
RTVSPost2010Prop53
 90
        2
102
RTVSPost2010PropOp53
 70
     1
102
RTVSPost2010Prop54
  1
strokes_ogs.tif
102
RTVSPost2010PropOp54
 70
     1
102
RTVSPost2010Prop55
280
     0
102
RTVSPost2010PropOp55
 70
     1
102
RTVSPost2010Prop56
140
1.0
102
RTVSPost2010PropOp56
 70
     1
102
RTVSPost2010Prop57
140
1.0
102
RTVSPost2010PropOp57
 70
     1
  0
XRECORD
  5
E9
102
{ACAD_REACTORS
330
E8
102
}
330
E8
100
AcDbXrecord
280
     1
102
RTVSPropertyOp0
 70
     1
102
RTVSPropertyOp1
 70
     1
102
RTVSPropertyOp2
 70
     1
102
RTVSPropertyOp3
 70
     1
102
RTVSPropertyOp4
 70
     1
102
RTVSPropertyOp5
 70
     1
102
RTVSPropertyOp6
 70
     1
102
RTVSPropertyOp7
 70
     1
102
RTVSPropertyOp8
 70
     1
102
RTVSPropertyOp9
 70
     1
102
RTVSPropertyOp10
 70
     1
102
RTVSPropertyOp11
 70
     1
102
RTVSPropertyOp12
 70
     1
102
RTVSPropertyOp13
 70
     1
102
RTVSPropertyOp14
 70
     1
102
RTVSPropertyOp15
 70
     1
102
RTVSPropertyOp16
 70
     1
102
RTVSPropertyOp17
 70
     1
102
RTVSPropertyOp18
 70
     1
102
RTVSPropertyOp19
 70
     1
102
RTVSPropertyOp20
 70
     1
102
RTVSPropertyOp21
 70
     1
102
RTVSPropertyOp22
 70
     1
102
RTVSPropertyOp23
 70
     1
102
RTVSPropertyOp24
 70
     1
102
RTVSPropertyOp25
 70
     1
102
RTVSPropertyOp26
 70
     1
102
RTVSPropertyOp27
 70
     1
102
RTVSPropertyOp28
 70
     1
102
RTVSPropertyOp29
 70
     1
102
RTVSPropertyOp30
 70
     1
102
RTVSPropertyOp31
 70
     1
102
RTVSPropertyOp32
 70
     1
102
RTVSPropertyOp33
 70
     1
102
RTVSPropertyOp34
 70
     1
102
RTVSPropertyOp35
 70
     1
102
RTVSPropertyOp36
 70
     1
102
RTVSPropertyOp37
 70
     1
102
RTVSPropertyOp38
 70
     1
102
RTVSPropertyOp39
 70
     1
102
RTVSPropertyOp40
 70
     1
102
RTVSPropertyOp41
 70
     1
102
RTVSPropertyOp42
 70
     1
102
RTVSPropertyOp43
 70
     1
102
RTVSPropertyOp44
 70
     1
102
RTVSPropertyOp45
 70
     1
102
RTVSPropertyOp46
 70
     1
102
RTVSPropertyOp47
 70
     1
102
RTVSPropertyOp48
 70
     1
102
RTVSPropertyOp49
 70
     1
102
RTVSPropertyOp50
 70
     1
102
RTVSPropertyOp51
 70
     0
102
RTVSPropertyOp52
 70
     0
102
RTVSPropertyOp53
 70
     1
102
RTVSPropertyOp54
 70
     1
102
RTVSPropertyOp55
 70
     1
102
RTVSPropertyOp56
 70
     1
102
RTVSPropertyOp57
 70
     1
102
RTVSPost2010Prop28
280
     0
102
RTVSPost2010PropOp28
 70
     1
102
RTVSPost2010Prop29
280
     1
102
RTVSPost2010PropOp29
 70
     1
102
RTVSPost2010Prop30
280
     1
102
RTVSPost2010PropOp30
 70
     1
102
RTVSPost2010Prop31
280
     0
102
RTVSPost2010PropOp31
 70
     1
102
RTVSPost2010Prop32
280
     0
102
RTVSPost2010PropOp32
 70
     1
102
RTVSPost2010Prop33
280
     0
102
RTVSPost2010PropOp33
 70
     1
102
RTVSPost2010Prop34
280
     0
102
RTVSPost2010PropOp34
 70
     1
102
RTVSPost2010Prop35
280
     0
102
RTVSPost2010PropOp35
 70
     1
102
RTVSPost2010Prop36
280
     0
102
RTVSPost2010PropOp36
 70
     1
102
RTVSPost2010Prop37
 90
       50
102
RTVSPost2010PropOp37
 70
     1
102
RTVSPost2010Prop38
140
0.0
102
RTVSPost2010PropOp38
 70
     1
102
RTVSPost2010Prop39
140
1.0
102
RTVSPost2010PropOp39
 70
     1
102
RTVSPost2010Prop40
 90
        0
102
RTVSPost2010PropOp40
 70
     1
102
RTVSPost2010Prop41ColorIndex
 90
       18
102
RTVSPost2010Prop41ColorRGB
 90
        0
102
RTVSPost2010PropOp41
 70
     1
102
RTVSPost2010Prop42
 90
       50
102
RTVSPost2010PropOp42
 70
     1
102
RTVSPost2010Prop43
 90
        3
102
RTVSPost2010PropOp43
 70
     1
102
RTVSPost2010Prop44ColorIndex
 90
        5
102
RTVSPost2010Prop44ColorRGB
 90
      255
102
RTVSPost2010PropOp44
 70
     1
102
RTVSPost2010Prop45
280
     0
102
RTVSPost2010PropOp45
 70
     1
102
RTVSPost2010Prop46
 90
       50
102
RTVSPost2010PropOp46
 70
     1
102
RTVSPost2010Prop47
 90
       50
102
RTVSPost2010PropOp47
 70
     1
102
RTVSPost2010Prop48
 90
       50
102
RTVSPost2010PropOp48
 70
     1
102
RTVSPost2010Prop49
280
     0
102
RTVSPost2010PropOp49
 70
     1
102
RTVSPost2010Prop50
 90
       50
102
RTVSPost2010PropOp50
 70
     1
102
RTVSPost2010Prop51ColorIndex
 90
      256
102
RTVSPost2010Prop51ColorRGB
 90
-16777216
102
RTVSPost2010PropOp51
 70
     0
102
RTVSPost2010Prop52
140
1.0
102
RTVSPost2010PropOp52
 70
     0
102
RTVSPost2010Prop53
 90
        2
102
RTVSPost2010PropOp53
 70
     1
102
RTVSPost2010Prop54
  1
strokes_ogs.tif
102
RTVSPost2010PropOp54
 70
     1
102
RTVSPost2010Prop55
280
     0
102
RTVSPost2010PropOp55
 70
     1
102
RTVSPost2010Prop56
140
1.0
102
RTVSPost2010PropOp56
 70
     1
102
RTVSPost2010Prop57
140
1.0
102
RTVSPost2010PropOp57
 70
     1
  0
XRECORD
  5
EB
102
{ACAD_REACTORS
330
EA
102
}
330
EA
100
AcDbXrecord
280
     1
102
RTVSPropertyOp0
 70
     1
102
RTVSPropertyOp1
 70
     1
102
RTVSPropertyOp2
 70
     1
102
RTVSPropertyOp3
 70
     1
102
RTVSPropertyOp4
 70
     1
102
RTVSPropertyOp5
 70
     1
102
RTVSPropertyOp6
 70
     1
102
RTVSPropertyOp7
 70
     1
102
RTVSPropertyOp8
 70
     1
102
RTVSPropertyOp9
 70
     1
102
RTVSPropertyOp10
 70
     1
102
RTVSPropertyOp11
 70
     1
102
RTVSPropertyOp12
 70
     1
102
RTVSPropertyOp13
 70
     1
102
RTVSPropertyOp14
 70
     1
102
RTVSPropertyOp15
 70
     1
102
RTVSPropertyOp16
 70
     1
102
RTVSPropertyOp17
 70
     1
102
RTVSPropertyOp18
 70
     1
102
RTVSPropertyOp19
 70
     1
102
RTVSPropertyOp20
 70
     1
102
RTVSPropertyOp21
 70
     1
102
RTVSPropertyOp22
 70
     1
102
RTVSPropertyOp23
 70
     1
102
RTVSPropertyOp24
 70
     1
102
RTVSPropertyOp25
 70
     1
102
RTVSPropertyOp26
 70
     1
102
RTVSPropertyOp27
 70
     1
102
RTVSPropertyOp28
 70
     1
102
RTVSPropertyOp29
 70
     1
102
RTVSPropertyOp30
 70
     1
102
RTVSPropertyOp31
 70
     1
102
RTVSPropertyOp32
 70
     1
102
RTVSPropertyOp33
 70
     1
102
RTVSPropertyOp34
 70
     1
102
RTVSPropertyOp35
 70
     1
102
RTVSPropertyOp36
 70
     1
102
RTVSPropertyOp37
 70
     1
102
RTVSPropertyOp38
 70
     1
102
RTVSPropertyOp39
 70
     1
102
RTVSPropertyOp40
 70
     1
102
RTVSPropertyOp41
 70
     1
102
RTVSPropertyOp42
 70
     1
102
RTVSPropertyOp43
 70
     1
102
RTVSPropertyOp44
 70
     1
102
RTVSPropertyOp45
 70
     1
102
RTVSPropertyOp46
 70
     1
102
RTVSPropertyOp47
 70
     1
102
RTVSPropertyOp48
 70
     1
102
RTVSPropertyOp49
 70
     1
102
RTVSPropertyOp50
 70
     1
102
RTVSPropertyOp51
 70
     0
102
RTVSPropertyOp52
 70
     0
102
RTVSPropertyOp53
 70
     1
102
RTVSPropertyOp54
 70
     1
102
RTVSPropertyOp55
 70
     1
102
RTVSPropertyOp56
 70
     1
102
RTVSPropertyOp57
 70
     1
102
RTVSPost2010Prop28
280
     0
102
RTVSPost2010PropOp28
 70
     1
102
RTVSPost2010Prop29
280
     1
102
RTVSPost2010PropOp29
 70
     1
102
RTVSPost2010Prop30
280
     1
102
RTVSPost2010PropOp30
 70
     1
102
RTVSPost2010Prop31
280
     0
102
RTVSPost2010PropOp31
 70
     1
102
RTVSPost2010Prop32
280
     0
102
RTVSPost2010PropOp32
 70
     1
102
RTVSPost2010Prop33
280
     0
102
RTVSPost2010PropOp33
 70
     1
102
RTVSPost2010Prop34
280
     0
102
RTVSPost2010PropOp34
 70
     1
102
RTVSPost2010Prop35
280
     0
102
RTVSPost2010PropOp35
 70
     1
102
RTVSPost2010Prop36
280
     0
102
RTVSPost2010PropOp36
 70
     1
102
RTVSPost2010Prop37
 90
       50
102
RTVSPost2010PropOp37
 70
     1
102
RTVSPost2010Prop38
140
0.0
102
RTVSPost2010PropOp38
 70
     1
102
RTVSPost2010Prop39
140
1.0
102
RTVSPost2010PropOp39
 70
     1
102
RTVSPost2010Prop40
 90
        0
102
RTVSPost2010PropOp40
 70
     1
102
RTVSPost2010Prop41ColorIndex
 90
       18
102
RTVSPost2010Prop41ColorRGB
 90
        0
102
RTVSPost2010PropOp41
 70
     1
102
RTVSPost2010Prop42
 90
       50
102
RTVSPost2010PropOp42
 70
     1
102
RTVSPost2010Prop43
 90
        3
102
RTVSPost2010PropOp43
 70
     1
102
RTVSPost2010Prop44ColorIndex
 90
        5
102
RTVSPost2010Prop44ColorRGB
 90
      255
102
RTVSPost2010PropOp44
 70
     1
102
RTVSPost2010Prop45
280
     0
102
RTVSPost2010PropOp45
 70
     1
102
RTVSPost2010Prop46
 90
       50
102
RTVSPost2010PropOp46
 70
     1
102
RTVSPost2010Prop47
 90
       50
102
RTVSPost2010PropOp47
 70
     1
102
RTVSPost2010Prop48
 90
       50
102
RTVSPost2010PropOp48
 70
     1
102
RTVSPost2010Prop49
280
     0
102
RTVSPost2010PropOp49
 70
     1
102
RTVSPost2010Prop50
 90
       50
102
RTVSPost2010PropOp50
 70
     1
102
RTVSPost2010Prop51ColorIndex
 90
      256
102
RTVSPost2010Prop51ColorRGB
 90
-16777216
102
RTVSPost2010PropOp51
 70
     0
102
RTVSPost2010Prop52
140
1.0
102
RTVSPost2010PropOp52
 70
     0
102
RTVSPost2010Prop53
 90
        2
102
RTVSPost2010PropOp53
 70
     1
102
RTVSPost2010Prop54
  1
strokes_ogs.tif
102
RTVSPost2010PropOp54
 70
     1
102
RTVSPost2010Prop55
280
     0
102
RTVSPost2010PropOp55
 70
     1
102
RTVSPost2010Prop56
140
1.0
102
RTVSPost2010PropOp56
 70
     1
102
RTVSPost2010Prop57
140
1.0
102
RTVSPost2010PropOp57
 70
     1
  0
XRECORD
  5
FB
102
{ACAD_REACTORS
330
FA
102
}
330
FA
100
AcDbXrecord
280
     1
102
RTVSPropertyOp0
 70
     0
102
RTVSPropertyOp1
 70
     0
102
RTVSPropertyOp2
 70
     0
102
RTVSPropertyOp3
 70
     0
102
RTVSPropertyOp4
 70
     0
102
RTVSPropertyOp5
 70
     0
102
RTVSPropertyOp6
 70
     0
102
RTVSPropertyOp7
 70
     0
102
RTVSPropertyOp8
 70
     0
102
RTVSPropertyOp9
 70
     0
102
RTVSPropertyOp10
 70
     0
102
RTVSPropertyOp11
 70
     0
102
RTVSPropertyOp12
 70
     0
102
RTVSPropertyOp13
 70
     0
102
RTVSPropertyOp14
 70
     2
102
RTVSPropertyOp15
 70
     0
102
RTVSPropertyOp16
 70
     0
102
RTVSPropertyOp17
 70
     0
102
RTVSPropertyOp18
 70
     0
102
RTVSPropertyOp19
 70
     0
102
RTVSPropertyOp20
 70
     0
102
RTVSPropertyOp21
 70
     0
102
RTVSPropertyOp22
 70
     0
102
RTVSPropertyOp23
 70
     0
102
RTVSPropertyOp24
 70
     0
102
RTVSPropertyOp25
 70
     0
102
RTVSPropertyOp26
 70
     0
102
RTVSPropertyOp27
 70
     0
102
RTVSPropertyOp28
 70
     0
102
RTVSPropertyOp29
 70
     0
102
RTVSPropertyOp30
 70
     0
102
RTVSPropertyOp31
 70
     0
102
RTVSPropertyOp32
 70
     0
102
RTVSPropertyOp33
 70
     0
102
RTVSPropertyOp34
 70
     0
102
RTVSPropertyOp35
 70
     0
102
RTVSPropertyOp36
 70
     0
102
RTVSPropertyOp37
 70
     0
102
RTVSPropertyOp38
 70
     0
102
RTVSPropertyOp39
 70
     0
102
RTVSPropertyOp40
 70
     0
102
RTVSPropertyOp41
 70
     0
102
RTVSPropertyOp42
 70
     0
102
RTVSPropertyOp43
 70
     0
102
RTVSPropertyOp44
 70
     0
102
RTVSPropertyOp45
 70
     0
102
RTVSPropertyOp46
 70
     0
102
RTVSPropertyOp47
 70
     0
102
RTVSPropertyOp48
 70
     0
102
RTVSPropertyOp49
 70
     0
102
RTVSPropertyOp50
 70
     0
102
RTVSPropertyOp51
 70
     0
102
RTVSPropertyOp52
 70
     0
102
RTVSPropertyOp53
 70
     0
102
RTVSPropertyOp54
 70
     0
102
RTVSPropertyOp55
 70
     0
102
RTVSPropertyOp56
 70
     0
102
RTVSPropertyOp57
 70
     0
102
RTVSPost2010Prop28
280
     0
102
RTVSPost2010PropOp28
 70
     0
102
RTVSPost2010Prop29
280
     1
102
RTVSPost2010PropOp29
 70
     0
102
RTVSPost2010Prop30
280
     1
102
RTVSPost2010PropOp30
 70
     0
102
RTVSPost2010Prop31
280
     0
102
RTVSPost2010PropOp31
 70
     0
102
RTVSPost2010Prop32
280
     0
102
RTVSPost2010PropOp32
 70
     0
102
RTVSPost2010Prop33
280
     0
102
RTVSPost2010PropOp33
 70
     0
102
RTVSPost2010Prop34
280
     0
102
RTVSPost2010PropOp34
 70
     0
102
RTVSPost2010Prop35
280
     0
102
RTVSPost2010PropOp35
 70
     0
102
RTVSPost2010Prop36
280
     0
102
RTVSPost2010PropOp36
 70
     0
102
RTVSPost2010Prop37
 90
       50
102
RTVSPost2010PropOp37
 70
     0
102
RTVSPost2010Prop38
140
0.0
102
RTVSPost2010PropOp38
 70
     0
102
RTVSPost2010Prop39
140
1.0
102
RTVSPost2010PropOp39
 70
     0
102
RTVSPost2010Prop40
 90
        0
102
RTVSPost2010PropOp40
 70
     0
102
RTVSPost2010Prop41ColorIndex
 90
       18
102
RTVSPost2010Prop41ColorRGB
 90
        0
102
RTVSPost2010PropOp41
 70
     0
102
RTVSPost2010Prop42
 90
       50
102
RTVSPost2010PropOp42
 70
     0
102
RTVSPost2010Prop43
 90
        3
102
RTVSPost2010PropOp43
 70
     0
102
RTVSPost2010Prop44ColorIndex
 90
        5
102
RTVSPost2010Prop44ColorRGB
 90
      255
102
RTVSPost2010PropOp44
 70
     0
102
RTVSPost2010Prop45
280
     0
102
RTVSPost2010PropOp45
 70
     0
102
RTVSPost2010Prop46
 90
       50
102
RTVSPost2010PropOp46
 70
     0
102
RTVSPost2010Prop47
 90
       50
102
RTVSPost2010PropOp47
 70
     0
102
RTVSPost2010Prop48
 90
       50
102
RTVSPost2010PropOp48
 70
     0
102
RTVSPost2010Prop49
280
     0
102
RTVSPost2010PropOp49
 70
     0
102
RTVSPost2010Prop50
 90
       50
102
RTVSPost2010PropOp50
 70
     0
102
RTVSPost2010Prop51ColorIndex
 90
      256
102
RTVSPost2010Prop51ColorRGB
 90
-16777216
102
RTVSPost2010PropOp51
 70
     0
102
RTVSPost2010Prop52
140
1.0
102
RTVSPost2010PropOp52
 70
     0
102
RTVSPost2010Prop53
 90
        2
102
RTVSPost2010PropOp53
 70
     0
102
RTVSPost2010Prop54
  1
strokes_ogs.tif
102
RTVSPost2010PropOp54
 70
     0
102
RTVSPost2010Prop55
280
     0
102
RTVSPost2010PropOp55
 70
     0
102
RTVSPost2010Prop56
140
1.0
102
RTVSPost2010PropOp56
 70
     0
102
RTVSPost2010Prop57
140
1.0
102
RTVSPost2010PropOp57
 70
     0
  0
XRECORD
  5
F3
102
{ACAD_REACTORS
330
F2
102
}
330
F2
100
AcDbXrecord
280
     1
102
RTVSPropertyOp0
 70
     1
102
RTVSPropertyOp1
 70
     1
102
RTVSPropertyOp2
 70
     1
102
RTVSPropertyOp3
 70
     1
102
RTVSPropertyOp4
 70
     1
102
RTVSPropertyOp5
 70
     1
102
RTVSPropertyOp6
 70
     1
102
RTVSPropertyOp7
 70
     1
102
RTVSPropertyOp8
 70
     1
102
RTVSPropertyOp9
 70
     1
102
RTVSPropertyOp10
 70
     1
102
RTVSPropertyOp11
 70
     1
102
RTVSPropertyOp12
 70
     1
102
RTVSPropertyOp13
 70
     1
102
RTVSPropertyOp14
 70
     1
102
RTVSPropertyOp15
 70
     1
102
RTVSPropertyOp16
 70
     1
102
RTVSPropertyOp17
 70
     1
102
RTVSPropertyOp18
 70
     1
102
RTVSPropertyOp19
 70
     1
102
RTVSPropertyOp20
 70
     1
102
RTVSPropertyOp21
 70
     1
102
RTVSPropertyOp22
 70
     1
102
RTVSPropertyOp23
 70
     1
102
RTVSPropertyOp24
 70
     1
102
RTVSPropertyOp25
 70
     1
102
RTVSPropertyOp26
 70
     1
102
RTVSPropertyOp27
 70
     1
102
RTVSPropertyOp28
 70
     1
102
RTVSPropertyOp29
 70
     1
102
RTVSPropertyOp30
 70
     1
102
RTVSPropertyOp31
 70
     1
102
RTVSPropertyOp32
 70
     1
102
RTVSPropertyOp33
 70
     1
102
RTVSPropertyOp34
 70
     1
102
RTVSPropertyOp35
 70
     1
102
RTVSPropertyOp36
 70
     1
102
RTVSPropertyOp37
 70
     1
102
RTVSPropertyOp38
 70
     1
102
RTVSPropertyOp39
 70
     1
102
RTVSPropertyOp40
 70
     1
102
RTVSPropertyOp41
 70
     1
102
RTVSPropertyOp42
 70
     1
102
RTVSPropertyOp43
 70
     1
102
RTVSPropertyOp44
 70
     1
102
RTVSPropertyOp45
 70
     1
102
RTVSPropertyOp46
 70
     1
102
RTVSPropertyOp47
 70
     1
102
RTVSPropertyOp48
 70
     1
102
RTVSPropertyOp49
 70
     1
102
RTVSPropertyOp50
 70
     1
102
RTVSPropertyOp51
 70
     0
102
RTVSPropertyOp52
 70
     0
102
RTVSPropertyOp53
 70
     1
102
RTVSPropertyOp54
 70
     1
102
RTVSPropertyOp55
 70
     1
102
RTVSPropertyOp56
 70
     1
102
RTVSPropertyOp57
 70
     1
102
RTVSPost2010Prop28
280
     0
102
RTVSPost2010PropOp28
 70
     1
102
RTVSPost2010Prop29
280
     1
102
RTVSPost2010PropOp29
 70
     1
102
RTVSPost2010Prop30
280
     1
102
RTVSPost2010PropOp30
 70
     1
102
RTVSPost2010Prop31
280
     0
102
RTVSPost2010PropOp31
 70
     1
102
RTVSPost2010Prop32
280
     0
102
RTVSPost2010PropOp32
 70
     1
102
RTVSPost2010Prop33
280
     0
102
RTVSPost2010PropOp33
 70
     1
102
RTVSPost2010Prop34
280
     0
102
RTVSPost2010PropOp34
 70
     1
102
RTVSPost2010Prop35
280
     0
102
RTVSPost2010PropOp35
 70
     1
102
RTVSPost2010Prop36
280
     0
102
RTVSPost2010PropOp36
 70
     1
102
RTVSPost2010Prop37
 90
       50
102
RTVSPost2010PropOp37
 70
     1
102
RTVSPost2010Prop38
140
0.0
102
RTVSPost2010PropOp38
 70
     1
102
RTVSPost2010Prop39
140
1.0
102
RTVSPost2010PropOp39
 70
     1
102
RTVSPost2010Prop40
 90
        0
102
RTVSPost2010PropOp40
 70
     1
102
RTVSPost2010Prop41ColorIndex
 90
       18
102
RTVSPost2010Prop41ColorRGB
 90
        0
102
RTVSPost2010PropOp41
 70
     1
102
RTVSPost2010Prop42
 90
       50
102
RTVSPost2010PropOp42
 70
     1
102
RTVSPost2010Prop43
 90
        3
102
RTVSPost2010PropOp43
 70
     1
102
RTVSPost2010Prop44ColorIndex
 90
        5
102
RTVSPost2010Prop44ColorRGB
 90
      255
102
RTVSPost2010PropOp44
 70
     1
102
RTVSPost2010Prop45
280
     0
102
RTVSPost2010PropOp45
 70
     1
102
RTVSPost2010Prop46
 90
       50
102
RTVSPost2010PropOp46
 70
     1
102
RTVSPost2010Prop47
 90
       50
102
RTVSPost2010PropOp47
 70
     1
102
RTVSPost2010Prop48
 90
       50
102
RTVSPost2010PropOp48
 70
     1
102
RTVSPost2010Prop49
280
     0
102
RTVSPost2010PropOp49
 70
     1
102
RTVSPost2010Prop50
 90
       50
102
RTVSPost2010PropOp50
 70
     1
102
RTVSPost2010Prop51ColorIndex
 90
      256
102
RTVSPost2010Prop51ColorRGB
 90
-16777216
102
RTVSPost2010PropOp51
 70
     0
102
RTVSPost2010Prop52
140
1.0
102
RTVSPost2010PropOp52
 70
     0
102
RTVSPost2010Prop53
 90
        2
102
RTVSPost2010PropOp53
 70
     1
102
RTVSPost2010Prop54
  1
strokes_ogs.tif
102
RTVSPost2010PropOp54
 70
     1
102
RTVSPost2010Prop55
280
     0
102
RTVSPost2010PropOp55
 70
     1
102
RTVSPost2010Prop56
140
1.0
102
RTVSPost2010PropOp56
 70
     1
102
RTVSPost2010Prop57
140
1.0
102
RTVSPost2010PropOp57
 70
     1
  0
XRECORD
  5
D9
102
{ACAD_REACTORS
330
D8
102
}
330
D8
100
AcDbXrecord
280
     1
102
RTVSPropertyOp0
 70
     1
102
RTVSPropertyOp1
 70
     1
102
RTVSPropertyOp2
 70
     1
102
RTVSPropertyOp3
 70
     1
102
RTVSPropertyOp4
 70
     1
102
RTVSPropertyOp5
 70
     1
102
RTVSPropertyOp6
 70
     1
102
RTVSPropertyOp7
 70
     1
102
RTVSPropertyOp8
 70
     1
102
RTVSPropertyOp9
 70
     1
102
RTVSPropertyOp10
 70
     1
102
RTVSPropertyOp11
 70
     1
102
RTVSPropertyOp12
 70
     1
102
RTVSPropertyOp13
 70
     1
102
RTVSPropertyOp14
 70
     1
102
RTVSPropertyOp15
 70
     1
102
RTVSPropertyOp16
 70
     1
102
RTVSPropertyOp17
 70
     1
102
RTVSPropertyOp18
 70
     1
102
RTVSPropertyOp19
 70
     1
102
RTVSPropertyOp20
 70
     1
102
RTVSPropertyOp21
 70
     1
102
RTVSPropertyOp22
 70
     1
102
RTVSPropertyOp23
 70
     1
102
RTVSPropertyOp24
 70
     1
102
RTVSPropertyOp25
 70
     1
102
RTVSPropertyOp26
 70
     1
102
RTVSPropertyOp27
 70
     1
102
RTVSPropertyOp28
 70
     1
102
RTVSPropertyOp29
 70
     1
102
RTVSPropertyOp30
 70
     1
102
RTVSPropertyOp31
 70
     1
102
RTVSPropertyOp32
 70
     1
102
RTVSPropertyOp33
 70
     1
102
RTVSPropertyOp34
 70
     1
102
RTVSPropertyOp35
 70
     1
102
RTVSPropertyOp36
 70
     1
102
RTVSPropertyOp37
 70
     1
102
RTVSPropertyOp38
 70
     1
102
RTVSPropertyOp39
 70
     1
102
RTVSPropertyOp40
 70
     1
102
RTVSPropertyOp41
 70
     1
102
RTVSPropertyOp42
 70
     1
102
RTVSPropertyOp43
 70
     1
102
RTVSPropertyOp44
 70
     1
102
RTVSPropertyOp45
 70
     1
102
RTVSPropertyOp46
 70
     1
102
RTVSPropertyOp47
 70
     1
102
RTVSPropertyOp48
 70
     1
102
RTVSPropertyOp49
 70
     1
102
RTVSPropertyOp50
 70
     1
102
RTVSPropertyOp51
 70
     0
102
RTVSPropertyOp52
 70
     0
102
RTVSPropertyOp53
 70
     1
102
RTVSPropertyOp54
 70
     1
102
RTVSPropertyOp55
 70
     1
102
RTVSPropertyOp56
 70
     1
102
RTVSPropertyOp57
 70
     1
102
RTVSPost2010Prop28
280
     0
102
RTVSPost2010PropOp28
 70
     1
102
RTVSPost2010Prop29
280
     1
102
RTVSPost2010PropOp29
 70
     1
102
RTVSPost2010Prop30
280
     1
102
RTVSPost2010PropOp30
 70
     1
102
RTVSPost2010Prop31
280
     0
102
RTVSPost2010PropOp31
 70
     1
102
RTVSPost2010Prop32
280
     0
102
RTVSPost2010PropOp32
 70
     1
102
RTVSPost2010Prop33
280
     0
102
RTVSPost2010PropOp33
 70
     1
102
RTVSPost2010Prop34
280
     0
102
RTVSPost2010PropOp34
 70
     1
102
RTVSPost2010Prop35
280
     0
102
RTVSPost2010PropOp35
 70
     1
102
RTVSPost2010Prop36
280
     0
102
RTVSPost2010PropOp36
 70
     1
102
RTVSPost2010Prop37
 90
       50
102
RTVSPost2010PropOp37
 70
     1
102
RTVSPost2010Prop38
140
0.0
102
RTVSPost2010PropOp38
 70
     1
102
RTVSPost2010Prop39
140
1.0
102
RTVSPost2010PropOp39
 70
     1
102
RTVSPost2010Prop40
 90
        0
102
RTVSPost2010PropOp40
 70
     1
102
RTVSPost2010Prop41ColorIndex
 90
       18
102
RTVSPost2010Prop41ColorRGB
 90
        0
102
RTVSPost2010PropOp41
 70
     1
102
RTVSPost2010Prop42
 90
       50
102
RTVSPost2010PropOp42
 70
     1
102
RTVSPost2010Prop43
 90
        3
102
RTVSPost2010PropOp43
 70
     1
102
RTVSPost2010Prop44ColorIndex
 90
        5
102
RTVSPost2010Prop44ColorRGB
 90
      255
102
RTVSPost2010PropOp44
 70
     1
102
RTVSPost2010Prop45
280
     0
102
RTVSPost2010PropOp45
 70
     1
102
RTVSPost2010Prop46
 90
       50
102
RTVSPost2010PropOp46
 70
     1
102
RTVSPost2010Prop47
 90
       50
102
RTVSPost2010PropOp47
 70
     1
102
RTVSPost2010Prop48
 90
       50
102
RTVSPost2010PropOp48
 70
     1
102
RTVSPost2010Prop49
280
     0
102
RTVSPost2010PropOp49
 70
     1
102
RTVSPost2010Prop50
 90
       50
102
RTVSPost2010PropOp50
 70
     1
102
RTVSPost2010Prop51ColorIndex
 90
      256
102
RTVSPost2010Prop51ColorRGB
 90
-16777216
102
RTVSPost2010PropOp51
 70
     0
102
RTVSPost2010Prop52
140
1.0
102
RTVSPost2010PropOp52
 70
     0
102
RTVSPost2010Prop53
 90
        2
102
RTVSPost2010PropOp53
 70
     1
102
RTVSPost2010Prop54
  1
strokes_ogs.tif
102
RTVSPost2010PropOp54
 70
     1
102
RTVSPost2010Prop55
280
     0
102
RTVSPost2010PropOp55
 70
     1
102
RTVSPost2010Prop56
140
1.0
102
RTVSPost2010PropOp56
 70
     1
102
RTVSPost2010Prop57
140
1.0
102
RTVSPost2010PropOp57
 70
     1
  0
XRECORD
  5
DB
102
{ACAD_REACTORS
330
DA
102
}
330
DA
100
AcDbXrecord
280
     1
102
RTVSPropertyOp0
 70
     1
102
RTVSPropertyOp1
 70
     1
102
RTVSPropertyOp2
 70
     1
102
RTVSPropertyOp3
 70
     1
102
RTVSPropertyOp4
 70
     1
102
RTVSPropertyOp5
 70
     1
102
RTVSPropertyOp6
 70
     1
102
RTVSPropertyOp7
 70
     1
102
RTVSPropertyOp8
 70
     1
102
RTVSPropertyOp9
 70
     1
102
RTVSPropertyOp10
 70
     1
102
RTVSPropertyOp11
 70
     1
102
RTVSPropertyOp12
 70
     1
102
RTVSPropertyOp13
 70
     1
102
RTVSPropertyOp14
 70
     1
102
RTVSPropertyOp15
 70
     1
102
RTVSPropertyOp16
 70
     1
102
RTVSPropertyOp17
 70
     1
102
RTVSPropertyOp18
 70
     1
102
RTVSPropertyOp19
 70
     1
102
RTVSPropertyOp20
 70
     1
102
RTVSPropertyOp21
 70
     1
102
RTVSPropertyOp22
 70
     1
102
RTVSPropertyOp23
 70
     1
102
RTVSPropertyOp24
 70
     1
102
RTVSPropertyOp25
 70
     1
102
RTVSPropertyOp26
 70
     1
102
RTVSPropertyOp27
 70
     1
102
RTVSPropertyOp28
 70
     1
102
RTVSPropertyOp29
 70
     1
102
RTVSPropertyOp30
 70
     1
102
RTVSPropertyOp31
 70
     1
102
RTVSPropertyOp32
 70
     1
102
RTVSPropertyOp33
 70
     1
102
RTVSPropertyOp34
 70
     1
102
RTVSPropertyOp35
 70
     1
102
RTVSPropertyOp36
 70
     1
102
RTVSPropertyOp37
 70
     1
102
RTVSPropertyOp38
 70
     1
102
RTVSPropertyOp39
 70
     1
102
RTVSPropertyOp40
 70
     1
102
RTVSPropertyOp41
 70
     1
102
RTVSPropertyOp42
 70
     1
102
RTVSPropertyOp43
 70
     1
102
RTVSPropertyOp44
 70
     1
102
RTVSPropertyOp45
 70
     1
102
RTVSPropertyOp46
 70
     1
102
RTVSPropertyOp47
 70
     1
102
RTVSPropertyOp48
 70
     1
102
RTVSPropertyOp49
 70
     1
102
RTVSPropertyOp50
 70
     1
102
RTVSPropertyOp51
 70
     0
102
RTVSPropertyOp52
 70
     0
102
RTVSPropertyOp53
 70
     1
102
RTVSPropertyOp54
 70
     1
102
RTVSPropertyOp55
 70
     1
102
RTVSPropertyOp56
 70
     1
102
RTVSPropertyOp57
 70
     1
102
RTVSPost2010Prop28
280
     0
102
RTVSPost2010PropOp28
 70
     1
102
RTVSPost2010Prop29
280
     1
102
RTVSPost2010PropOp29
 70
     1
102
RTVSPost2010Prop30
280
     1
102
RTVSPost2010PropOp30
 70
     1
102
RTVSPost2010Prop31
280
     0
102
RTVSPost2010PropOp31
 70
     1
102
RTVSPost2010Prop32
280
     0
102
RTVSPost2010PropOp32
 70
     1
102
RTVSPost2010Prop33
280
     0
102
RTVSPost2010PropOp33
 70
     1
102
RTVSPost2010Prop34
280
     0
102
RTVSPost2010PropOp34
 70
     1
102
RTVSPost2010Prop35
280
     0
102
RTVSPost2010PropOp35
 70
     1
102
RTVSPost2010Prop36
280
     0
102
RTVSPost2010PropOp36
 70
     1
102
RTVSPost2010Prop37
 90
       50
102
RTVSPost2010PropOp37
 70
     1
102
RTVSPost2010Prop38
140
0.0
102
RTVSPost2010PropOp38
 70
     1
102
RTVSPost2010Prop39
140
1.0
102
RTVSPost2010PropOp39
 70
     1
102
RTVSPost2010Prop40
 90
        0
102
RTVSPost2010PropOp40
 70
     1
102
RTVSPost2010Prop41ColorIndex
 90
       18
102
RTVSPost2010Prop41ColorRGB
 90
        0
102
RTVSPost2010PropOp41
 70
     1
102
RTVSPost2010Prop42
 90
       50
102
RTVSPost2010PropOp42
 70
     1
102
RTVSPost2010Prop43
 90
        3
102
RTVSPost2010PropOp43
 70
     1
102
RTVSPost2010Prop44ColorIndex
 90
        5
102
RTVSPost2010Prop44ColorRGB
 90
      255
102
RTVSPost2010PropOp44
 70
     1
102
RTVSPost2010Prop45
280
     0
102
RTVSPost2010PropOp45
 70
     1
102
RTVSPost2010Prop46
 90
       50
102
RTVSPost2010PropOp46
 70
     1
102
RTVSPost2010Prop47
 90
       50
102
RTVSPost2010PropOp47
 70
     1
102
RTVSPost2010Prop48
 90
       50
102
RTVSPost2010PropOp48
 70
     1
102
RTVSPost2010Prop49
280
     0
102
RTVSPost2010PropOp49
 70
     1
102
RTVSPost2010Prop50
 90
       50
102
RTVSPost2010PropOp50
 70
     1
102
RTVSPost2010Prop51ColorIndex
 90
      256
102
RTVSPost2010Prop51ColorRGB
 90
-16777216
102
RTVSPost2010PropOp51
 70
     0
102
RTVSPost2010Prop52
140
1.0
102
RTVSPost2010PropOp52
 70
     0
102
RTVSPost2010Prop53
 90
        2
102
RTVSPost2010PropOp53
 70
     1
102
RTVSPost2010Prop54
  1
strokes_ogs.tif
102
RTVSPost2010PropOp54
 70
     1
102
RTVSPost2010Prop55
280
     0
102
RTVSPost2010PropOp55
 70
     1
102
RTVSPost2010Prop56
140
1.0
102
RTVSPost2010PropOp56
 70
     1
102
RTVSPost2010Prop57
140
1.0
102
RTVSPost2010PropOp57
 70
     1
  0
XRECORD
  5
DD
102
{ACAD_REACTORS
330
DC
102
}
330
DC
100
AcDbXrecord
280
     1
102
RTVSPropertyOp0
 70
     1
102
RTVSPropertyOp1
 70
     1
102
RTVSPropertyOp2
 70
     1
102
RTVSPropertyOp3
 70
     1
102
RTVSPropertyOp4
 70
     1
102
RTVSPropertyOp5
 70
     1
102
RTVSPropertyOp6
 70
     1
102
RTVSPropertyOp7
 70
     1
102
RTVSPropertyOp8
 70
     1
102
RTVSPropertyOp9
 70
     1
102
RTVSPropertyOp10
 70
     1
102
RTVSPropertyOp11
 70
     1
102
RTVSPropertyOp12
 70
     1
102
RTVSPropertyOp13
 70
     1
102
RTVSPropertyOp14
 70
     1
102
RTVSPropertyOp15
 70
     1
102
RTVSPropertyOp16
 70
     1
102
RTVSPropertyOp17
 70
     1
102
RTVSPropertyOp18
 70
     1
102
RTVSPropertyOp19
 70
     1
102
RTVSPropertyOp20
 70
     1
102
RTVSPropertyOp21
 70
     1
102
RTVSPropertyOp22
 70
     1
102
RTVSPropertyOp23
 70
     1
102
RTVSPropertyOp24
 70
     1
102
RTVSPropertyOp25
 70
     1
102
RTVSPropertyOp26
 70
     1
102
RTVSPropertyOp27
 70
     1
102
RTVSPropertyOp28
 70
     1
102
RTVSPropertyOp29
 70
     1
102
RTVSPropertyOp30
 70
     1
102
RTVSPropertyOp31
 70
     1
102
RTVSPropertyOp32
 70
     1
102
RTVSPropertyOp33
 70
     1
102
RTVSPropertyOp34
 70
     1
102
RTVSPropertyOp35
 70
     1
102
RTVSPropertyOp36
 70
     1
102
RTVSPropertyOp37
 70
     1
102
RTVSPropertyOp38
 70
     1
102
RTVSPropertyOp39
 70
     1
102
RTVSPropertyOp40
 70
     1
102
RTVSPropertyOp41
 70
     1
102
RTVSPropertyOp42
 70
     1
102
RTVSPropertyOp43
 70
     1
102
RTVSPropertyOp44
 70
     1
102
RTVSPropertyOp45
 70
     1
102
RTVSPropertyOp46
 70
     1
102
RTVSPropertyOp47
 70
     1
102
RTVSPropertyOp48
 70
     1
102
RTVSPropertyOp49
 70
     1
102
RTVSPropertyOp50
 70
     1
102
RTVSPropertyOp51
 70
     0
102
RTVSPropertyOp52
 70
     0
102
RTVSPropertyOp53
 70
     1
102
RTVSPropertyOp54
 70
     1
102
RTVSPropertyOp55
 70
     1
102
RTVSPropertyOp56
 70
     1
102
RTVSPropertyOp57
 70
     1
102
RTVSPost2010Prop28
280
     0
102
RTVSPost2010PropOp28
 70
     1
102
RTVSPost2010Prop29
280
     1
102
RTVSPost2010PropOp29
 70
     1
102
RTVSPost2010Prop30
280
     1
102
RTVSPost2010PropOp30
 70
     1
102
RTVSPost2010Prop31
280
     0
102
RTVSPost2010PropOp31
 70
     1
102
RTVSPost2010Prop32
280
     0
102
RTVSPost2010PropOp32
 70
     1
102
RTVSPost2010Prop33
280
     0
102
RTVSPost2010PropOp33
 70
     1
102
RTVSPost2010Prop34
280
     0
102
RTVSPost2010PropOp34
 70
     1
102
RTVSPost2010Prop35
280
     0
102
RTVSPost2010PropOp35
 70
     1
102
RTVSPost2010Prop36
280
     0
102
RTVSPost2010PropOp36
 70
     1
102
RTVSPost2010Prop37
 90
       50
102
RTVSPost2010PropOp37
 70
     1
102
RTVSPost2010Prop38
140
0.0
102
RTVSPost2010PropOp38
 70
     1
102
RTVSPost2010Prop39
140
1.0
102
RTVSPost2010PropOp39
 70
     1
102
RTVSPost2010Prop40
 90
        0
102
RTVSPost2010PropOp40
 70
     1
102
RTVSPost2010Prop41ColorIndex
 90
       18
102
RTVSPost2010Prop41ColorRGB
 90
        0
102
RTVSPost2010PropOp41
 70
     1
102
RTVSPost2010Prop42
 90
       50
102
RTVSPost2010PropOp42
 70
     1
102
RTVSPost2010Prop43
 90
        3
102
RTVSPost2010PropOp43
 70
     1
102
RTVSPost2010Prop44ColorIndex
 90
        5
102
RTVSPost2010Prop44ColorRGB
 90
      255
102
RTVSPost2010PropOp44
 70
     1
102
RTVSPost2010Prop45
280
     0
102
RTVSPost2010PropOp45
 70
     1
102
RTVSPost2010Prop46
 90
       50
102
RTVSPost2010PropOp46
 70
     1
102
RTVSPost2010Prop47
 90
       50
102
RTVSPost2010PropOp47
 70
     1
102
RTVSPost2010Prop48
 90
       50
102
RTVSPost2010PropOp48
 70
     1
102
RTVSPost2010Prop49
280
     0
102
RTVSPost2010PropOp49
 70
     1
102
RTVSPost2010Prop50
 90
       50
102
RTVSPost2010PropOp50
 70
     1
102
RTVSPost2010Prop51ColorIndex
 90
      256
102
RTVSPost2010Prop51ColorRGB
 90
-16777216
102
RTVSPost2010PropOp51
 70
     0
102
RTVSPost2010Prop52
140
1.0
102
RTVSPost2010PropOp52
 70
     0
102
RTVSPost2010Prop53
 90
        2
102
RTVSPost2010PropOp53
 70
     1
102
RTVSPost2010Prop54
  1
strokes_ogs.tif
102
RTVSPost2010PropOp54
 70
     1
102
RTVSPost2010Prop55
280
     0
102
RTVSPost2010PropOp55
 70
     1
102
RTVSPost2010Prop56
140
1.0
102
RTVSPost2010PropOp56
 70
     1
102
RTVSPost2010Prop57
140
1.0
102
RTVSPost2010PropOp57
 70
     1
  0
XRECORD
  5
DF
102
{ACAD_REACTORS
330
DE
102
}
330
DE
100
AcDbXrecord
280
     1
102
RTVSPropertyOp0
 70
     1
102
RTVSPropertyOp1
 70
     1
102
RTVSPropertyOp2
 70
     1
102
RTVSPropertyOp3
 70
     1
102
RTVSPropertyOp4
 70
     1
102
RTVSPropertyOp5
 70
     1
102
RTVSPropertyOp6
 70
     1
102
RTVSPropertyOp7
 70
     1
102
RTVSPropertyOp8
 70
     1
102
RTVSPropertyOp9
 70
     1
102
RTVSPropertyOp10
 70
     1
102
RTVSPropertyOp11
 70
     1
102
RTVSPropertyOp12
 70
     1
102
RTVSPropertyOp13
 70
     1
102
RTVSPropertyOp14
 70
     1
102
RTVSPropertyOp15
 70
     1
102
RTVSPropertyOp16
 70
     1
102
RTVSPropertyOp17
 70
     1
102
RTVSPropertyOp18
 70
     1
102
RTVSPropertyOp19
 70
     1
102
RTVSPropertyOp20
 70
     1
102
RTVSPropertyOp21
 70
     1
102
RTVSPropertyOp22
 70
     1
102
RTVSPropertyOp23
 70
     1
102
RTVSPropertyOp24
 70
     1
102
RTVSPropertyOp25
 70
     1
102
RTVSPropertyOp26
 70
     1
102
RTVSPropertyOp27
 70
     1
102
RTVSPropertyOp28
 70
     1
102
RTVSPropertyOp29
 70
     1
102
RTVSPropertyOp30
 70
     1
102
RTVSPropertyOp31
 70
     1
102
RTVSPropertyOp32
 70
     1
102
RTVSPropertyOp33
 70
     1
102
RTVSPropertyOp34
 70
     1
102
RTVSPropertyOp35
 70
     1
102
RTVSPropertyOp36
 70
     1
102
RTVSPropertyOp37
 70
     1
102
RTVSPropertyOp38
 70
     1
102
RTVSPropertyOp39
 70
     1
102
RTVSPropertyOp40
 70
     1
102
RTVSPropertyOp41
 70
     1
102
RTVSPropertyOp42
 70
     1
102
RTVSPropertyOp43
 70
     1
102
RTVSPropertyOp44
 70
     1
102
RTVSPropertyOp45
 70
     1
102
RTVSPropertyOp46
 70
     1
102
RTVSPropertyOp47
 70
     1
102
RTVSPropertyOp48
 70
     1
102
RTVSPropertyOp49
 70
     1
102
RTVSPropertyOp50
 70
     1
102
RTVSPropertyOp51
 70
     0
102
RTVSPropertyOp52
 70
     0
102
RTVSPropertyOp53
 70
     1
102
RTVSPropertyOp54
 70
     1
102
RTVSPropertyOp55
 70
     1
102
RTVSPropertyOp56
 70
     1
102
RTVSPropertyOp57
 70
     1
102
RTVSPost2010Prop28
280
     0
102
RTVSPost2010PropOp28
 70
     1
102
RTVSPost2010Prop29
280
     1
102
RTVSPost2010PropOp29
 70
     1
102
RTVSPost2010Prop30
280
     1
102
RTVSPost2010PropOp30
 70
     1
102
RTVSPost2010Prop31
280
     0
102
RTVSPost2010PropOp31
 70
     1
102
RTVSPost2010Prop32
280
     0
102
RTVSPost2010PropOp32
 70
     1
102
RTVSPost2010Prop33
280
     0
102
RTVSPost2010PropOp33
 70
     1
102
RTVSPost2010Prop34
280
     0
102
RTVSPost2010PropOp34
 70
     1
102
RTVSPost2010Prop35
280
     0
102
RTVSPost2010PropOp35
 70
     1
102
RTVSPost2010Prop36
280
     0
102
RTVSPost2010PropOp36
 70
     1
102
RTVSPost2010Prop37
 90
       50
102
RTVSPost2010PropOp37
 70
     1
102
RTVSPost2010Prop38
140
0.0
102
RTVSPost2010PropOp38
 70
     1
102
RTVSPost2010Prop39
140
1.0
102
RTVSPost2010PropOp39
 70
     1
102
RTVSPost2010Prop40
 90
        0
102
RTVSPost2010PropOp40
 70
     1
102
RTVSPost2010Prop41ColorIndex
 90
       18
102
RTVSPost2010Prop41ColorRGB
 90
        0
102
RTVSPost2010PropOp41
 70
     1
102
RTVSPost2010Prop42
 90
       50
102
RTVSPost2010PropOp42
 70
     1
102
RTVSPost2010Prop43
 90
        3
102
RTVSPost2010PropOp43
 70
     1
102
RTVSPost2010Prop44ColorIndex
 90
        5
102
RTVSPost2010Prop44ColorRGB
 90
      255
102
RTVSPost2010PropOp44
 70
     1
102
RTVSPost2010Prop45
280
     0
102
RTVSPost2010PropOp45
 70
     1
102
RTVSPost2010Prop46
 90
       50
102
RTVSPost2010PropOp46
 70
     1
102
RTVSPost2010Prop47
 90
       50
102
RTVSPost2010PropOp47
 70
     1
102
RTVSPost2010Prop48
 90
       50
102
RTVSPost2010PropOp48
 70
     1
102
RTVSPost2010Prop49
280
     0
102
RTVSPost2010PropOp49
 70
     1
102
RTVSPost2010Prop50
 90
       50
102
RTVSPost2010PropOp50
 70
     1
102
RTVSPost2010Prop51ColorIndex
 90
      256
102
RTVSPost2010Prop51ColorRGB
 90
-16777216
102
RTVSPost2010PropOp51
 70
     0
102
RTVSPost2010Prop52
140
1.0
102
RTVSPost2010PropOp52
 70
     0
102
RTVSPost2010Prop53
 90
        2
102
RTVSPost2010PropOp53
 70
     1
102
RTVSPost2010Prop54
  1
strokes_ogs.tif
102
RTVSPost2010PropOp54
 70
     1
102
RTVSPost2010Prop55
280
     0
102
RTVSPost2010PropOp55
 70
     1
102
RTVSPost2010Prop56
140
1.0
102
RTVSPost2010PropOp56
 70
     1
102
RTVSPost2010Prop57
140
1.0
102
RTVSPost2010PropOp57
 70
     1
  0
XRECORD
  5
E3
102
{ACAD_REACTORS
330
E2
102
}
330
E2
100
AcDbXrecord
280
     1
102
RTVSPropertyOp0
 70
     1
102
RTVSPropertyOp1
 70
     1
102
RTVSPropertyOp2
 70
     1
102
RTVSPropertyOp3
 70
     1
102
RTVSPropertyOp4
 70
     1
102
RTVSPropertyOp5
 70
     1
102
RTVSPropertyOp6
 70
     1
102
RTVSPropertyOp7
 70
     1
102
RTVSPropertyOp8
 70
     1
102
RTVSPropertyOp9
 70
     1
102
RTVSPropertyOp10
 70
     1
102
RTVSPropertyOp11
 70
     1
102
RTVSPropertyOp12
 70
     1
102
RTVSPropertyOp13
 70
     1
102
RTVSPropertyOp14
 70
     1
102
RTVSPropertyOp15
 70
     1
102
RTVSPropertyOp16
 70
     1
102
RTVSPropertyOp17
 70
     1
102
RTVSPropertyOp18
 70
     1
102
RTVSPropertyOp19
 70
     1
102
RTVSPropertyOp20
 70
     1
102
RTVSPropertyOp21
 70
     1
102
RTVSPropertyOp22
 70
     1
102
RTVSPropertyOp23
 70
     1
102
RTVSPropertyOp24
 70
     1
102
RTVSPropertyOp25
 70
     1
102
RTVSPropertyOp26
 70
     1
102
RTVSPropertyOp27
 70
     1
102
RTVSPropertyOp28
 70
     1
102
RTVSPropertyOp29
 70
     1
102
RTVSPropertyOp30
 70
     1
102
RTVSPropertyOp31
 70
     1
102
RTVSPropertyOp32
 70
     1
102
RTVSPropertyOp33
 70
     1
102
RTVSPropertyOp34
 70
     1
102
RTVSPropertyOp35
 70
     1
102
RTVSPropertyOp36
 70
     1
102
RTVSPropertyOp37
 70
     1
102
RTVSPropertyOp38
 70
     1
102
RTVSPropertyOp39
 70
     1
102
RTVSPropertyOp40
 70
     1
102
RTVSPropertyOp41
 70
     1
102
RTVSPropertyOp42
 70
     1
102
RTVSPropertyOp43
 70
     1
102
RTVSPropertyOp44
 70
     1
102
RTVSPropertyOp45
 70
     1
102
RTVSPropertyOp46
 70
     1
102
RTVSPropertyOp47
 70
     1
102
RTVSPropertyOp48
 70
     1
102
RTVSPropertyOp49
 70
     1
102
RTVSPropertyOp50
 70
     1
102
RTVSPropertyOp51
 70
     0
102
RTVSPropertyOp52
 70
     0
102
RTVSPropertyOp53
 70
     1
102
RTVSPropertyOp54
 70
     1
102
RTVSPropertyOp55
 70
     1
102
RTVSPropertyOp56
 70
     1
102
RTVSPropertyOp57
 70
     1
102
RTVSPost2010Prop28
280
     0
102
RTVSPost2010PropOp28
 70
     1
102
RTVSPost2010Prop29
280
     1
102
RTVSPost2010PropOp29
 70
     1
102
RTVSPost2010Prop30
280
     1
102
RTVSPost2010PropOp30
 70
     1
102
RTVSPost2010Prop31
280
     0
102
RTVSPost2010PropOp31
 70
     1
102
RTVSPost2010Prop32
280
     0
102
RTVSPost2010PropOp32
 70
     1
102
RTVSPost2010Prop33
280
     0
102
RTVSPost2010PropOp33
 70
     1
102
RTVSPost2010Prop34
280
     0
102
RTVSPost2010PropOp34
 70
     1
102
RTVSPost2010Prop35
280
     0
102
RTVSPost2010PropOp35
 70
     1
102
RTVSPost2010Prop36
280
     0
102
RTVSPost2010PropOp36
 70
     1
102
RTVSPost2010Prop37
 90
       50
102
RTVSPost2010PropOp37
 70
     1
102
RTVSPost2010Prop38
140
0.0
102
RTVSPost2010PropOp38
 70
     1
102
RTVSPost2010Prop39
140
1.0
102
RTVSPost2010PropOp39
 70
     1
102
RTVSPost2010Prop40
 90
        0
102
RTVSPost2010PropOp40
 70
     1
102
RTVSPost2010Prop41ColorIndex
 90
       18
102
RTVSPost2010Prop41ColorRGB
 90
        0
102
RTVSPost2010PropOp41
 70
     1
102
RTVSPost2010Prop42
 90
       50
102
RTVSPost2010PropOp42
 70
     1
102
RTVSPost2010Prop43
 90
        3
102
RTVSPost2010PropOp43
 70
     1
102
RTVSPost2010Prop44ColorIndex
 90
        5
102
RTVSPost2010Prop44ColorRGB
 90
      255
102
RTVSPost2010PropOp44
 70
     1
102
RTVSPost2010Prop45
280
     0
102
RTVSPost2010PropOp45
 70
     1
102
RTVSPost2010Prop46
 90
       50
102
RTVSPost2010PropOp46
 70
     1
102
RTVSPost2010Prop47
 90
       50
102
RTVSPost2010PropOp47
 70
     1
102
RTVSPost2010Prop48
 90
       50
102
RTVSPost2010PropOp48
 70
     1
102
RTVSPost2010Prop49
280
     0
102
RTVSPost2010PropOp49
 70
     1
102
RTVSPost2010Prop50
 90
       50
102
RTVSPost2010PropOp50
 70
     1
102
RTVSPost2010Prop51ColorIndex
 90
      256
102
RTVSPost2010Prop51ColorRGB
 90
-16777216
102
RTVSPost2010PropOp51
 70
     0
102
RTVSPost2010Prop52
140
1.0
102
RTVSPost2010PropOp52
 70
     0
102
RTVSPost2010Prop53
 90
        2
102
RTVSPost2010PropOp53
 70
     1
102
RTVSPost2010Prop54
  1
strokes_ogs.tif
102
RTVSPost2010PropOp54
 70
     1
102
RTVSPost2010Prop55
280
     0
102
RTVSPost2010PropOp55
 70
     1
102
RTVSPost2010Prop56
140
1.0
102
RTVSPost2010PropOp56
 70
     1
102
RTVSPost2010Prop57
140
1.0
102
RTVSPost2010PropOp57
 70
     1
  0
XRECORD
  5
F7
102
{ACAD_REACTORS
330
F6
102
}
330
F6
100
AcDbXrecord
280
     1
102
RTVSPropertyOp0
 70
     0
102
RTVSPropertyOp1
 70
     0
102
RTVSPropertyOp2
 70
     0
102
RTVSPropertyOp3
 70
     0
102
RTVSPropertyOp4
 70
     0
102
RTVSPropertyOp5
 70
     0
102
RTVSPropertyOp6
 70
     0
102
RTVSPropertyOp7
 70
     0
102
RTVSPropertyOp8
 70
     0
102
RTVSPropertyOp9
 70
     0
102
RTVSPropertyOp10
 70
     0
102
RTVSPropertyOp11
 70
     0
102
RTVSPropertyOp12
 70
     0
102
RTVSPropertyOp13
 70
     0
102
RTVSPropertyOp14
 70
     2
102
RTVSPropertyOp15
 70
     0
102
RTVSPropertyOp16
 70
     0
102
RTVSPropertyOp17
 70
     0
102
RTVSPropertyOp18
 70
     0
102
RTVSPropertyOp19
 70
     0
102
RTVSPropertyOp20
 70
     0
102
RTVSPropertyOp21
 70
     0
102
RTVSPropertyOp22
 70
     0
102
RTVSPropertyOp23
 70
     0
102
RTVSPropertyOp24
 70
     0
102
RTVSPropertyOp25
 70
     0
102
RTVSPropertyOp26
 70
     0
102
RTVSPropertyOp27
 70
     0
102
RTVSPropertyOp28
 70
     0
102
RTVSPropertyOp29
 70
     0
102
RTVSPropertyOp30
 70
     0
102
RTVSPropertyOp31
 70
     0
102
RTVSPropertyOp32
 70
     0
102
RTVSPropertyOp33
 70
     0
102
RTVSPropertyOp34
 70
     0
102
RTVSPropertyOp35
 70
     0
102
RTVSPropertyOp36
 70
     0
102
RTVSPropertyOp37
 70
     0
102
RTVSPropertyOp38
 70
     0
102
RTVSPropertyOp39
 70
     0
102
RTVSPropertyOp40
 70
     0
102
RTVSPropertyOp41
 70
     0
102
RTVSPropertyOp42
 70
     0
102
RTVSPropertyOp43
 70
     0
102
RTVSPropertyOp44
 70
     0
102
RTVSPropertyOp45
 70
     0
102
RTVSPropertyOp46
 70
     0
102
RTVSPropertyOp47
 70
     0
102
RTVSPropertyOp48
 70
     0
102
RTVSPropertyOp49
 70
     0
102
RTVSPropertyOp50
 70
     0
102
RTVSPropertyOp51
 70
     0
102
RTVSPropertyOp52
 70
     0
102
RTVSPropertyOp53
 70
     0
102
RTVSPropertyOp54
 70
     0
102
RTVSPropertyOp55
 70
     0
102
RTVSPropertyOp56
 70
     0
102
RTVSPropertyOp57
 70
     0
102
RTVSPost2010Prop28
280
     0
102
RTVSPost2010PropOp28
 70
     0
102
RTVSPost2010Prop29
280
     1
102
RTVSPost2010PropOp29
 70
     0
102
RTVSPost2010Prop30
280
     1
102
RTVSPost2010PropOp30
 70
     0
102
RTVSPost2010Prop31
280
     0
102
RTVSPost2010PropOp31
 70
     0
102
RTVSPost2010Prop32
280
     0
102
RTVSPost2010PropOp32
 70
     0
102
RTVSPost2010Prop33
280
     0
102
RTVSPost2010PropOp33
 70
     0
102
RTVSPost2010Prop34
280
     0
102
RTVSPost2010PropOp34
 70
     0
102
RTVSPost2010Prop35
280
     0
102
RTVSPost2010PropOp35
 70
     0
102
RTVSPost2010Prop36
280
     0
102
RTVSPost2010PropOp36
 70
     0
102
RTVSPost2010Prop37
 90
       50
102
RTVSPost2010PropOp37
 70
     0
102
RTVSPost2010Prop38
140
0.0
102
RTVSPost2010PropOp38
 70
     0
102
RTVSPost2010Prop39
140
1.0
102
RTVSPost2010PropOp39
 70
     0
102
RTVSPost2010Prop40
 90
        0
102
RTVSPost2010PropOp40
 70
     0
102
RTVSPost2010Prop41ColorIndex
 90
       18
102
RTVSPost2010Prop41ColorRGB
 90
        0
102
RTVSPost2010PropOp41
 70
     0
102
RTVSPost2010Prop42
 90
       50
102
RTVSPost2010PropOp42
 70
     0
102
RTVSPost2010Prop43
 90
        3
102
RTVSPost2010PropOp43
 70
     0
102
RTVSPost2010Prop44ColorIndex
 90
        5
102
RTVSPost2010Prop44ColorRGB
 90
      255
102
RTVSPost2010PropOp44
 70
     0
102
RTVSPost2010Prop45
280
     0
102
RTVSPost2010PropOp45
 70
     0
102
RTVSPost2010Prop46
 90
       50
102
RTVSPost2010PropOp46
 70
     0
102
RTVSPost2010Prop47
 90
       50
102
RTVSPost2010PropOp47
 70
     0
102
RTVSPost2010Prop48
 90
       50
102
RTVSPost2010PropOp48
 70
     0
102
RTVSPost2010Prop49
280
     0
102
RTVSPost2010PropOp49
 70
     0
102
RTVSPost2010Prop50
 90
       50
102
RTVSPost2010PropOp50
 70
     0
102
RTVSPost2010Prop51ColorIndex
 90
      256
102
RTVSPost2010Prop51ColorRGB
 90
-16777216
102
RTVSPost2010PropOp51
 70
     0
102
RTVSPost2010Prop52
140
1.0
102
RTVSPost2010PropOp52
 70
     0
102
RTVSPost2010Prop53
 90
        2
102
RTVSPost2010PropOp53
 70
     0
102
RTVSPost2010Prop54
  1
strokes_ogs.tif
102
RTVSPost2010PropOp54
 70
     0
102
RTVSPost2010Prop55
280
     0
102
RTVSPost2010PropOp55
 70
     0
102
RTVSPost2010Prop56
140
1.0
102
RTVSPost2010PropOp56
 70
     0
102
RTVSPost2010Prop57
140
1.0
102
RTVSPost2010PropOp57
 70
     0
  0
XRECORD
  5
F1
102
{ACAD_REACTORS
330
F0
102
}
330
F0
100
AcDbXrecord
280
     1
102
RTVSPropertyOp0
 70
     1
102
RTVSPropertyOp1
 70
     1
102
RTVSPropertyOp2
 70
     1
102
RTVSPropertyOp3
 70
     1
102
RTVSPropertyOp4
 70
     1
102
RTVSPropertyOp5
 70
     1
102
RTVSPropertyOp6
 70
     1
102
RTVSPropertyOp7
 70
     1
102
RTVSPropertyOp8
 70
     1
102
RTVSPropertyOp9
 70
     1
102
RTVSPropertyOp10
 70
     1
102
RTVSPropertyOp11
 70
     1
102
RTVSPropertyOp12
 70
     1
102
RTVSPropertyOp13
 70
     1
102
RTVSPropertyOp14
 70
     1
102
RTVSPropertyOp15
 70
     1
102
RTVSPropertyOp16
 70
     1
102
RTVSPropertyOp17
 70
     1
102
RTVSPropertyOp18
 70
     1
102
RTVSPropertyOp19
 70
     1
102
RTVSPropertyOp20
 70
     1
102
RTVSPropertyOp21
 70
     1
102
RTVSPropertyOp22
 70
     1
102
RTVSPropertyOp23
 70
     1
102
RTVSPropertyOp24
 70
     1
102
RTVSPropertyOp25
 70
     1
102
RTVSPropertyOp26
 70
     1
102
RTVSPropertyOp27
 70
     1
102
RTVSPropertyOp28
 70
     1
102
RTVSPropertyOp29
 70
     1
102
RTVSPropertyOp30
 70
     1
102
RTVSPropertyOp31
 70
     1
102
RTVSPropertyOp32
 70
     1
102
RTVSPropertyOp33
 70
     1
102
RTVSPropertyOp34
 70
     1
102
RTVSPropertyOp35
 70
     1
102
RTVSPropertyOp36
 70
     1
102
RTVSPropertyOp37
 70
     1
102
RTVSPropertyOp38
 70
     1
102
RTVSPropertyOp39
 70
     1
102
RTVSPropertyOp40
 70
     1
102
RTVSPropertyOp41
 70
     1
102
RTVSPropertyOp42
 70
     1
102
RTVSPropertyOp43
 70
     1
102
RTVSPropertyOp44
 70
     1
102
RTVSPropertyOp45
 70
     1
102
RTVSPropertyOp46
 70
     1
102
RTVSPropertyOp47
 70
     1
102
RTVSPropertyOp48
 70
     1
102
RTVSPropertyOp49
 70
     1
102
RTVSPropertyOp50
 70
     1
102
RTVSPropertyOp51
 70
     0
102
RTVSPropertyOp52
 70
     0
102
RTVSPropertyOp53
 70
     1
102
RTVSPropertyOp54
 70
     1
102
RTVSPropertyOp55
 70
     1
102
RTVSPropertyOp56
 70
     1
102
RTVSPropertyOp57
 70
     1
102
RTVSPost2010Prop28
280
     0
102
RTVSPost2010PropOp28
 70
     1
102
RTVSPost2010Prop29
280
     1
102
RTVSPost2010PropOp29
 70
     1
102
RTVSPost2010Prop30
280
     1
102
RTVSPost2010PropOp30
 70
     1
102
RTVSPost2010Prop31
280
     0
102
RTVSPost2010PropOp31
 70
     1
102
RTVSPost2010Prop32
280
     0
102
RTVSPost2010PropOp32
 70
     1
102
RTVSPost2010Prop33
280
     0
102
RTVSPost2010PropOp33
 70
     1
102
RTVSPost2010Prop34
280
     0
102
RTVSPost2010PropOp34
 70
     1
102
RTVSPost2010Prop35
280
     0
102
RTVSPost2010PropOp35
 70
     1
102
RTVSPost2010Prop36
280
     0
102
RTVSPost2010PropOp36
 70
     1
102
RTVSPost2010Prop37
 90
       50
102
RTVSPost2010PropOp37
 70
     1
102
RTVSPost2010Prop38
140
0.0
102
RTVSPost2010PropOp38
 70
     1
102
RTVSPost2010Prop39
140
1.0
102
RTVSPost2010PropOp39
 70
     1
102
RTVSPost2010Prop40
 90
        0
102
RTVSPost2010PropOp40
 70
     1
102
RTVSPost2010Prop41ColorIndex
 90
       18
102
RTVSPost2010Prop41ColorRGB
 90
        0
102
RTVSPost2010PropOp41
 70
     1
102
RTVSPost2010Prop42
 90
       50
102
RTVSPost2010PropOp42
 70
     1
102
RTVSPost2010Prop43
 90
        3
102
RTVSPost2010PropOp43
 70
     1
102
RTVSPost2010Prop44ColorIndex
 90
        5
102
RTVSPost2010Prop44ColorRGB
 90
      255
102
RTVSPost2010PropOp44
 70
     1
102
RTVSPost2010Prop45
280
     0
102
RTVSPost2010PropOp45
 70
     1
102
RTVSPost2010Prop46
 90
       50
102
RTVSPost2010PropOp46
 70
     1
102
RTVSPost2010Prop47
 90
       50
102
RTVSPost2010PropOp47
 70
     1
102
RTVSPost2010Prop48
 90
       50
102
RTVSPost2010PropOp48
 70
     1
102
RTVSPost2010Prop49
280
     0
102
RTVSPost2010PropOp49
 70
     1
102
RTVSPost2010Prop50
 90
       50
102
RTVSPost2010PropOp50
 70
     1
102
RTVSPost2010Prop51ColorIndex
 90
      256
102
RTVSPost2010Prop51ColorRGB
 90
-16777216
102
RTVSPost2010PropOp51
 70
     0
102
RTVSPost2010Prop52
140
1.0
102
RTVSPost2010PropOp52
 70
     0
102
RTVSPost2010Prop53
 90
        2
102
RTVSPost2010PropOp53
 70
     1
102
RTVSPost2010Prop54
  1
strokes_ogs.tif
102
RTVSPost2010PropOp54
 70
     1
102
RTVSPost2010Prop55
280
     0
102
RTVSPost2010PropOp55
 70
     1
102
RTVSPost2010Prop56
140
1.0
102
RTVSPost2010PropOp56
 70
     1
102
RTVSPost2010Prop57
140
1.0
102
RTVSPost2010PropOp57
 70
     1
  0
XRECORD
  5
F9
102
{ACAD_REACTORS
330
F8
102
}
330
F8
100
AcDbXrecord
280
     1
102
RTVSPropertyOp0
 70
     0
102
RTVSPropertyOp1
 70
     0
102
RTVSPropertyOp2
 70
     0
102
RTVSPropertyOp3
 70
     0
102
RTVSPropertyOp4
 70
     0
102
RTVSPropertyOp5
 70
     0
102
RTVSPropertyOp6
 70
     0
102
RTVSPropertyOp7
 70
     0
102
RTVSPropertyOp8
 70
     0
102
RTVSPropertyOp9
 70
     0
102
RTVSPropertyOp10
 70
     0
102
RTVSPropertyOp11
 70
     0
102
RTVSPropertyOp12
 70
     0
102
RTVSPropertyOp13
 70
     0
102
RTVSPropertyOp14
 70
     2
102
RTVSPropertyOp15
 70
     0
102
RTVSPropertyOp16
 70
     0
102
RTVSPropertyOp17
 70
     0
102
RTVSPropertyOp18
 70
     0
102
RTVSPropertyOp19
 70
     0
102
RTVSPropertyOp20
 70
     0
102
RTVSPropertyOp21
 70
     0
102
RTVSPropertyOp22
 70
     0
102
RTVSPropertyOp23
 70
     0
102
RTVSPropertyOp24
 70
     0
102
RTVSPropertyOp25
 70
     0
102
RTVSPropertyOp26
 70
     0
102
RTVSPropertyOp27
 70
     0
102
RTVSPropertyOp28
 70
     0
102
RTVSPropertyOp29
 70
     0
102
RTVSPropertyOp30
 70
     0
102
RTVSPropertyOp31
 70
     0
102
RTVSPropertyOp32
 70
     0
102
RTVSPropertyOp33
 70
     0
102
RTVSPropertyOp34
 70
     0
102
RTVSPropertyOp35
 70
     0
102
RTVSPropertyOp36
 70
     0
102
RTVSPropertyOp37
 70
     0
102
RTVSPropertyOp38
 70
     0
102
RTVSPropertyOp39
 70
     0
102
RTVSPropertyOp40
 70
     0
102
RTVSPropertyOp41
 70
     0
102
RTVSPropertyOp42
 70
     0
102
RTVSPropertyOp43
 70
     0
102
RTVSPropertyOp44
 70
     0
102
RTVSPropertyOp45
 70
     0
102
RTVSPropertyOp46
 70
     0
102
RTVSPropertyOp47
 70
     0
102
RTVSPropertyOp48
 70
     0
102
RTVSPropertyOp49
 70
     0
102
RTVSPropertyOp50
 70
     0
102
RTVSPropertyOp51
 70
     0
102
RTVSPropertyOp52
 70
     0
102
RTVSPropertyOp53
 70
     0
102
RTVSPropertyOp54
 70
     0
102
RTVSPropertyOp55
 70
     0
102
RTVSPropertyOp56
 70
     0
102
RTVSPropertyOp57
 70
     0
102
RTVSPost2010Prop28
280
     0
102
RTVSPost2010PropOp28
 70
     0
102
RTVSPost2010Prop29
280
     1
102
RTVSPost2010PropOp29
 70
     0
102
RTVSPost2010Prop30
280
     1
102
RTVSPost2010PropOp30
 70
     0
102
RTVSPost2010Prop31
280
     0
102
RTVSPost2010PropOp31
 70
     0
102
RTVSPost2010Prop32
280
     0
102
RTVSPost2010PropOp32
 70
     0
102
RTVSPost2010Prop33
280
     0
102
RTVSPost2010PropOp33
 70
     0
102
RTVSPost2010Prop34
280
     0
102
RTVSPost2010PropOp34
 70
     0
102
RTVSPost2010Prop35
280
     0
102
RTVSPost2010PropOp35
 70
     0
102
RTVSPost2010Prop36
280
     0
102
RTVSPost2010PropOp36
 70
     0
102
RTVSPost2010Prop37
 90
       50
102
RTVSPost2010PropOp37
 70
     0
102
RTVSPost2010Prop38
140
0.0
102
RTVSPost2010PropOp38
 70
     0
102
RTVSPost2010Prop39
140
1.0
102
RTVSPost2010PropOp39
 70
     0
102
RTVSPost2010Prop40
 90
        0
102
RTVSPost2010PropOp40
 70
     0
102
RTVSPost2010Prop41ColorIndex
 90
       18
102
RTVSPost2010Prop41ColorRGB
 90
        0
102
RTVSPost2010PropOp41
 70
     0
102
RTVSPost2010Prop42
 90
       50
102
RTVSPost2010PropOp42
 70
     0
102
RTVSPost2010Prop43
 90
        3
102
RTVSPost2010PropOp43
 70
     0
102
RTVSPost2010Prop44ColorIndex
 90
        5
102
RTVSPost2010Prop44ColorRGB
 90
      255
102
RTVSPost2010PropOp44
 70
     0
102
RTVSPost2010Prop45
280
     0
102
RTVSPost2010PropOp45
 70
     0
102
RTVSPost2010Prop46
 90
       50
102
RTVSPost2010PropOp46
 70
     0
102
RTVSPost2010Prop47
 90
       50
102
RTVSPost2010PropOp47
 70
     0
102
RTVSPost2010Prop48
 90
       50
102
RTVSPost2010PropOp48
 70
     0
102
RTVSPost2010Prop49
280
     0
102
RTVSPost2010PropOp49
 70
     0
102
RTVSPost2010Prop50
 90
       50
102
RTVSPost2010PropOp50
 70
     0
102
RTVSPost2010Prop51ColorIndex
 90
      256
102
RTVSPost2010Prop51ColorRGB
 90
-16777216
102
RTVSPost2010PropOp51
 70
     0
102
RTVSPost2010Prop52
140
1.0
102
RTVSPost2010PropOp52
 70
     0
102
RTVSPost2010Prop53
 90
        2
102
RTVSPost2010PropOp53
 70
     0
102
RTVSPost2010Prop54
  1
strokes_ogs.tif
102
RTVSPost2010PropOp54
 70
     0
102
RTVSPost2010Prop55
280
     0
102
RTVSPost2010PropOp55
 70
     0
102
RTVSPost2010Prop56
140
1.0
102
RTVSPost2010PropOp56
 70
     0
102
RTVSPost2010Prop57
140
1.0
102
RTVSPost2010PropOp57
 70
     0
  0
XRECORD
  5
E7
102
{ACAD_REACTORS
330
E6
102
}
330
E6
100
AcDbXrecord
280
     1
102
RTVSPropertyOp0
 70
     1
102
RTVSPropertyOp1
 70
     1
102
RTVSPropertyOp2
 70
     1
102
RTVSPropertyOp3
 70
     1
102
RTVSPropertyOp4
 70
     1
102
RTVSPropertyOp5
 70
     1
102
RTVSPropertyOp6
 70
     1
102
RTVSPropertyOp7
 70
     1
102
RTVSPropertyOp8
 70
     1
102
RTVSPropertyOp9
 70
     1
102
RTVSPropertyOp10
 70
     1
102
RTVSPropertyOp11
 70
     1
102
RTVSPropertyOp12
 70
     1
102
RTVSPropertyOp13
 70
     1
102
RTVSPropertyOp14
 70
     1
102
RTVSPropertyOp15
 70
     1
102
RTVSPropertyOp16
 70
     1
102
RTVSPropertyOp17
 70
     1
102
RTVSPropertyOp18
 70
     1
102
RTVSPropertyOp19
 70
     1
102
RTVSPropertyOp20
 70
     1
102
RTVSPropertyOp21
 70
     1
102
RTVSPropertyOp22
 70
     1
102
RTVSPropertyOp23
 70
     1
102
RTVSPropertyOp24
 70
     1
102
RTVSPropertyOp25
 70
     1
102
RTVSPropertyOp26
 70
     1
102
RTVSPropertyOp27
 70
     1
102
RTVSPropertyOp28
 70
     1
102
RTVSPropertyOp29
 70
     1
102
RTVSPropertyOp30
 70
     1
102
RTVSPropertyOp31
 70
     1
102
RTVSPropertyOp32
 70
     1
102
RTVSPropertyOp33
 70
     1
102
RTVSPropertyOp34
 70
     1
102
RTVSPropertyOp35
 70
     1
102
RTVSPropertyOp36
 70
     1
102
RTVSPropertyOp37
 70
     1
102
RTVSPropertyOp38
 70
     1
102
RTVSPropertyOp39
 70
     1
102
RTVSPropertyOp40
 70
     1
102
RTVSPropertyOp41
 70
     1
102
RTVSPropertyOp42
 70
     1
102
RTVSPropertyOp43
 70
     1
102
RTVSPropertyOp44
 70
     1
102
RTVSPropertyOp45
 70
     1
102
RTVSPropertyOp46
 70
     1
102
RTVSPropertyOp47
 70
     1
102
RTVSPropertyOp48
 70
     1
102
RTVSPropertyOp49
 70
     1
102
RTVSPropertyOp50
 70
     1
102
RTVSPropertyOp51
 70
     0
102
RTVSPropertyOp52
 70
     0
102
RTVSPropertyOp53
 70
     1
102
RTVSPropertyOp54
 70
     1
102
RTVSPropertyOp55
 70
     1
102
RTVSPropertyOp56
 70
     1
102
RTVSPropertyOp57
 70
     1
102
RTVSPost2010Prop28
280
     0
102
RTVSPost2010PropOp28
 70
     1
102
RTVSPost2010Prop29
280
     1
102
RTVSPost2010PropOp29
 70
     1
102
RTVSPost2010Prop30
280
     1
102
RTVSPost2010PropOp30
 70
     1
102
RTVSPost2010Prop31
280
     0
102
RTVSPost2010PropOp31
 70
     1
102
RTVSPost2010Prop32
280
     0
102
RTVSPost2010PropOp32
 70
     1
102
RTVSPost2010Prop33
280
     0
102
RTVSPost2010PropOp33
 70
     1
102
RTVSPost2010Prop34
280
     0
102
RTVSPost2010PropOp34
 70
     1
102
RTVSPost2010Prop35
280
     0
102
RTVSPost2010PropOp35
 70
     1
102
RTVSPost2010Prop36
280
     0
102
RTVSPost2010PropOp36
 70
     1
102
RTVSPost2010Prop37
 90
       50
102
RTVSPost2010PropOp37
 70
     1
102
RTVSPost2010Prop38
140
0.0
102
RTVSPost2010PropOp38
 70
     1
102
RTVSPost2010Prop39
140
1.0
102
RTVSPost2010PropOp39
 70
     1
102
RTVSPost2010Prop40
 90
        0
102
RTVSPost2010PropOp40
 70
     1
102
RTVSPost2010Prop41ColorIndex
 90
       18
102
RTVSPost2010Prop41ColorRGB
 90
        0
102
RTVSPost2010PropOp41
 70
     1
102
RTVSPost2010Prop42
 90
       50
102
RTVSPost2010PropOp42
 70
     1
102
RTVSPost2010Prop43
 90
        3
102
RTVSPost2010PropOp43
 70
     1
102
RTVSPost2010Prop44ColorIndex
 90
        5
102
RTVSPost2010Prop44ColorRGB
 90
      255
102
RTVSPost2010PropOp44
 70
     1
102
RTVSPost2010Prop45
280
     0
102
RTVSPost2010PropOp45
 70
     1
102
RTVSPost2010Prop46
 90
       50
102
RTVSPost2010PropOp46
 70
     1
102
RTVSPost2010Prop47
 90
       50
102
RTVSPost2010PropOp47
 70
     1
102
RTVSPost2010Prop48
 90
       50
102
RTVSPost2010PropOp48
 70
     1
102
RTVSPost2010Prop49
280
     0
102
RTVSPost2010PropOp49
 70
     1
102
RTVSPost2010Prop50
 90
       50
102
RTVSPost2010PropOp50
 70
     1
102
RTVSPost2010Prop51ColorIndex
 90
      256
102
RTVSPost2010Prop51ColorRGB
 90
-16777216
102
RTVSPost2010PropOp51
 70
     0
102
RTVSPost2010Prop52
140
1.0
102
RTVSPost2010PropOp52
 70
     0
102
RTVSPost2010Prop53
 90
        2
102
RTVSPost2010PropOp53
 70
     1
102
RTVSPost2010Prop54
  1
strokes_ogs.tif
102
RTVSPost2010PropOp54
 70
     1
102
RTVSPost2010Prop55
280
     0
102
RTVSPost2010PropOp55
 70
     1
102
RTVSPost2010Prop56
140
1.0
102
RTVSPost2010PropOp56
 70
     1
102
RTVSPost2010Prop57
140
1.0
102
RTVSPost2010PropOp57
 70
     1
  0
XRECORD
  5
105
102
{ACAD_REACTORS
330
104
102
}
330
104
100
AcDbXrecord
280
     1
102
RTVSPropertyOp0
 70
     1
102
RTVSPropertyOp1
 70
     1
102
RTVSPropertyOp2
 70
     1
102
RTVSPropertyOp3
 70
     1
102
RTVSPropertyOp4
 70
     1
102
RTVSPropertyOp5
 70
     1
102
RTVSPropertyOp6
 70
     1
102
RTVSPropertyOp7
 70
     1
102
RTVSPropertyOp8
 70
     1
102
RTVSPropertyOp9
 70
     1
102
RTVSPropertyOp10
 70
     1
102
RTVSPropertyOp11
 70
     1
102
RTVSPropertyOp12
 70
     1
102
RTVSPropertyOp13
 70
     1
102
RTVSPropertyOp14
 70
     1
102
RTVSPropertyOp15
 70
     1
102
RTVSPropertyOp16
 70
     1
102
RTVSPropertyOp17
 70
     1
102
RTVSPropertyOp18
 70
     1
102
RTVSPropertyOp19
 70
     1
102
RTVSPropertyOp20
 70
     1
102
RTVSPropertyOp21
 70
     1
102
RTVSPropertyOp22
 70
     1
102
RTVSPropertyOp23
 70
     1
102
RTVSPropertyOp24
 70
     1
102
RTVSPropertyOp25
 70
     1
102
RTVSPropertyOp26
 70
     1
102
RTVSPropertyOp27
 70
     1
102
RTVSPropertyOp28
 70
     1
102
RTVSPropertyOp29
 70
     1
102
RTVSPropertyOp30
 70
     1
102
RTVSPropertyOp31
 70
     1
102
RTVSPropertyOp32
 70
     1
102
RTVSPropertyOp33
 70
     1
102
RTVSPropertyOp34
 70
     1
102
RTVSPropertyOp35
 70
     1
102
RTVSPropertyOp36
 70
     1
102
RTVSPropertyOp37
 70
     1
102
RTVSPropertyOp38
 70
     1
102
RTVSPropertyOp39
 70
     1
102
RTVSPropertyOp40
 70
     1
102
RTVSPropertyOp41
 70
     1
102
RTVSPropertyOp42
 70
     1
102
RTVSPropertyOp43
 70
     1
102
RTVSPropertyOp44
 70
     1
102
RTVSPropertyOp45
 70
     1
102
RTVSPropertyOp46
 70
     1
102
RTVSPropertyOp47
 70
     1
102
RTVSPropertyOp48
 70
     1
102
RTVSPropertyOp49
 70
     1
102
RTVSPropertyOp50
 70
     1
102
RTVSPropertyOp51
 70
     0
102
RTVSPropertyOp52
 70
     0
102
RTVSPropertyOp53
 70
     1
102
RTVSPropertyOp54
 70
     1
102
RTVSPropertyOp55
 70
     1
102
RTVSPropertyOp56
 70
     1
102
RTVSPropertyOp57
 70
     1
102
RTVSPost2010Prop28
280
     0
102
RTVSPost2010PropOp28
 70
     1
102
RTVSPost2010Prop29
280
     1
102
RTVSPost2010PropOp29
 70
     1
102
RTVSPost2010Prop30
280
     1
102
RTVSPost2010PropOp30
 70
     1
102
RTVSPost2010Prop31
280
     0
102
RTVSPost2010PropOp31
 70
     1
102
RTVSPost2010Prop32
280
     0
102
RTVSPost2010PropOp32
 70
     1
102
RTVSPost2010Prop33
280
     0
102
RTVSPost2010PropOp33
 70
     1
102
RTVSPost2010Prop34
280
     0
102
RTVSPost2010PropOp34
 70
     1
102
RTVSPost2010Prop35
280
     0
102
RTVSPost2010PropOp35
 70
     1
102
RTVSPost2010Prop36
280
     0
102
RTVSPost2010PropOp36
 70
     1
102
RTVSPost2010Prop37
 90
       50
102
RTVSPost2010PropOp37
 70
     1
102
RTVSPost2010Prop38
140
0.0
102
RTVSPost2010PropOp38
 70
     1
102
RTVSPost2010Prop39
140
1.0
102
RTVSPost2010PropOp39
 70
     1
102
RTVSPost2010Prop40
 90
        0
102
RTVSPost2010PropOp40
 70
     1
102
RTVSPost2010Prop41ColorIndex
 90
       18
102
RTVSPost2010Prop41ColorRGB
 90
        0
102
RTVSPost2010PropOp41
 70
     1
102
RTVSPost2010Prop42
 90
       50
102
RTVSPost2010PropOp42
 70
     1
102
RTVSPost2010Prop43
 90
        3
102
RTVSPost2010PropOp43
 70
     1
102
RTVSPost2010Prop44ColorIndex
 90
        5
102
RTVSPost2010Prop44ColorRGB
 90
      255
102
RTVSPost2010PropOp44
 70
     1
102
RTVSPost2010Prop45
280
     0
102
RTVSPost2010PropOp45
 70
     1
102
RTVSPost2010Prop46
 90
       50
102
RTVSPost2010PropOp46
 70
     1
102
RTVSPost2010Prop47
 90
       50
102
RTVSPost2010PropOp47
 70
     1
102
RTVSPost2010Prop48
 90
       50
102
RTVSPost2010PropOp48
 70
     1
102
RTVSPost2010Prop49
280
     0
102
RTVSPost2010PropOp49
 70
     1
102
RTVSPost2010Prop50
 90
       50
102
RTVSPost2010PropOp50
 70
     1
102
RTVSPost2010Prop51ColorIndex
 90
      256
102
RTVSPost2010Prop51ColorRGB
 90
-16777216
102
RTVSPost2010PropOp51
 70
     0
102
RTVSPost2010Prop52
140
1.0
102
RTVSPost2010PropOp52
 70
     0
102
RTVSPost2010Prop53
 90
        2
102
RTVSPost2010PropOp53
 70
     1
102
RTVSPost2010Prop54
  1
strokes_ogs.tif
102
RTVSPost2010PropOp54
 70
     1
102
RTVSPost2010Prop55
280
     0
102
RTVSPost2010PropOp55
 70
     1
102
RTVSPost2010Prop56
140
1.0
102
RTVSPost2010PropOp56
 70
     1
102
RTVSPost2010Prop57
140
1.0
102
RTVSPost2010PropOp57
 70
     1
  0
XRECORD
  5
103
102
{ACAD_REACTORS
330
102
102
}
330
102
100
AcDbXrecord
280
     1
102
RTVSPropertyOp0
 70
     1
102
RTVSPropertyOp1
 70
     1
102
RTVSPropertyOp2
 70
     1
102
RTVSPropertyOp3
 70
     1
102
RTVSPropertyOp4
 70
     1
102
RTVSPropertyOp5
 70
     1
102
RTVSPropertyOp6
 70
     1
102
RTVSPropertyOp7
 70
     1
102
RTVSPropertyOp8
 70
     1
102
RTVSPropertyOp9
 70
     1
102
RTVSPropertyOp10
 70
     1
102
RTVSPropertyOp11
 70
     1
102
RTVSPropertyOp12
 70
     1
102
RTVSPropertyOp13
 70
     1
102
RTVSPropertyOp14
 70
     1
102
RTVSPropertyOp15
 70
     1
102
RTVSPropertyOp16
 70
     1
102
RTVSPropertyOp17
 70
     1
102
RTVSPropertyOp18
 70
     1
102
RTVSPropertyOp19
 70
     1
102
RTVSPropertyOp20
 70
     1
102
RTVSPropertyOp21
 70
     1
102
RTVSPropertyOp22
 70
     1
102
RTVSPropertyOp23
 70
     1
102
RTVSPropertyOp24
 70
     1
102
RTVSPropertyOp25
 70
     1
102
RTVSPropertyOp26
 70
     1
102
RTVSPropertyOp27
 70
     1
102
RTVSPropertyOp28
 70
     1
102
RTVSPropertyOp29
 70
     1
102
RTVSPropertyOp30
 70
     1
102
RTVSPropertyOp31
 70
     1
102
RTVSPropertyOp32
 70
     1
102
RTVSPropertyOp33
 70
     1
102
RTVSPropertyOp34
 70
     1
102
RTVSPropertyOp35
 70
     1
102
RTVSPropertyOp36
 70
     1
102
RTVSPropertyOp37
 70
     1
102
RTVSPropertyOp38
 70
     1
102
RTVSPropertyOp39
 70
     1
102
RTVSPropertyOp40
 70
     1
102
RTVSPropertyOp41
 70
     1
102
RTVSPropertyOp42
 70
     1
102
RTVSPropertyOp43
 70
     1
102
RTVSPropertyOp44
 70
     1
102
RTVSPropertyOp45
 70
     1
102
RTVSPropertyOp46
 70
     1
102
RTVSPropertyOp47
 70
     1
102
RTVSPropertyOp48
 70
     1
102
RTVSPropertyOp49
 70
     1
102
RTVSPropertyOp50
 70
     1
102
RTVSPropertyOp51
 70
     0
102
RTVSPropertyOp52
 70
     0
102
RTVSPropertyOp53
 70
     1
102
RTVSPropertyOp54
 70
     1
102
RTVSPropertyOp55
 70
     1
102
RTVSPropertyOp56
 70
     1
102
RTVSPropertyOp57
 70
     1
102
RTVSPost2010Prop28
280
     0
102
RTVSPost2010PropOp28
 70
     1
102
RTVSPost2010Prop29
280
     1
102
RTVSPost2010PropOp29
 70
     1
102
RTVSPost2010Prop30
280
     1
102
RTVSPost2010PropOp30
 70
     1
102
RTVSPost2010Prop31
280
     0
102
RTVSPost2010PropOp31
 70
     1
102
RTVSPost2010Prop32
280
     0
102
RTVSPost2010PropOp32
 70
     1
102
RTVSPost2010Prop33
280
     0
102
RTVSPost2010PropOp33
 70
     1
102
RTVSPost2010Prop34
280
     0
102
RTVSPost2010PropOp34
 70
     1
102
RTVSPost2010Prop35
280
     0
102
RTVSPost2010PropOp35
 70
     1
102
RTVSPost2010Prop36
280
     0
102
RTVSPost2010PropOp36
 70
     1
102
RTVSPost2010Prop37
 90
       50
102
RTVSPost2010PropOp37
 70
     1
102
RTVSPost2010Prop38
140
0.0
102
RTVSPost2010PropOp38
 70
     1
102
RTVSPost2010Prop39
140
1.0
102
RTVSPost2010PropOp39
 70
     1
102
RTVSPost2010Prop40
 90
        0
102
RTVSPost2010PropOp40
 70
     1
102
RTVSPost2010Prop41ColorIndex
 90
       18
102
RTVSPost2010Prop41ColorRGB
 90
        0
102
RTVSPost2010PropOp41
 70
     1
102
RTVSPost2010Prop42
 90
       50
102
RTVSPost2010PropOp42
 70
     1
102
RTVSPost2010Prop43
 90
        3
102
RTVSPost2010PropOp43
 70
     1
102
RTVSPost2010Prop44ColorIndex
 90
        5
102
RTVSPost2010Prop44ColorRGB
 90
      255
102
RTVSPost2010PropOp44
 70
     1
102
RTVSPost2010Prop45
280
     0
102
RTVSPost2010PropOp45
 70
     1
102
RTVSPost2010Prop46
 90
       50
102
RTVSPost2010PropOp46
 70
     1
102
RTVSPost2010Prop47
 90
       50
102
RTVSPost2010PropOp47
 70
     1
102
RTVSPost2010Prop48
 90
       50
102
RTVSPost2010PropOp48
 70
     1
102
RTVSPost2010Prop49
280
     0
102
RTVSPost2010PropOp49
 70
     1
102
RTVSPost2010Prop50
 90
       50
102
RTVSPost2010PropOp50
 70
     1
102
RTVSPost2010Prop51ColorIndex
 90
      256
102
RTVSPost2010Prop51ColorRGB
 90
-16777216
102
RTVSPost2010PropOp51
 70
     0
102
RTVSPost2010Prop52
140
1.0
102
RTVSPost2010PropOp52
 70
     0
102
RTVSPost2010Prop53
 90
        2
102
RTVSPost2010PropOp53
 70
     1
102
RTVSPost2010Prop54
  1
strokes_ogs.tif
102
RTVSPost2010PropOp54
 70
     1
102
RTVSPost2010Prop55
280
     0
102
RTVSPost2010PropOp55
 70
     1
102
RTVSPost2010Prop56
140
1.0
102
RTVSPost2010PropOp56
 70
     1
102
RTVSPost2010Prop57
140
1.0
102
RTVSPost2010PropOp57
 70
     1
  0
XRECORD
  5
FD
102
{ACAD_REACTORS
330
FC
102
}
330
FC
100
AcDbXrecord
280
     1
102
RTVSPropertyOp0
 70
     1
102
RTVSPropertyOp1
 70
     1
102
RTVSPropertyOp2
 70
     1
102
RTVSPropertyOp3
 70
     1
102
RTVSPropertyOp4
 70
     1
102
RTVSPropertyOp5
 70
     1
102
RTVSPropertyOp6
 70
     1
102
RTVSPropertyOp7
 70
     1
102
RTVSPropertyOp8
 70
     1
102
RTVSPropertyOp9
 70
     1
102
RTVSPropertyOp10
 70
     1
102
RTVSPropertyOp11
 70
     1
102
RTVSPropertyOp12
 70
     1
102
RTVSPropertyOp13
 70
     1
102
RTVSPropertyOp14
 70
     1
102
RTVSPropertyOp15
 70
     1
102
RTVSPropertyOp16
 70
     1
102
RTVSPropertyOp17
 70
     1
102
RTVSPropertyOp18
 70
     1
102
RTVSPropertyOp19
 70
     1
102
RTVSPropertyOp20
 70
     1
102
RTVSPropertyOp21
 70
     1
102
RTVSPropertyOp22
 70
     1
102
RTVSPropertyOp23
 70
     1
102
RTVSPropertyOp24
 70
     1
102
RTVSPropertyOp25
 70
     1
102
RTVSPropertyOp26
 70
     1
102
RTVSPropertyOp27
 70
     1
102
RTVSPropertyOp28
 70
     1
102
RTVSPropertyOp29
 70
     1
102
RTVSPropertyOp30
 70
     1
102
RTVSPropertyOp31
 70
     1
102
RTVSPropertyOp32
 70
     1
102
RTVSPropertyOp33
 70
     1
102
RTVSPropertyOp34
 70
     1
102
RTVSPropertyOp35
 70
     1
102
RTVSPropertyOp36
 70
     1
102
RTVSPropertyOp37
 70
     1
102
RTVSPropertyOp38
 70
     1
102
RTVSPropertyOp39
 70
     1
102
RTVSPropertyOp40
 70
     1
102
RTVSPropertyOp41
 70
     1
102
RTVSPropertyOp42
 70
     1
102
RTVSPropertyOp43
 70
     1
102
RTVSPropertyOp44
 70
     1
102
RTVSPropertyOp45
 70
     1
102
RTVSPropertyOp46
 70
     1
102
RTVSPropertyOp47
 70
     1
102
RTVSPropertyOp48
 70
     1
102
RTVSPropertyOp49
 70
     1
102
RTVSPropertyOp50
 70
     1
102
RTVSPropertyOp51
 70
     0
102
RTVSPropertyOp52
 70
     0
102
RTVSPropertyOp53
 70
     1
102
RTVSPropertyOp54
 70
     1
102
RTVSPropertyOp55
 70
     1
102
RTVSPropertyOp56
 70
     1
102
RTVSPropertyOp57
 70
     1
102
RTVSPost2010Prop28
280
     0
102
RTVSPost2010PropOp28
 70
     1
102
RTVSPost2010Prop29
280
     1
102
RTVSPost2010PropOp29
 70
     1
102
RTVSPost2010Prop30
280
     1
102
RTVSPost2010PropOp30
 70
     1
102
RTVSPost2010Prop31
280
     0
102
RTVSPost2010PropOp31
 70
     1
102
RTVSPost2010Prop32
280
     0
102
RTVSPost2010PropOp32
 70
     1
102
RTVSPost2010Prop33
280
     0
102
RTVSPost2010PropOp33
 70
     1
102
RTVSPost2010Prop34
280
     0
102
RTVSPost2010PropOp34
 70
     1
102
RTVSPost2010Prop35
280
     0
102
RTVSPost2010PropOp35
 70
     1
102
RTVSPost2010Prop36
280
     0
102
RTVSPost2010PropOp36
 70
     1
102
RTVSPost2010Prop37
 90
       50
102
RTVSPost2010PropOp37
 70
     1
102
RTVSPost2010Prop38
140
0.0
102
RTVSPost2010PropOp38
 70
     1
102
RTVSPost2010Prop39
140
1.0
102
RTVSPost2010PropOp39
 70
     1
102
RTVSPost2010Prop40
 90
        0
102
RTVSPost2010PropOp40
 70
     1
102
RTVSPost2010Prop41ColorIndex
 90
       18
102
RTVSPost2010Prop41ColorRGB
 90
        0
102
RTVSPost2010PropOp41
 70
     1
102
RTVSPost2010Prop42
 90
       50
102
RTVSPost2010PropOp42
 70
     1
102
RTVSPost2010Prop43
 90
        3
102
RTVSPost2010PropOp43
 70
     1
102
RTVSPost2010Prop44ColorIndex
 90
        5
102
RTVSPost2010Prop44ColorRGB
 90
      255
102
RTVSPost2010PropOp44
 70
     1
102
RTVSPost2010Prop45
280
     0
102
RTVSPost2010PropOp45
 70
     1
102
RTVSPost2010Prop46
 90
       50
102
RTVSPost2010PropOp46
 70
     1
102
RTVSPost2010Prop47
 90
       50
102
RTVSPost2010PropOp47
 70
     1
102
RTVSPost2010Prop48
 90
       50
102
RTVSPost2010PropOp48
 70
     1
102
RTVSPost2010Prop49
280
     0
102
RTVSPost2010PropOp49
 70
     1
102
RTVSPost2010Prop50
 90
       50
102
RTVSPost2010PropOp50
 70
     1
102
RTVSPost2010Prop51ColorIndex
 90
      256
102
RTVSPost2010Prop51ColorRGB
 90
-16777216
102
RTVSPost2010PropOp51
 70
     0
102
RTVSPost2010Prop52
140
1.0
102
RTVSPost2010PropOp52
 70
     0
102
RTVSPost2010Prop53
 90
        2
102
RTVSPost2010PropOp53
 70
     1
102
RTVSPost2010Prop54
  1
strokes_ogs.tif
102
RTVSPost2010PropOp54
 70
     1
102
RTVSPost2010Prop55
280
     0
102
RTVSPost2010PropOp55
 70
     1
102
RTVSPost2010Prop56
140
1.0
102
RTVSPost2010PropOp56
 70
     1
102
RTVSPost2010Prop57
140
1.0
102
RTVSPost2010PropOp57
 70
     1
  0
XRECORD
  5
FF
102
{ACAD_REACTORS
330
FE
102
}
330
FE
100
AcDbXrecord
280
     1
102
RTVSPropertyOp0
 70
     1
102
RTVSPropertyOp1
 70
     1
102
RTVSPropertyOp2
 70
     1
102
RTVSPropertyOp3
 70
     1
102
RTVSPropertyOp4
 70
     1
102
RTVSPropertyOp5
 70
     1
102
RTVSPropertyOp6
 70
     1
102
RTVSPropertyOp7
 70
     1
102
RTVSPropertyOp8
 70
     1
102
RTVSPropertyOp9
 70
     1
102
RTVSPropertyOp10
 70
     1
102
RTVSPropertyOp11
 70
     1
102
RTVSPropertyOp12
 70
     1
102
RTVSPropertyOp13
 70
     1
102
RTVSPropertyOp14
 70
     1
102
RTVSPropertyOp15
 70
     1
102
RTVSPropertyOp16
 70
     1
102
RTVSPropertyOp17
 70
     1
102
RTVSPropertyOp18
 70
     1
102
RTVSPropertyOp19
 70
     1
102
RTVSPropertyOp20
 70
     1
102
RTVSPropertyOp21
 70
     1
102
RTVSPropertyOp22
 70
     1
102
RTVSPropertyOp23
 70
     1
102
RTVSPropertyOp24
 70
     1
102
RTVSPropertyOp25
 70
     1
102
RTVSPropertyOp26
 70
     1
102
RTVSPropertyOp27
 70
     1
102
RTVSPropertyOp28
 70
     1
102
RTVSPropertyOp29
 70
     1
102
RTVSPropertyOp30
 70
     1
102
RTVSPropertyOp31
 70
     1
102
RTVSPropertyOp32
 70
     1
102
RTVSPropertyOp33
 70
     1
102
RTVSPropertyOp34
 70
     1
102
RTVSPropertyOp35
 70
     1
102
RTVSPropertyOp36
 70
     1
102
RTVSPropertyOp37
 70
     1
102
RTVSPropertyOp38
 70
     1
102
RTVSPropertyOp39
 70
     1
102
RTVSPropertyOp40
 70
     1
102
RTVSPropertyOp41
 70
     1
102
RTVSPropertyOp42
 70
     1
102
RTVSPropertyOp43
 70
     1
102
RTVSPropertyOp44
 70
     1
102
RTVSPropertyOp45
 70
     1
102
RTVSPropertyOp46
 70
     1
102
RTVSPropertyOp47
 70
     1
102
RTVSPropertyOp48
 70
     1
102
RTVSPropertyOp49
 70
     1
102
RTVSPropertyOp50
 70
     1
102
RTVSPropertyOp51
 70
     0
102
RTVSPropertyOp52
 70
     0
102
RTVSPropertyOp53
 70
     1
102
RTVSPropertyOp54
 70
     1
102
RTVSPropertyOp55
 70
     1
102
RTVSPropertyOp56
 70
     1
102
RTVSPropertyOp57
 70
     1
102
RTVSPost2010Prop28
280
     0
102
RTVSPost2010PropOp28
 70
     1
102
RTVSPost2010Prop29
280
     1
102
RTVSPost2010PropOp29
 70
     1
102
RTVSPost2010Prop30
280
     1
102
RTVSPost2010PropOp30
 70
     1
102
RTVSPost2010Prop31
280
     0
102
RTVSPost2010PropOp31
 70
     1
102
RTVSPost2010Prop32
280
     0
102
RTVSPost2010PropOp32
 70
     1
102
RTVSPost2010Prop33
280
     0
102
RTVSPost2010PropOp33
 70
     1
102
RTVSPost2010Prop34
280
     0
102
RTVSPost2010PropOp34
 70
     1
102
RTVSPost2010Prop35
280
     0
102
RTVSPost2010PropOp35
 70
     1
102
RTVSPost2010Prop36
280
     0
102
RTVSPost2010PropOp36
 70
     1
102
RTVSPost2010Prop37
 90
       50
102
RTVSPost2010PropOp37
 70
     1
102
RTVSPost2010Prop38
140
0.0
102
RTVSPost2010PropOp38
 70
     1
102
RTVSPost2010Prop39
140
1.0
102
RTVSPost2010PropOp39
 70
     1
102
RTVSPost2010Prop40
 90
        0
102
RTVSPost2010PropOp40
 70
     1
102
RTVSPost2010Prop41ColorIndex
 90
       18
102
RTVSPost2010Prop41ColorRGB
 90
        0
102
RTVSPost2010PropOp41
 70
     1
102
RTVSPost2010Prop42
 90
       50
102
RTVSPost2010PropOp42
 70
     1
102
RTVSPost2010Prop43
 90
        3
102
RTVSPost2010PropOp43
 70
     1
102
RTVSPost2010Prop44ColorIndex
 90
        5
102
RTVSPost2010Prop44ColorRGB
 90
      255
102
RTVSPost2010PropOp44
 70
     1
102
RTVSPost2010Prop45
280
     0
102
RTVSPost2010PropOp45
 70
     1
102
RTVSPost2010Prop46
 90
       50
102
RTVSPost2010PropOp46
 70
     1
102
RTVSPost2010Prop47
 90
       50
102
RTVSPost2010PropOp47
 70
     1
102
RTVSPost2010Prop48
 90
       50
102
RTVSPost2010PropOp48
 70
     1
102
RTVSPost2010Prop49
280
     0
102
RTVSPost2010PropOp49
 70
     1
102
RTVSPost2010Prop50
 90
       50
102
RTVSPost2010PropOp50
 70
     1
102
RTVSPost2010Prop51ColorIndex
 90
      256
102
RTVSPost2010Prop51ColorRGB
 90
-16777216
102
RTVSPost2010PropOp51
 70
     0
102
RTVSPost2010Prop52
140
1.0
102
RTVSPost2010PropOp52
 70
     0
102
RTVSPost2010Prop53
 90
        2
102
RTVSPost2010PropOp53
 70
     1
102
RTVSPost2010Prop54
  1
strokes_ogs.tif
102
RTVSPost2010PropOp54
 70
     1
102
RTVSPost2010Prop55
280
     0
102
RTVSPost2010PropOp55
 70
     1
102
RTVSPost2010Prop56
140
1.0
102
RTVSPost2010PropOp56
 70
     1
102
RTVSPost2010Prop57
140
1.0
102
RTVSPost2010PropOp57
 70
     1
  0
XRECORD
  5
EF
102
{ACAD_REACTORS
330
EE
102
}
330
EE
100
AcDbXrecord
280
     1
102
RTVSPropertyOp0
 70
     1
102
RTVSPropertyOp1
 70
     1
102
RTVSPropertyOp2
 70
     1
102
RTVSPropertyOp3
 70
     1
102
RTVSPropertyOp4
 70
     1
102
RTVSPropertyOp5
 70
     1
102
RTVSPropertyOp6
 70
     1
102
RTVSPropertyOp7
 70
     1
102
RTVSPropertyOp8
 70
     1
102
RTVSPropertyOp9
 70
     1
102
RTVSPropertyOp10
 70
     1
102
RTVSPropertyOp11
 70
     1
102
RTVSPropertyOp12
 70
     1
102
RTVSPropertyOp13
 70
     1
102
RTVSPropertyOp14
 70
     1
102
RTVSPropertyOp15
 70
     1
102
RTVSPropertyOp16
 70
     1
102
RTVSPropertyOp17
 70
     1
102
RTVSPropertyOp18
 70
     1
102
RTVSPropertyOp19
 70
     1
102
RTVSPropertyOp20
 70
     1
102
RTVSPropertyOp21
 70
     1
102
RTVSPropertyOp22
 70
     1
102
RTVSPropertyOp23
 70
     1
102
RTVSPropertyOp24
 70
     1
102
RTVSPropertyOp25
 70
     1
102
RTVSPropertyOp26
 70
     1
102
RTVSPropertyOp27
 70
     1
102
RTVSPropertyOp28
 70
     1
102
RTVSPropertyOp29
 70
     1
102
RTVSPropertyOp30
 70
     1
102
RTVSPropertyOp31
 70
     1
102
RTVSPropertyOp32
 70
     1
102
RTVSPropertyOp33
 70
     1
102
RTVSPropertyOp34
 70
     1
102
RTVSPropertyOp35
 70
     1
102
RTVSPropertyOp36
 70
     1
102
RTVSPropertyOp37
 70
     1
102
RTVSPropertyOp38
 70
     1
102
RTVSPropertyOp39
 70
     1
102
RTVSPropertyOp40
 70
     1
102
RTVSPropertyOp41
 70
     1
102
RTVSPropertyOp42
 70
     1
102
RTVSPropertyOp43
 70
     1
102
RTVSPropertyOp44
 70
     1
102
RTVSPropertyOp45
 70
     1
102
RTVSPropertyOp46
 70
     1
102
RTVSPropertyOp47
 70
     1
102
RTVSPropertyOp48
 70
     1
102
RTVSPropertyOp49
 70
     1
102
RTVSPropertyOp50
 70
     1
102
RTVSPropertyOp51
 70
     0
102
RTVSPropertyOp52
 70
     0
102
RTVSPropertyOp53
 70
     1
102
RTVSPropertyOp54
 70
     1
102
RTVSPropertyOp55
 70
     1
102
RTVSPropertyOp56
 70
     1
102
RTVSPropertyOp57
 70
     1
102
RTVSPost2010Prop28
280
     0
102
RTVSPost2010PropOp28
 70
     1
102
RTVSPost2010Prop29
280
     1
102
RTVSPost2010PropOp29
 70
     1
102
RTVSPost2010Prop30
280
     1
102
RTVSPost2010PropOp30
 70
     1
102
RTVSPost2010Prop31
280
     0
102
RTVSPost2010PropOp31
 70
     1
102
RTVSPost2010Prop32
280
     0
102
RTVSPost2010PropOp32
 70
     1
102
RTVSPost2010Prop33
280
     0
102
RTVSPost2010PropOp33
 70
     1
102
RTVSPost2010Prop34
280
     0
102
RTVSPost2010PropOp34
 70
     1
102
RTVSPost2010Prop35
280
     0
102
RTVSPost2010PropOp35
 70
     1
102
RTVSPost2010Prop36
280
     0
102
RTVSPost2010PropOp36
 70
     1
102
RTVSPost2010Prop37
 90
       50
102
RTVSPost2010PropOp37
 70
     1
102
RTVSPost2010Prop38
140
0.0
102
RTVSPost2010PropOp38
 70
     1
102
RTVSPost2010Prop39
140
1.0
102
RTVSPost2010PropOp39
 70
     1
102
RTVSPost2010Prop40
 90
        0
102
RTVSPost2010PropOp40
 70
     1
102
RTVSPost2010Prop41ColorIndex
 90
       18
102
RTVSPost2010Prop41ColorRGB
 90
        0
102
RTVSPost2010PropOp41
 70
     1
102
RTVSPost2010Prop42
 90
       50
102
RTVSPost2010PropOp42
 70
     1
102
RTVSPost2010Prop43
 90
        3
102
RTVSPost2010PropOp43
 70
     1
102
RTVSPost2010Prop44ColorIndex
 90
        5
102
RTVSPost2010Prop44ColorRGB
 90
      255
102
RTVSPost2010PropOp44
 70
     1
102
RTVSPost2010Prop45
280
     0
102
RTVSPost2010PropOp45
 70
     1
102
RTVSPost2010Prop46
 90
       50
102
RTVSPost2010PropOp46
 70
     1
102
RTVSPost2010Prop47
 90
       50
102
RTVSPost2010PropOp47
 70
     1
102
RTVSPost2010Prop48
 90
       50
102
RTVSPost2010PropOp48
 70
     1
102
RTVSPost2010Prop49
280
     0
102
RTVSPost2010PropOp49
 70
     1
102
RTVSPost2010Prop50
 90
       50
102
RTVSPost2010PropOp50
 70
     1
102
RTVSPost2010Prop51ColorIndex
 90
      256
102
RTVSPost2010Prop51ColorRGB
 90
-16777216
102
RTVSPost2010PropOp51
 70
     0
102
RTVSPost2010Prop52
140
1.0
102
RTVSPost2010PropOp52
 70
     0
102
RTVSPost2010Prop53
 90
        2
102
RTVSPost2010PropOp53
 70
     1
102
RTVSPost2010Prop54
  1
strokes_ogs.tif
102
RTVSPost2010PropOp54
 70
     1
102
RTVSPost2010Prop55
280
     0
102
RTVSPost2010PropOp55
 70
     1
102
RTVSPost2010Prop56
140
1.0
102
RTVSPost2010PropOp56
 70
     1
102
RTVSPost2010Prop57
140
1.0
102
RTVSPost2010PropOp57
 70
     1
  0
XRECORD
  5
E1
102
{ACAD_REACTORS
330
E0
102
}
330
E0
100
AcDbXrecord
280
     1
102
RTVSPropertyOp0
 70
     1
102
RTVSPropertyOp1
 70
     1
102
RTVSPropertyOp2
 70
     1
102
RTVSPropertyOp3
 70
     1
102
RTVSPropertyOp4
 70
     1
102
RTVSPropertyOp5
 70
     1
102
RTVSPropertyOp6
 70
     1
102
RTVSPropertyOp7
 70
     1
102
RTVSPropertyOp8
 70
     1
102
RTVSPropertyOp9
 70
     1
102
RTVSPropertyOp10
 70
     1
102
RTVSPropertyOp11
 70
     1
102
RTVSPropertyOp12
 70
     1
102
RTVSPropertyOp13
 70
     1
102
RTVSPropertyOp14
 70
     1
102
RTVSPropertyOp15
 70
     1
102
RTVSPropertyOp16
 70
     1
102
RTVSPropertyOp17
 70
     1
102
RTVSPropertyOp18
 70
     1
102
RTVSPropertyOp19
 70
     1
102
RTVSPropertyOp20
 70
     1
102
RTVSPropertyOp21
 70
     1
102
RTVSPropertyOp22
 70
     1
102
RTVSPropertyOp23
 70
     1
102
RTVSPropertyOp24
 70
     1
102
RTVSPropertyOp25
 70
     1
102
RTVSPropertyOp26
 70
     1
102
RTVSPropertyOp27
 70
     1
102
RTVSPropertyOp28
 70
     1
102
RTVSPropertyOp29
 70
     1
102
RTVSPropertyOp30
 70
     1
102
RTVSPropertyOp31
 70
     1
102
RTVSPropertyOp32
 70
     1
102
RTVSPropertyOp33
 70
     1
102
RTVSPropertyOp34
 70
     1
102
RTVSPropertyOp35
 70
     1
102
RTVSPropertyOp36
 70
     1
102
RTVSPropertyOp37
 70
     1
102
RTVSPropertyOp38
 70
     1
102
RTVSPropertyOp39
 70
     1
102
RTVSPropertyOp40
 70
     1
102
RTVSPropertyOp41
 70
     1
102
RTVSPropertyOp42
 70
     1
102
RTVSPropertyOp43
 70
     1
102
RTVSPropertyOp44
 70
     1
102
RTVSPropertyOp45
 70
     1
102
RTVSPropertyOp46
 70
     1
102
RTVSPropertyOp47
 70
     1
102
RTVSPropertyOp48
 70
     1
102
RTVSPropertyOp49
 70
     1
102
RTVSPropertyOp50
 70
     1
102
RTVSPropertyOp51
 70
     0
102
RTVSPropertyOp52
 70
     0
102
RTVSPropertyOp53
 70
     1
102
RTVSPropertyOp54
 70
     1
102
RTVSPropertyOp55
 70
     1
102
RTVSPropertyOp56
 70
     1
102
RTVSPropertyOp57
 70
     1
102
RTVSPost2010Prop28
280
     0
102
RTVSPost2010PropOp28
 70
     1
102
RTVSPost2010Prop29
280
     1
102
RTVSPost2010PropOp29
 70
     1
102
RTVSPost2010Prop30
280
     1
102
RTVSPost2010PropOp30
 70
     1
102
RTVSPost2010Prop31
280
     0
102
RTVSPost2010PropOp31
 70
     1
102
RTVSPost2010Prop32
280
     0
102
RTVSPost2010PropOp32
 70
     1
102
RTVSPost2010Prop33
280
     0
102
RTVSPost2010PropOp33
 70
     1
102
RTVSPost2010Prop34
280
     0
102
RTVSPost2010PropOp34
 70
     1
102
RTVSPost2010Prop35
280
     0
102
RTVSPost2010PropOp35
 70
     1
102
RTVSPost2010Prop36
280
     0
102
RTVSPost2010PropOp36
 70
     1
102
RTVSPost2010Prop37
 90
       50
102
RTVSPost2010PropOp37
 70
     1
102
RTVSPost2010Prop38
140
0.0
102
RTVSPost2010PropOp38
 70
     1
102
RTVSPost2010Prop39
140
1.0
102
RTVSPost2010PropOp39
 70
     1
102
RTVSPost2010Prop40
 90
        0
102
RTVSPost2010PropOp40
 70
     1
102
RTVSPost2010Prop41ColorIndex
 90
       18
102
RTVSPost2010Prop41ColorRGB
 90
        0
102
RTVSPost2010PropOp41
 70
     1
102
RTVSPost2010Prop42
 90
       50
102
RTVSPost2010PropOp42
 70
     1
102
RTVSPost2010Prop43
 90
        3
102
RTVSPost2010PropOp43
 70
     1
102
RTVSPost2010Prop44ColorIndex
 90
        5
102
RTVSPost2010Prop44ColorRGB
 90
      255
102
RTVSPost2010PropOp44
 70
     1
102
RTVSPost2010Prop45
280
     0
102
RTVSPost2010PropOp45
 70
     1
102
RTVSPost2010Prop46
 90
       50
102
RTVSPost2010PropOp46
 70
     1
102
RTVSPost2010Prop47
 90
       50
102
RTVSPost2010PropOp47
 70
     1
102
RTVSPost2010Prop48
 90
       50
102
RTVSPost2010PropOp48
 70
     1
102
RTVSPost2010Prop49
280
     0
102
RTVSPost2010PropOp49
 70
     1
102
RTVSPost2010Prop50
 90
       50
102
RTVSPost2010PropOp50
 70
     1
102
RTVSPost2010Prop51ColorIndex
 90
      256
102
RTVSPost2010Prop51ColorRGB
 90
-16777216
102
RTVSPost2010PropOp51
 70
     0
102
RTVSPost2010Prop52
140
1.0
102
RTVSPost2010PropOp52
 70
     0
102
RTVSPost2010Prop53
 90
        2
102
RTVSPost2010PropOp53
 70
     1
102
RTVSPost2010Prop54
  1
strokes_ogs.tif
102
RTVSPost2010PropOp54
 70
     1
102
RTVSPost2010Prop55
280
     0
102
RTVSPost2010PropOp55
 70
     1
102
RTVSPost2010Prop56
140
1.0
102
RTVSPost2010PropOp56
 70
     1
102
RTVSPost2010Prop57
140
1.0
102
RTVSPost2010PropOp57
 70
     1
  0
XRECORD
  5
101
102
{ACAD_REACTORS
330
100
102
}
330
100
100
AcDbXrecord
280
     1
102
RTVSPropertyOp0
 70
     1
102
RTVSPropertyOp1
 70
     1
102
RTVSPropertyOp2
 70
     1
102
RTVSPropertyOp3
 70
     1
102
RTVSPropertyOp4
 70
     1
102
RTVSPropertyOp5
 70
     1
102
RTVSPropertyOp6
 70
     1
102
RTVSPropertyOp7
 70
     1
102
RTVSPropertyOp8
 70
     1
102
RTVSPropertyOp9
 70
     1
102
RTVSPropertyOp10
 70
     1
102
RTVSPropertyOp11
 70
     1
102
RTVSPropertyOp12
 70
     1
102
RTVSPropertyOp13
 70
     1
102
RTVSPropertyOp14
 70
     1
102
RTVSPropertyOp15
 70
     1
102
RTVSPropertyOp16
 70
     1
102
RTVSPropertyOp17
 70
     1
102
RTVSPropertyOp18
 70
     1
102
RTVSPropertyOp19
 70
     1
102
RTVSPropertyOp20
 70
     1
102
RTVSPropertyOp21
 70
     1
102
RTVSPropertyOp22
 70
     1
102
RTVSPropertyOp23
 70
     1
102
RTVSPropertyOp24
 70
     1
102
RTVSPropertyOp25
 70
     1
102
RTVSPropertyOp26
 70
     1
102
RTVSPropertyOp27
 70
     1
102
RTVSPropertyOp28
 70
     1
102
RTVSPropertyOp29
 70
     1
102
RTVSPropertyOp30
 70
     1
102
RTVSPropertyOp31
 70
     1
102
RTVSPropertyOp32
 70
     1
102
RTVSPropertyOp33
 70
     1
102
RTVSPropertyOp34
 70
     1
102
RTVSPropertyOp35
 70
     1
102
RTVSPropertyOp36
 70
     1
102
RTVSPropertyOp37
 70
     1
102
RTVSPropertyOp38
 70
     1
102
RTVSPropertyOp39
 70
     1
102
RTVSPropertyOp40
 70
     1
102
RTVSPropertyOp41
 70
     1
102
RTVSPropertyOp42
 70
     1
102
RTVSPropertyOp43
 70
     1
102
RTVSPropertyOp44
 70
     1
102
RTVSPropertyOp45
 70
     1
102
RTVSPropertyOp46
 70
     1
102
RTVSPropertyOp47
 70
     1
102
RTVSPropertyOp48
 70
     1
102
RTVSPropertyOp49
 70
     1
102
RTVSPropertyOp50
 70
     1
102
RTVSPropertyOp51
 70
     0
102
RTVSPropertyOp52
 70
     0
102
RTVSPropertyOp53
 70
     1
102
RTVSPropertyOp54
 70
     1
102
RTVSPropertyOp55
 70
     1
102
RTVSPropertyOp56
 70
     1
102
RTVSPropertyOp57
 70
     1
102
RTVSPost2010Prop28
280
     0
102
RTVSPost2010PropOp28
 70
     1
102
RTVSPost2010Prop29
280
     1
102
RTVSPost2010PropOp29
 70
     1
102
RTVSPost2010Prop30
280
     1
102
RTVSPost2010PropOp30
 70
     1
102
RTVSPost2010Prop31
280
     0
102
RTVSPost2010PropOp31
 70
     1
102
RTVSPost2010Prop32
280
     0
102
RTVSPost2010PropOp32
 70
     1
102
RTVSPost2010Prop33
280
     0
102
RTVSPost2010PropOp33
 70
     1
102
RTVSPost2010Prop34
280
     0
102
RTVSPost2010PropOp34
 70
     1
102
RTVSPost2010Prop35
280
     0
102
RTVSPost2010PropOp35
 70
     1
102
RTVSPost2010Prop36
280
     0
102
RTVSPost2010PropOp36
 70
     1
102
RTVSPost2010Prop37
 90
       50
102
RTVSPost2010PropOp37
 70
     1
102
RTVSPost2010Prop38
140
0.0
102
RTVSPost2010PropOp38
 70
     1
102
RTVSPost2010Prop39
140
1.0
102
RTVSPost2010PropOp39
 70
     1
102
RTVSPost2010Prop40
 90
        0
102
RTVSPost2010PropOp40
 70
     1
102
RTVSPost2010Prop41ColorIndex
 90
       18
102
RTVSPost2010Prop41ColorRGB
 90
        0
102
RTVSPost2010PropOp41
 70
     1
102
RTVSPost2010Prop42
 90
       50
102
RTVSPost2010PropOp42
 70
     1
102
RTVSPost2010Prop43
 90
        3
102
RTVSPost2010PropOp43
 70
     1
102
RTVSPost2010Prop44ColorIndex
 90
        5
102
RTVSPost2010Prop44ColorRGB
 90
      255
102
RTVSPost2010PropOp44
 70
     1
102
RTVSPost2010Prop45
280
     0
102
RTVSPost2010PropOp45
 70
     1
102
RTVSPost2010Prop46
 90
       50
102
RTVSPost2010PropOp46
 70
     1
102
RTVSPost2010Prop47
 90
       50
102
RTVSPost2010PropOp47
 70
     1
102
RTVSPost2010Prop48
 90
       50
102
RTVSPost2010PropOp48
 70
     1
102
RTVSPost2010Prop49
280
     0
102
RTVSPost2010PropOp49
 70
     1
102
RTVSPost2010Prop50
 90
       50
102
RTVSPost2010PropOp50
 70
     1
102
RTVSPost2010Prop51ColorIndex
 90
      256
102
RTVSPost2010Prop51ColorRGB
 90
-16777216
102
RTVSPost2010PropOp51
 70
     0
102
RTVSPost2010Prop52
140
1.0
102
RTVSPost2010PropOp52
 70
     0
102
RTVSPost2010Prop53
 90
        2
102
RTVSPost2010PropOp53
 70
     1
102
RTVSPost2010Prop54
  1
strokes_ogs.tif
102
RTVSPost2010PropOp54
 70
     1
102
RTVSPost2010Prop55
280
     0
102
RTVSPost2010PropOp55
 70
     1
102
RTVSPost2010Prop56
140
1.0
102
RTVSPost2010PropOp56
 70
     1
102
RTVSPost2010Prop57
140
1.0
102
RTVSPost2010PropOp57
 70
     1
  0
ENDSEC
  0
EOF
